ISO-10303-21;
HEADER;
FILE_DESCRIPTION (( 'STEP AP203' ),
    '1' );
FILE_NAME ('99b4.STEP',
    '2022-07-08T14:34:07',
    ( '' ),
    ( '' ),
    'SwSTEP 2.0',
    'SolidWorks 2019',
    '' );
FILE_SCHEMA (( 'CONFIG_CONTROL_DESIGN' ));
ENDSEC;

DATA;
#1 = DIRECTION ( 'NONE',  ( 0.000000000000000000, 0.000000000000000000, 1.000000000000000000 ) ) ;
#2 = CARTESIAN_POINT ( 'NONE',  ( 0.000000000000000000, 0.000000000000000000, 7.000000000000000000 ) ) ;
#3 = CARTESIAN_POINT ( 'NONE',  ( 6.000000000000000888, 7.347880794884120722E-16, 357.0000000000000000 ) ) ;
#4 = ORIENTED_EDGE ( 'NONE', *, *, #136, .F. ) ;
#5 = AXIS2_PLACEMENT_3D ( 'NONE', #352, #138, #348 ) ;
#6 = CARTESIAN_POINT ( 'NONE',  ( 10.00000000000000000, 1.224646799147353256E-15, 0.000000000000000000 ) ) ;
#7 = AXIS2_PLACEMENT_3D ( 'NONE', #82, #151, #264 ) ;
#8 = EDGE_LOOP ( 'NONE', ( #146, #189 ) ) ;
#9 = DIRECTION ( 'NONE',  ( -0.000000000000000000, -0.000000000000000000, -1.000000000000000000 ) ) ;
#10 = ADVANCED_FACE ( 'NONE', ( #290 ), #261, .T. ) ;
#11 = CARTESIAN_POINT ( 'NONE',  ( 0.000000000000000000, 0.000000000000000000, 0.000000000000000000 ) ) ;
#12 = AXIS2_PLACEMENT_3D ( 'NONE', #229, #74, #47 ) ;
#13 =( NAMED_UNIT ( * ) SI_UNIT ( $, .STERADIAN. ) SOLID_ANGLE_UNIT ( ) );
#14 = APPROVAL ( #155, 'NEURÈENÝ' ) ;
#15 = DIRECTION ( 'NONE',  ( 0.000000000000000000, 0.000000000000000000, 1.000000000000000000 ) ) ;
#16 = CARTESIAN_POINT ( 'NONE',  ( 0.000000000000000000, 0.000000000000000000, 357.0000000000000000 ) ) ;
#17 = CIRCLE ( 'NONE', #75, 10.00000000000000000 ) ;
#18 = COORDINATED_UNIVERSAL_TIME_OFFSET ( 1, 0, .AHEAD. ) ;
#19 = DATE_TIME_ROLE ( 'classification_date' ) ;
#20 = ORIENTED_EDGE ( 'NONE', *, *, #73, .T. ) ;
#21 = PERSON_AND_ORGANIZATION_ROLE ( 'classification_officer' ) ;
#22 = APPLICATION_CONTEXT ( 'configuration controlled 3d designs of mechanical parts and assemblies' ) ;
#23 = COORDINATED_UNIVERSAL_TIME_OFFSET ( 1, 0, .AHEAD. ) ;
#24 = DIRECTION ( 'NONE',  ( 0.000000000000000000, 0.000000000000000000, 1.000000000000000000 ) ) ;
#25 = ORIENTED_EDGE ( 'NONE', *, *, #267, .T. ) ;
#26 = DIRECTION ( 'NONE',  ( 1.000000000000000000, 0.000000000000000000, -0.000000000000000000 ) ) ;
#27 = ORGANIZATION ( 'NEURÈENÝ', 'NEURÈENÝ', '' ) ;
#28 = CC_DESIGN_APPROVAL ( #212, ( #147 ) ) ;
#29 = ORIENTED_EDGE ( 'NONE', *, *, #90, .F. ) ;
#30 = DIRECTION ( 'NONE',  ( 0.000000000000000000, 0.000000000000000000, -1.000000000000000000 ) ) ;
#31 = ORIENTED_EDGE ( 'NONE', *, *, #313, .F. ) ;
#32 = ADVANCED_FACE ( 'NONE', ( #66 ), #170, .T. ) ;
#33 = ADVANCED_BREP_SHAPE_REPRESENTATION ( '99b4', ( #182, #266 ), #85 ) ;
#34 = CARTESIAN_POINT ( 'NONE',  ( 0.000000000000000000, 0.000000000000000000, 7.699999999999985079 ) ) ;
#35 = FACE_OUTER_BOUND ( 'NONE', #203, .T. ) ;
#36 = VERTEX_POINT ( 'NONE', #96 ) ;
#37 = LINE ( 'NONE', #3, #305 ) ;
#38 = CARTESIAN_POINT ( 'NONE',  ( -6.700000000000001066, 8.205133554287267548E-16, 7.699999999999985079 ) ) ;
#39 = PRODUCT_DEFINITION ( 'NEZNÁMÝ', '', #169, #55 ) ;
#40 = ORIENTED_EDGE ( 'NONE', *, *, #136, .T. ) ;
#41 = CIRCLE ( 'NONE', #373, 6.000000000000000888 ) ;
#42 = AXIS2_PLACEMENT_3D ( 'NONE', #286, #134, #350 ) ;
#43 = CARTESIAN_POINT ( 'NONE',  ( 0.000000000000000000, 0.000000000000000000, 7.000000000000000000 ) ) ;
#44 = DIRECTION ( 'NONE',  ( 0.000000000000000000, 0.000000000000000000, 1.000000000000000000 ) ) ;
#45 = AXIS2_PLACEMENT_3D ( 'NONE', #222, #24, #105 ) ;
#46 = LOCAL_TIME ( 16, 34, 7.000000000000000000, #18 ) ;
#47 = DIRECTION ( 'NONE',  ( 1.000000000000000000, 0.000000000000000000, 0.000000000000000000 ) ) ;
#48 = CALENDAR_DATE ( 2022, 8, 7 ) ;
#49 = PERSON_AND_ORGANIZATION ( #228, #27 ) ;
#50 = AXIS2_PLACEMENT_3D ( 'NONE', #93, #211, #328 ) ;
#51 = APPLICATION_CONTEXT ( 'configuration controlled 3d designs of mechanical parts and assemblies' ) ;
#52 = PERSON_AND_ORGANIZATION ( #228, #27 ) ;
#53 = PRODUCT_DEFINITION_SHAPE ( 'NONE', 'NONE',  #39 ) ;
#54 = DIRECTION ( 'NONE',  ( 0.000000000000000000, 0.000000000000000000, 1.000000000000000000 ) ) ;
#55 = DESIGN_CONTEXT ( 'detailed design', #51, 'design' ) ;
#56 = ORIENTED_EDGE ( 'NONE', *, *, #306, .F. ) ;
#57 = CARTESIAN_POINT ( 'NONE',  ( 6.000000000000000888, 7.347880794884120722E-16, 357.0000000000000000 ) ) ;
#58 = CIRCLE ( 'NONE', #94, 10.00000000000000000 ) ;
#59 = VECTOR ( 'NONE', #372, 1000.000000000000000 ) ;
#60 = ORIENTED_EDGE ( 'NONE', *, *, #234, .F. ) ;
#61 = DIRECTION ( 'NONE',  ( 1.000000000000000000, 0.000000000000000000, 0.000000000000000000 ) ) ;
#62 = EDGE_LOOP ( 'NONE', ( #353, #172, #215, #88 ) ) ;
#63 = LINE ( 'NONE', #65, #119 ) ;
#64 = ORIENTED_EDGE ( 'NONE', *, *, #321, .F. ) ;
#65 = CARTESIAN_POINT ( 'NONE',  ( 4.099999999999999645, 5.021051876504147385E-16, 357.0000000000000000 ) ) ;
#66 = FACE_OUTER_BOUND ( 'NONE', #377, .T. ) ;
#67 = DIRECTION ( 'NONE',  ( 0.000000000000000000, 0.000000000000000000, 1.000000000000000000 ) ) ;
#68 = CYLINDRICAL_SURFACE ( 'NONE', #240, 10.00000000000000000 ) ;
#69 = CARTESIAN_POINT ( 'NONE',  ( 6.000000000000000888, 7.347880794884120722E-16, 7.699999999999985079 ) ) ;
#70 = CARTESIAN_POINT ( 'NONE',  ( 0.000000000000000000, 0.000000000000000000, 7.000000000000000000 ) ) ;
#71 = FACE_BOUND ( 'NONE', #160, .T. ) ;
#72 = COORDINATED_UNIVERSAL_TIME_OFFSET ( 1, 0, .AHEAD. ) ;
#73 = EDGE_CURVE ( 'NONE', #81, #288, #195, .T. ) ;
#74 = DIRECTION ( 'NONE',  ( -0.000000000000000000, -0.000000000000000000, -1.000000000000000000 ) ) ;
#75 = AXIS2_PLACEMENT_3D ( 'NONE', #378, #168, #208 ) ;
#76 = CIRCLE ( 'NONE', #263, 10.00000000000000000 ) ;
#77 = ADVANCED_FACE ( 'NONE', ( #333 ), #68, .T. ) ;
#78 = ORIENTED_EDGE ( 'NONE', *, *, #267, .F. ) ;
#79 = CALENDAR_DATE ( 2022, 8, 7 ) ;
#80 = CIRCLE ( 'NONE', #101, 4.099999999999999645 ) ;
#81 = VERTEX_POINT ( 'NONE', #291 ) ;
#82 = CARTESIAN_POINT ( 'NONE',  ( 0.000000000000000000, 0.000000000000000000, 7.000000000000000000 ) ) ;
#83 = CARTESIAN_POINT ( 'NONE',  ( 0.000000000000000000, 0.000000000000000000, 0.000000000000000000 ) ) ;
#84 = CYLINDRICAL_SURFACE ( 'NONE', #366, 4.099999999999999645 ) ;
#85 =( GEOMETRIC_REPRESENTATION_CONTEXT ( 3 ) GLOBAL_UNCERTAINTY_ASSIGNED_CONTEXT ( ( #121 ) ) GLOBAL_UNIT_ASSIGNED_CONTEXT ( ( #336, #297, #13 ) ) REPRESENTATION_CONTEXT ( 'NONE', 'WORKASPACE' ) );
#86 = CC_DESIGN_PERSON_AND_ORGANIZATION_ASSIGNMENT ( #52, #125, ( #169 ) ) ;
#87 = AXIS2_PLACEMENT_3D ( 'NONE', #34, #379, #140 ) ;
#88 = ORIENTED_EDGE ( 'NONE', *, *, #380, .F. ) ;
#89 = CARTESIAN_POINT ( 'NONE',  ( 4.099999999999999645, 5.021051876504147385E-16, 357.0000000000000000 ) ) ;
#90 = EDGE_CURVE ( 'NONE', #111, #258, #314, .T. ) ;
#91 = FACE_BOUND ( 'NONE', #315, .T. ) ;
#92 = ORIENTED_EDGE ( 'NONE', *, *, #247, .F. ) ;
#93 = CARTESIAN_POINT ( 'NONE',  ( 0.000000000000000000, 0.000000000000000000, 357.0000000000000000 ) ) ;
#94 = AXIS2_PLACEMENT_3D ( 'NONE', #171, #246, #116 ) ;
#95 = CARTESIAN_POINT ( 'NONE',  ( -4.099999999999999645, 0.000000000000000000, 357.0000000000000000 ) ) ;
#96 = CARTESIAN_POINT ( 'NONE',  ( 4.099999999999999645, 5.021051876504147385E-16, 0.000000000000000000 ) ) ;
#97 = DIRECTION ( 'NONE',  ( 0.000000000000000000, 0.000000000000000000, 1.000000000000000000 ) ) ;
#98 = EDGE_LOOP ( 'NONE', ( #56, #20, #131, #163 ) ) ;
#99 = CC_DESIGN_PERSON_AND_ORGANIZATION_ASSIGNMENT ( #152, #326, ( #206 ) ) ;
#100 = DIRECTION ( 'NONE',  ( 0.000000000000000000, 0.000000000000000000, -1.000000000000000000 ) ) ;
#101 = AXIS2_PLACEMENT_3D ( 'NONE', #181, #268, #252 ) ;
#102 = PERSON_AND_ORGANIZATION ( #228, #27 ) ;
#103 = TOROIDAL_SURFACE ( 'NONE', #87, 6.700000000000001066, 0.6999999999999999556 ) ;
#104 = APPROVAL_DATE_TIME ( #180, #14 ) ;
#105 = DIRECTION ( 'NONE',  ( 1.000000000000000000, 0.000000000000000000, 0.000000000000000000 ) ) ;
#106 = DIRECTION ( 'NONE',  ( -1.000000000000000000, 0.000000000000000000, 0.000000000000000000 ) ) ;
#107 = CIRCLE ( 'NONE', #340, 6.000000000000000888 ) ;
#108 = ORIENTED_EDGE ( 'NONE', *, *, #370, .F. ) ;
#109 = ORIENTED_EDGE ( 'NONE', *, *, #239, .F. ) ;
#110 = CARTESIAN_POINT ( 'NONE',  ( -6.000000000000000888, 0.000000000000000000, 357.0000000000000000 ) ) ;
#111 = VERTEX_POINT ( 'NONE', #343 ) ;
#112 = DIRECTION ( 'NONE',  ( -0.000000000000000000, -0.000000000000000000, -1.000000000000000000 ) ) ;
#113 = DIRECTION ( 'NONE',  ( -1.000000000000000000, 0.000000000000000000, 0.000000000000000000 ) ) ;
#114 = CARTESIAN_POINT ( 'NONE',  ( 0.000000000000000000, 0.000000000000000000, 357.0000000000000000 ) ) ;
#115 = DIRECTION ( 'NONE',  ( -0.000000000000000000, -0.000000000000000000, -1.000000000000000000 ) ) ;
#116 = DIRECTION ( 'NONE',  ( 1.000000000000000000, 0.000000000000000000, 0.000000000000000000 ) ) ;
#117 = AXIS2_PLACEMENT_3D ( 'NONE', #164, #277, #26 ) ;
#118 = ORIENTED_EDGE ( 'NONE', *, *, #167, .F. ) ;
#119 = VECTOR ( 'NONE', #199, 1000.000000000000000 ) ;
#120 = ORIENTED_EDGE ( 'NONE', *, *, #301, .F. ) ;
#121 = UNCERTAINTY_MEASURE_WITH_UNIT (LENGTH_MEASURE( 1.000000000000000082E-05 ), #336, 'distance_accuracy_value', 'NONE');
#122 = ORIENTED_EDGE ( 'NONE', *, *, #247, .T. ) ;
#123 = VECTOR ( 'NONE', #112, 1000.000000000000000 ) ;
#124 = SHAPE_DEFINITION_REPRESENTATION ( #53, #33 ) ;
#125 = PERSON_AND_ORGANIZATION_ROLE ( 'creator' ) ;
#126 = APPROVAL_DATE_TIME ( #272, #212 ) ;
#127 = APPROVAL_ROLE ( '' ) ;
#128 = EDGE_LOOP ( 'NONE', ( #109, #201 ) ) ;
#129 = DATE_AND_TIME ( #79, #248 ) ;
#130 = CARTESIAN_POINT ( 'NONE',  ( 0.000000000000000000, 0.000000000000000000, 7.000000000000000000 ) ) ;
#131 = ORIENTED_EDGE ( 'NONE', *, *, #191, .F. ) ;
#132 = ADVANCED_FACE ( 'NONE', ( #251 ), #265, .T. ) ;
#133 = FACE_OUTER_BOUND ( 'NONE', #98, .T. ) ;
#134 = DIRECTION ( 'NONE',  ( 0.000000000000000000, 0.000000000000000000, 1.000000000000000000 ) ) ;
#135 = DIRECTION ( 'NONE',  ( 1.000000000000000000, 0.000000000000000000, -0.000000000000000000 ) ) ;
#136 = EDGE_CURVE ( 'NONE', #359, #296, #363, .T. ) ;
#137 = EDGE_LOOP ( 'NONE', ( #4, #345, #318, #330 ) ) ;
#138 = DIRECTION ( 'NONE',  ( 0.000000000000000000, 0.000000000000000000, 1.000000000000000000 ) ) ;
#139 = ORIENTED_EDGE ( 'NONE', *, *, #234, .T. ) ;
#140 = DIRECTION ( 'NONE',  ( 1.000000000000000000, 0.000000000000000000, 0.000000000000000000 ) ) ;
#141 = VERTEX_POINT ( 'NONE', #338 ) ;
#142 = CARTESIAN_POINT ( 'NONE',  ( 0.000000000000000000, 0.000000000000000000, 0.000000000000000000 ) ) ;
#143 = DIRECTION ( 'NONE',  ( 1.224646799147353207E-16, 1.000000000000000000, -0.000000000000000000 ) ) ;
#144 = EDGE_CURVE ( 'NONE', #36, #235, #244, .T. ) ;
#145 = CIRCLE ( 'NONE', #319, 6.000000000000000888 ) ;
#146 = ORIENTED_EDGE ( 'NONE', *, *, #202, .F. ) ;
#147 = SECURITY_CLASSIFICATION ( '', '', #364 ) ;
#148 = CC_DESIGN_DATE_AND_TIME_ASSIGNMENT ( #371, #19, ( #147 ) ) ;
#149 = CARTESIAN_POINT ( 'NONE',  ( 10.00000000000000000, 1.224646799147353256E-15, 7.000000000000000000 ) ) ;
#150 = PLANE ( 'NONE',  #357 ) ;
#151 = DIRECTION ( 'NONE',  ( -0.000000000000000000, -0.000000000000000000, -1.000000000000000000 ) ) ;
#152 = PERSON_AND_ORGANIZATION ( #228, #27 ) ;
#153 = VERTEX_POINT ( 'NONE', #346 ) ;
#154 = AXIS2_PLACEMENT_3D ( 'NONE', #11, #1, #135 ) ;
#155 = APPROVAL_STATUS ( 'not_yet_approved' ) ;
#156 = CARTESIAN_POINT ( 'NONE',  ( 0.000000000000000000, 0.000000000000000000, 357.0000000000000000 ) ) ;
#157 = ADVANCED_FACE ( 'NONE', ( #217 ), #335, .F. ) ;
#158 = CALENDAR_DATE ( 2022, 8, 7 ) ;
#159 = PERSON_AND_ORGANIZATION ( #228, #27 ) ;
#160 = EDGE_LOOP ( 'NONE', ( #166, #260 ) ) ;
#161 = COORDINATED_UNIVERSAL_TIME_OFFSET ( 1, 0, .AHEAD. ) ;
#162 = LINE ( 'NONE', #205, #278 ) ;
#163 = ORIENTED_EDGE ( 'NONE', *, *, #226, .F. ) ;
#164 = CARTESIAN_POINT ( 'NONE',  ( 0.000000000000000000, 0.000000000000000000, 357.0000000000000000 ) ) ;
#165 = ORIENTED_EDGE ( 'NONE', *, *, #306, .T. ) ;
#166 = ORIENTED_EDGE ( 'NONE', *, *, #191, .T. ) ;
#167 = EDGE_CURVE ( 'NONE', #258, #111, #323, .T. ) ;
#168 = DIRECTION ( 'NONE',  ( 0.000000000000000000, 0.000000000000000000, 1.000000000000000000 ) ) ;
#169 = PRODUCT_DEFINITION_FORMATION_WITH_SPECIFIED_SOURCE ( 'LIBOVOLNÝ', '', #206, .NOT_KNOWN. ) ;
#170 = CYLINDRICAL_SURFACE ( 'NONE', #50, 6.000000000000000888 ) ;
#171 = CARTESIAN_POINT ( 'NONE',  ( 0.000000000000000000, 0.000000000000000000, 7.000000000000000000 ) ) ;
#172 = ORIENTED_EDGE ( 'NONE', *, *, #301, .T. ) ;
#173 = DIRECTION ( 'NONE',  ( -0.000000000000000000, -0.000000000000000000, -1.000000000000000000 ) ) ;
#174 = DIRECTION ( 'NONE',  ( -0.000000000000000000, -0.000000000000000000, -1.000000000000000000 ) ) ;
#175 = ADVANCED_FACE ( 'NONE', ( #71, #298 ), #150, .T. ) ;
#176 = DIRECTION ( 'NONE',  ( 1.000000000000000000, 0.000000000000000000, 0.000000000000000000 ) ) ;
#177 = CARTESIAN_POINT ( 'NONE',  ( 0.000000000000000000, 0.000000000000000000, 7.000000000000000000 ) ) ;
#178 = AXIS2_PLACEMENT_3D ( 'NONE', #2, #207, #325 ) ;
#179 = DIRECTION ( 'NONE',  ( 1.000000000000000000, 0.000000000000000000, -0.000000000000000000 ) ) ;
#180 = DATE_AND_TIME ( #269, #293 ) ;
#181 = CARTESIAN_POINT ( 'NONE',  ( 0.000000000000000000, 0.000000000000000000, 0.000000000000000000 ) ) ;
#182 = MANIFOLD_SOLID_BREP ( 'Odebrat vysunutím3', #270 ) ;
#183 = AXIS2_PLACEMENT_3D ( 'NONE', #177, #173, #358 ) ;
#184 = PERSON_AND_ORGANIZATION ( #228, #27 ) ;
#185 = APPROVAL_ROLE ( '' ) ;
#186 = AXIS2_PLACEMENT_3D ( 'NONE', #362, #100, #310 ) ;
#187 = CC_DESIGN_PERSON_AND_ORGANIZATION_ASSIGNMENT ( #49, #367, ( #169 ) ) ;
#188 = DATE_AND_TIME ( #48, #317 ) ;
#189 = ORIENTED_EDGE ( 'NONE', *, *, #144, .F. ) ;
#190 = PERSON_AND_ORGANIZATION ( #228, #27 ) ;
#191 = EDGE_CURVE ( 'NONE', #308, #288, #295, .T. ) ;
#192 = DIRECTION ( 'NONE',  ( 1.000000000000000000, 0.000000000000000000, 0.000000000000000000 ) ) ;
#193 = FACE_BOUND ( 'NONE', #8, .T. ) ;
#194 = ORIENTED_EDGE ( 'NONE', *, *, #249, .F. ) ;
#195 = CIRCLE ( 'NONE', #331, 0.7000000000000000666 ) ;
#196 = LINE ( 'NONE', #110, #123 ) ;
#197 = ORIENTED_EDGE ( 'NONE', *, *, #167, .T. ) ;
#198 = TOROIDAL_SURFACE ( 'NONE', #42, 6.700000000000001066, 0.6999999999999999556 ) ;
#199 = DIRECTION ( 'NONE',  ( 0.000000000000000000, 0.000000000000000000, -1.000000000000000000 ) ) ;
#200 = AXIS2_PLACEMENT_3D ( 'NONE', #302, #54, #176 ) ;
#201 = ORIENTED_EDGE ( 'NONE', *, *, #223, .F. ) ;
#202 = EDGE_CURVE ( 'NONE', #235, #36, #80, .T. ) ;
#203 = EDGE_LOOP ( 'NONE', ( #122, #232 ) ) ;
#204 = CC_DESIGN_PERSON_AND_ORGANIZATION_ASSIGNMENT ( #102, #21, ( #147 ) ) ;
#205 = CARTESIAN_POINT ( 'NONE',  ( 10.00000000000000000, 1.224646799147353256E-15, 7.000000000000000000 ) ) ;
#206 = PRODUCT ( '99b4', '99b4', '', ( #294 ) ) ;
#207 = DIRECTION ( 'NONE',  ( -0.000000000000000000, -0.000000000000000000, -1.000000000000000000 ) ) ;
#208 = DIRECTION ( 'NONE',  ( 1.000000000000000000, 0.000000000000000000, 0.000000000000000000 ) ) ;
#209 = EDGE_CURVE ( 'NONE', #296, #141, #361, .T. ) ;
#210 = APPROVAL_PERSON_ORGANIZATION ( #159, #14, #127 ) ;
#211 = DIRECTION ( 'NONE',  ( -0.000000000000000000, -0.000000000000000000, -1.000000000000000000 ) ) ;
#212 = APPROVAL ( #227, 'NEURÈENÝ' ) ;
#213 = DIRECTION ( 'NONE',  ( -1.000000000000000000, 1.224646799147353454E-16, 0.000000000000000000 ) ) ;
#214 = AXIS2_PLACEMENT_3D ( 'NONE', #156, #276, #106 ) ;
#215 = ORIENTED_EDGE ( 'NONE', *, *, #144, .T. ) ;
#216 = ADVANCED_FACE ( 'NONE', ( #193, #337 ), #312, .F. ) ;
#217 = FACE_OUTER_BOUND ( 'NONE', #349, .T. ) ;
#218 = ORIENTED_EDGE ( 'NONE', *, *, #313, .T. ) ;
#219 = APPROVAL ( #339, 'NEURÈENÝ' ) ;
#220 = DIRECTION ( 'NONE',  ( 0.000000000000000000, 0.000000000000000000, 1.000000000000000000 ) ) ;
#221 = PERSON_AND_ORGANIZATION ( #228, #27 ) ;
#222 = CARTESIAN_POINT ( 'NONE',  ( 0.000000000000000000, 0.000000000000000000, 357.0000000000000000 ) ) ;
#223 = EDGE_CURVE ( 'NONE', #322, #141, #76, .T. ) ;
#224 = PERSON_AND_ORGANIZATION_ROLE ( 'creator' ) ;
#225 = CC_DESIGN_DATE_AND_TIME_ASSIGNMENT ( #129, #309, ( #39 ) ) ;
#226 = EDGE_CURVE ( 'NONE', #381, #308, #254, .T. ) ;
#227 = APPROVAL_STATUS ( 'not_yet_approved' ) ;
#228 = PERSON ( 'NEURÈENÝ', 'NEURÈENÝ', 'NEURÈENÝ', ('NEURÈENÝ'), ('NEURÈENÝ'), ('NEURÈENÝ') ) ;
#229 = CARTESIAN_POINT ( 'NONE',  ( 0.000000000000000000, 0.000000000000000000, 0.000000000000000000 ) ) ;
#230 = APPROVAL_PERSON_ORGANIZATION ( #221, #212, #303 ) ;
#231 = CARTESIAN_POINT ( 'NONE',  ( -10.00000000000000000, 0.000000000000000000, 7.000000000000000000 ) ) ;
#232 = ORIENTED_EDGE ( 'NONE', *, *, #375, .T. ) ;
#233 = CARTESIAN_POINT ( 'NONE',  ( -4.099999999999999645, 0.000000000000000000, 0.000000000000000000 ) ) ;
#234 = EDGE_CURVE ( 'NONE', #153, #81, #196, .T. ) ;
#235 = VERTEX_POINT ( 'NONE', #233 ) ;
#236 = FACE_OUTER_BOUND ( 'NONE', #62, .T. ) ;
#237 = DIRECTION ( 'NONE',  ( 0.000000000000000000, 0.000000000000000000, 1.000000000000000000 ) ) ;
#238 = ORIENTED_EDGE ( 'NONE', *, *, #209, .T. ) ;
#239 = EDGE_CURVE ( 'NONE', #141, #322, #17, .T. ) ;
#240 = AXIS2_PLACEMENT_3D ( 'NONE', #43, #174, #113 ) ;
#241 = CC_DESIGN_APPROVAL ( #14, ( #169 ) ) ;
#242 = DIRECTION ( 'NONE',  ( 0.000000000000000000, 0.000000000000000000, -1.000000000000000000 ) ) ;
#243 = APPROVAL_PERSON_ORGANIZATION ( #184, #219, #185 ) ;
#244 = CIRCLE ( 'NONE', #12, 4.099999999999999645 ) ;
#245 = ADVANCED_FACE ( 'NONE', ( #236 ), #84, .F. ) ;
#246 = DIRECTION ( 'NONE',  ( 0.000000000000000000, 0.000000000000000000, 1.000000000000000000 ) ) ;
#247 = EDGE_CURVE ( 'NONE', #153, #281, #365, .T. ) ;
#248 = LOCAL_TIME ( 16, 34, 7.000000000000000000, #23 ) ;
#249 = EDGE_CURVE ( 'NONE', #359, #322, #162, .T. ) ;
#250 = ORIENTED_EDGE ( 'NONE', *, *, #370, .T. ) ;
#251 = FACE_OUTER_BOUND ( 'NONE', #347, .T. ) ;
#252 = DIRECTION ( 'NONE',  ( 1.000000000000000000, 0.000000000000000000, 0.000000000000000000 ) ) ;
#253 = ORIENTED_EDGE ( 'NONE', *, *, #380, .T. ) ;
#254 = CIRCLE ( 'NONE', #351, 0.7000000000000000666 ) ;
#255 = DIRECTION ( 'NONE',  ( -1.000000000000000000, 0.000000000000000000, 0.000000000000000000 ) ) ;
#256 = ORIENTED_EDGE ( 'NONE', *, *, #226, .T. ) ;
#257 = CARTESIAN_POINT ( 'NONE',  ( -10.00000000000000000, 0.000000000000000000, 7.000000000000000000 ) ) ;
#258 = VERTEX_POINT ( 'NONE', #89 ) ;
#259 = CARTESIAN_POINT ( 'NONE',  ( 0.000000000000000000, 0.000000000000000000, 7.699999999999985079 ) ) ;
#260 = ORIENTED_EDGE ( 'NONE', *, *, #321, .T. ) ;
#261 = CYLINDRICAL_SURFACE ( 'NONE', #178, 10.00000000000000000 ) ;
#262 = DIRECTION ( 'NONE',  ( 1.000000000000000000, 0.000000000000000000, 0.000000000000000000 ) ) ;
#263 = AXIS2_PLACEMENT_3D ( 'NONE', #83, #355, #324 ) ;
#264 = DIRECTION ( 'NONE',  ( 1.000000000000000000, 0.000000000000000000, 0.000000000000000000 ) ) ;
#265 = CYLINDRICAL_SURFACE ( 'NONE', #214, 6.000000000000000888 ) ;
#266 = AXIS2_PLACEMENT_3D ( 'NONE', #142, #67, #262 ) ;
#267 = EDGE_CURVE ( 'NONE', #381, #81, #107, .T. ) ;
#268 = DIRECTION ( 'NONE',  ( -0.000000000000000000, -0.000000000000000000, -1.000000000000000000 ) ) ;
#269 = CALENDAR_DATE ( 2022, 8, 7 ) ;
#270 = CLOSED_SHELL ( 'NONE', ( #245, #292, #32, #10, #77, #175, #216, #132, #285, #271, #157 ) ) ;
#271 = ADVANCED_FACE ( 'NONE', ( #282 ), #103, .F. ) ;
#272 = DATE_AND_TIME ( #307, #46 ) ;
#273 = CC_DESIGN_PERSON_AND_ORGANIZATION_ASSIGNMENT ( #190, #224, ( #39 ) ) ;
#274 = EDGE_LOOP ( 'NONE', ( #194, #108, #238, #374 ) ) ;
#275 = APPROVAL_DATE_TIME ( #188, #219 ) ;
#276 = DIRECTION ( 'NONE',  ( -0.000000000000000000, -0.000000000000000000, -1.000000000000000000 ) ) ;
#277 = DIRECTION ( 'NONE',  ( 0.000000000000000000, 0.000000000000000000, 1.000000000000000000 ) ) ;
#278 = VECTOR ( 'NONE', #115, 1000.000000000000000 ) ;
#279 = ORIENTED_EDGE ( 'NONE', *, *, #202, .T. ) ;
#280 = CC_DESIGN_SECURITY_CLASSIFICATION ( #147, ( #169 ) ) ;
#281 = VERTEX_POINT ( 'NONE', #57 ) ;
#282 = FACE_OUTER_BOUND ( 'NONE', #311, .T. ) ;
#283 = ORIENTED_EDGE ( 'NONE', *, *, #375, .F. ) ;
#284 = DIRECTION ( 'NONE',  ( 0.000000000000000000, 0.000000000000000000, -1.000000000000000000 ) ) ;
#285 = ADVANCED_FACE ( 'NONE', ( #91, #35 ), #316, .T. ) ;
#286 = CARTESIAN_POINT ( 'NONE',  ( 0.000000000000000000, 0.000000000000000000, 7.699999999999985079 ) ) ;
#287 = CIRCLE ( 'NONE', #183, 6.700000000000001066 ) ;
#288 = VERTEX_POINT ( 'NONE', #320 ) ;
#289 = LINE ( 'NONE', #95, #341 ) ;
#290 = FACE_OUTER_BOUND ( 'NONE', #137, .T. ) ;
#291 = CARTESIAN_POINT ( 'NONE',  ( -6.000000000000000888, 0.000000000000000000, 7.699999999999985079 ) ) ;
#292 = ADVANCED_FACE ( 'NONE', ( #133 ), #198, .F. ) ;
#293 = LOCAL_TIME ( 16, 34, 7.000000000000000000, #72 ) ;
#294 = MECHANICAL_CONTEXT ( 'NONE', #22, 'mechanical' ) ;
#295 = CIRCLE ( 'NONE', #7, 6.700000000000001066 ) ;
#296 = VERTEX_POINT ( 'NONE', #257 ) ;
#297 =( NAMED_UNIT ( * ) PLANE_ANGLE_UNIT ( ) SI_UNIT ( $, .RADIAN. ) );
#298 = FACE_OUTER_BOUND ( 'NONE', #356, .T. ) ;
#299 = CARTESIAN_POINT ( 'NONE',  ( 0.000000000000000000, 0.000000000000000000, 7.699999999999985079 ) ) ;
#300 = AXIS2_PLACEMENT_3D ( 'NONE', #70, #220, #192 ) ;
#301 = EDGE_CURVE ( 'NONE', #258, #36, #63, .T. ) ;
#302 = CARTESIAN_POINT ( 'NONE',  ( 0.000000000000000000, 0.000000000000000000, 357.0000000000000000 ) ) ;
#303 = APPROVAL_ROLE ( '' ) ;
#304 = PRODUCT_RELATED_PRODUCT_CATEGORY ( 'detail', '', ( #206 ) ) ;
#305 = VECTOR ( 'NONE', #9, 1000.000000000000000 ) ;
#306 = EDGE_CURVE ( 'NONE', #81, #381, #41, .T. ) ;
#307 = CALENDAR_DATE ( 2022, 8, 7 ) ;
#308 = VERTEX_POINT ( 'NONE', #334 ) ;
#309 = DATE_TIME_ROLE ( 'creation_date' ) ;
#310 = DIRECTION ( 'NONE',  ( -1.000000000000000000, 0.000000000000000000, 0.000000000000000000 ) ) ;
#311 = EDGE_LOOP ( 'NONE', ( #368, #78, #256, #64 ) ) ;
#312 = PLANE ( 'NONE',  #154 ) ;
#313 = EDGE_CURVE ( 'NONE', #281, #381, #37, .T. ) ;
#314 = CIRCLE ( 'NONE', #45, 4.099999999999999645 ) ;
#315 = EDGE_LOOP ( 'NONE', ( #29, #118 ) ) ;
#316 = PLANE ( 'NONE',  #117 ) ;
#317 = LOCAL_TIME ( 16, 34, 7.000000000000000000, #161 ) ;
#318 = ORIENTED_EDGE ( 'NONE', *, *, #223, .T. ) ;
#319 = AXIS2_PLACEMENT_3D ( 'NONE', #16, #97, #332 ) ;
#320 = CARTESIAN_POINT ( 'NONE',  ( -6.700000000000001066, 8.205133554287267548E-16, 6.999999999999992006 ) ) ;
#321 = EDGE_CURVE ( 'NONE', #288, #308, #287, .T. ) ;
#322 = VERTEX_POINT ( 'NONE', #6 ) ;
#323 = CIRCLE ( 'NONE', #200, 4.099999999999999645 ) ;
#324 = DIRECTION ( 'NONE',  ( 1.000000000000000000, 0.000000000000000000, 0.000000000000000000 ) ) ;
#325 = DIRECTION ( 'NONE',  ( -1.000000000000000000, 0.000000000000000000, 0.000000000000000000 ) ) ;
#326 = PERSON_AND_ORGANIZATION_ROLE ( 'design_owner' ) ;
#327 = CC_DESIGN_APPROVAL ( #219, ( #39 ) ) ;
#328 = DIRECTION ( 'NONE',  ( -1.000000000000000000, 0.000000000000000000, 0.000000000000000000 ) ) ;
#329 = DIRECTION ( 'NONE',  ( 1.000000000000000000, 0.000000000000000000, 0.000000000000000000 ) ) ;
#330 = ORIENTED_EDGE ( 'NONE', *, *, #209, .F. ) ;
#331 = AXIS2_PLACEMENT_3D ( 'NONE', #38, #143, #213 ) ;
#332 = DIRECTION ( 'NONE',  ( 1.000000000000000000, 0.000000000000000000, 0.000000000000000000 ) ) ;
#333 = FACE_OUTER_BOUND ( 'NONE', #274, .T. ) ;
#334 = CARTESIAN_POINT ( 'NONE',  ( 6.700000000000001066, 0.000000000000000000, 6.999999999999992006 ) ) ;
#335 = CYLINDRICAL_SURFACE ( 'NONE', #186, 4.099999999999999645 ) ;
#336 =( LENGTH_UNIT ( ) NAMED_UNIT ( * ) SI_UNIT ( .MILLI., .METRE. ) );
#337 = FACE_OUTER_BOUND ( 'NONE', #128, .T. ) ;
#338 = CARTESIAN_POINT ( 'NONE',  ( -10.00000000000000000, 0.000000000000000000, 0.000000000000000000 ) ) ;
#339 = APPROVAL_STATUS ( 'not_yet_approved' ) ;
#340 = AXIS2_PLACEMENT_3D ( 'NONE', #259, #237, #61 ) ;
#341 = VECTOR ( 'NONE', #242, 1000.000000000000000 ) ;
#342 = COORDINATED_UNIVERSAL_TIME_OFFSET ( 1, 0, .AHEAD. ) ;
#343 = CARTESIAN_POINT ( 'NONE',  ( -4.099999999999999645, 0.000000000000000000, 357.0000000000000000 ) ) ;
#344 = LOCAL_TIME ( 16, 34, 7.000000000000000000, #342 ) ;
#345 = ORIENTED_EDGE ( 'NONE', *, *, #249, .T. ) ;
#346 = CARTESIAN_POINT ( 'NONE',  ( -6.000000000000000888, 0.000000000000000000, 357.0000000000000000 ) ) ;
#347 = EDGE_LOOP ( 'NONE', ( #31, #92, #139, #165 ) ) ;
#348 = DIRECTION ( 'NONE',  ( 1.000000000000000000, 0.000000000000000000, 0.000000000000000000 ) ) ;
#349 = EDGE_LOOP ( 'NONE', ( #120, #197, #253, #279 ) ) ;
#350 = DIRECTION ( 'NONE',  ( 1.000000000000000000, 0.000000000000000000, 0.000000000000000000 ) ) ;
#351 = AXIS2_PLACEMENT_3D ( 'NONE', #354, #376, #30 ) ;
#352 = CARTESIAN_POINT ( 'NONE',  ( 0.000000000000000000, 0.000000000000000000, 357.0000000000000000 ) ) ;
#353 = ORIENTED_EDGE ( 'NONE', *, *, #90, .T. ) ;
#354 = CARTESIAN_POINT ( 'NONE',  ( 6.700000000000001066, 0.000000000000000000, 7.699999999999985079 ) ) ;
#355 = DIRECTION ( 'NONE',  ( 0.000000000000000000, 0.000000000000000000, 1.000000000000000000 ) ) ;
#356 = EDGE_LOOP ( 'NONE', ( #250, #40 ) ) ;
#357 = AXIS2_PLACEMENT_3D ( 'NONE', #130, #15, #179 ) ;
#358 = DIRECTION ( 'NONE',  ( 1.000000000000000000, 0.000000000000000000, 0.000000000000000000 ) ) ;
#359 = VERTEX_POINT ( 'NONE', #149 ) ;
#360 = APPLICATION_PROTOCOL_DEFINITION ( 'international standard', 'config_control_design', 1994, #22 ) ;
#361 = LINE ( 'NONE', #231, #59 ) ;
#362 = CARTESIAN_POINT ( 'NONE',  ( 0.000000000000000000, 0.000000000000000000, 357.0000000000000000 ) ) ;
#363 = CIRCLE ( 'NONE', #300, 10.00000000000000000 ) ;
#364 = SECURITY_CLASSIFICATION_LEVEL ( 'unclassified' ) ;
#365 = CIRCLE ( 'NONE', #5, 6.000000000000000888 ) ;
#366 = AXIS2_PLACEMENT_3D ( 'NONE', #114, #284, #255 ) ;
#367 = PERSON_AND_ORGANIZATION_ROLE ( 'design_supplier' ) ;
#368 = ORIENTED_EDGE ( 'NONE', *, *, #73, .F. ) ;
#369 = APPLICATION_PROTOCOL_DEFINITION ( 'international standard', 'config_control_design', 1994, #51 ) ;
#370 = EDGE_CURVE ( 'NONE', #296, #359, #58, .T. ) ;
#371 = DATE_AND_TIME ( #158, #344 ) ;
#372 = DIRECTION ( 'NONE',  ( -0.000000000000000000, -0.000000000000000000, -1.000000000000000000 ) ) ;
#373 = AXIS2_PLACEMENT_3D ( 'NONE', #299, #44, #329 ) ;
#374 = ORIENTED_EDGE ( 'NONE', *, *, #239, .T. ) ;
#375 = EDGE_CURVE ( 'NONE', #281, #153, #145, .T. ) ;
#376 = DIRECTION ( 'NONE',  ( 0.000000000000000000, -1.000000000000000000, 0.000000000000000000 ) ) ;
#377 = EDGE_LOOP ( 'NONE', ( #283, #218, #25, #60 ) ) ;
#378 = CARTESIAN_POINT ( 'NONE',  ( 0.000000000000000000, 0.000000000000000000, 0.000000000000000000 ) ) ;
#379 = DIRECTION ( 'NONE',  ( 0.000000000000000000, 0.000000000000000000, 1.000000000000000000 ) ) ;
#380 = EDGE_CURVE ( 'NONE', #111, #235, #289, .T. ) ;
#381 = VERTEX_POINT ( 'NONE', #69 ) ;
ENDSEC;
END-ISO-10303-21;
