ISO-10303-21;
HEADER;
FILE_DESCRIPTION (( 'STEP AP203' ),
    '1' );
FILE_NAME ('e3eb.STEP',
    '2022-07-08T15:07:54',
    ( '' ),
    ( '' ),
    'SwSTEP 2.0',
    'SolidWorks 2019',
    '' );
FILE_SCHEMA (( 'CONFIG_CONTROL_DESIGN' ));
ENDSEC;

DATA;
#1 = ORIENTED_EDGE ( 'NONE', *, *, #310, .T. ) ;
#2 = AXIS2_PLACEMENT_3D ( 'NONE', #272, #182, #381 ) ;
#3 = DIRECTION ( 'NONE',  ( 1.000000000000000000, 0.000000000000000000, 0.000000000000000000 ) ) ;
#4 = ORIENTED_EDGE ( 'NONE', *, *, #237, .F. ) ;
#5 = DIRECTION ( 'NONE',  ( -0.000000000000000000, -0.000000000000000000, -1.000000000000000000 ) ) ;
#6 = AXIS2_PLACEMENT_3D ( 'NONE', #132, #323, #75 ) ;
#7 = CALENDAR_DATE ( 2022, 8, 7 ) ;
#8 = ORIENTED_EDGE ( 'NONE', *, *, #210, .T. ) ;
#9 = DIRECTION ( 'NONE',  ( -0.000000000000000000, -0.000000000000000000, -1.000000000000000000 ) ) ;
#10 = AXIS2_PLACEMENT_3D ( 'NONE', #40, #346, #191 ) ;
#11 = PERSON_AND_ORGANIZATION ( #150, #203 ) ;
#12 = ORIENTED_EDGE ( 'NONE', *, *, #210, .F. ) ;
#13 = APPROVAL ( #97, 'NEURÈENÝ' ) ;
#14 = ORIENTED_EDGE ( 'NONE', *, *, #74, .F. ) ;
#15 = ORIENTED_EDGE ( 'NONE', *, *, #46, .F. ) ;
#16 = ADVANCED_FACE ( 'NONE', ( #68 ), #259, .T. ) ;
#17 = AXIS2_PLACEMENT_3D ( 'NONE', #354, #81, #375 ) ;
#18 = DIRECTION ( 'NONE',  ( -0.000000000000000000, -0.000000000000000000, -1.000000000000000000 ) ) ;
#19 = DIRECTION ( 'NONE',  ( 0.000000000000000000, 0.000000000000000000, 1.000000000000000000 ) ) ;
#20 = FACE_OUTER_BOUND ( 'NONE', #332, .T. ) ;
#21 = DIRECTION ( 'NONE',  ( 0.000000000000000000, 0.000000000000000000, 1.000000000000000000 ) ) ;
#22 = CIRCLE ( 'NONE', #207, 4.000000000000000000 ) ;
#23 = EDGE_CURVE ( 'NONE', #96, #248, #240, .T. ) ;
#24 = DIRECTION ( 'NONE',  ( 1.000000000000000000, 0.000000000000000000, 0.000000000000000000 ) ) ;
#25 = CYLINDRICAL_SURFACE ( 'NONE', #115, 2.600000000000000089 ) ;
#26 = ORIENTED_EDGE ( 'NONE', *, *, #171, .T. ) ;
#27 = ORIENTED_EDGE ( 'NONE', *, *, #254, .F. ) ;
#28 = AXIS2_PLACEMENT_3D ( 'NONE', #258, #309, #98 ) ;
#29 = PRODUCT_DEFINITION_FORMATION_WITH_SPECIFIED_SOURCE ( 'LIBOVOLNÝ', '', #149, .NOT_KNOWN. ) ;
#30 = CARTESIAN_POINT ( 'NONE',  ( -2.600000000000000089, 0.000000000000000000, 505.0000000000000000 ) ) ;
#31 = VERTEX_POINT ( 'NONE', #314 ) ;
#32 = DIRECTION ( 'NONE',  ( 1.000000000000000000, 0.000000000000000000, 0.000000000000000000 ) ) ;
#33 = EDGE_LOOP ( 'NONE', ( #162, #305, #27, #15 ) ) ;
#34 = ADVANCED_FACE ( 'NONE', ( #126, #220 ), #335, .F. ) ;
#35 = APPLICATION_PROTOCOL_DEFINITION ( 'international standard', 'config_control_design', 1994, #200 ) ;
#36 = EDGE_LOOP ( 'NONE', ( #208, #44 ) ) ;
#37 = PRODUCT_DEFINITION_SHAPE ( 'NONE', 'NONE',  #167 ) ;
#38 = ORIENTED_EDGE ( 'NONE', *, *, #118, .F. ) ;
#39 = PERSON_AND_ORGANIZATION ( #150, #203 ) ;
#40 = CARTESIAN_POINT ( 'NONE',  ( 0.000000000000000000, 0.000000000000000000, 5.000000000000000000 ) ) ;
#41 = PERSON_AND_ORGANIZATION ( #150, #203 ) ;
#42 = CARTESIAN_POINT ( 'NONE',  ( 0.000000000000000000, 0.000000000000000000, 505.0000000000000000 ) ) ;
#43 = LOCAL_TIME ( 17, 7, 54.00000000000000000, #255 ) ;
#44 = ORIENTED_EDGE ( 'NONE', *, *, #23, .T. ) ;
#45 = DIRECTION ( 'NONE',  ( 0.000000000000000000, 0.000000000000000000, 1.000000000000000000 ) ) ;
#46 = EDGE_CURVE ( 'NONE', #54, #248, #194, .T. ) ;
#47 = LINE ( 'NONE', #50, #140 ) ;
#48 = CARTESIAN_POINT ( 'NONE',  ( 0.000000000000000000, 0.000000000000000000, 5.000000000000000000 ) ) ;
#49 = CARTESIAN_POINT ( 'NONE',  ( 0.000000000000000000, 0.000000000000000000, 5.000000000000000000 ) ) ;
#50 = CARTESIAN_POINT ( 'NONE',  ( -4.000000000000000000, 0.000000000000000000, 505.0000000000000000 ) ) ;
#51 = ADVANCED_FACE ( 'NONE', ( #193 ), #341, .F. ) ;
#52 = DIRECTION ( 'NONE',  ( -0.000000000000000000, -0.000000000000000000, -1.000000000000000000 ) ) ;
#53 = CARTESIAN_POINT ( 'NONE',  ( 2.600000000000000089, 3.184081677783118191E-16, 505.0000000000000000 ) ) ;
#54 = VERTEX_POINT ( 'NONE', #73 ) ;
#55 = CARTESIAN_POINT ( 'NONE',  ( -7.000000000000000000, 0.000000000000000000, 0.000000000000000000 ) ) ;
#56 = ORIENTED_EDGE ( 'NONE', *, *, #237, .T. ) ;
#57 = FACE_OUTER_BOUND ( 'NONE', #303, .T. ) ;
#58 = CIRCLE ( 'NONE', #266, 4.000000000000000000 ) ;
#59 = ORIENTED_EDGE ( 'NONE', *, *, #151, .T. ) ;
#60 = PERSON_AND_ORGANIZATION_ROLE ( 'creator' ) ;
#61 = CARTESIAN_POINT ( 'NONE',  ( 0.000000000000000000, 0.000000000000000000, 0.000000000000000000 ) ) ;
#62 = DESIGN_CONTEXT ( 'detailed design', #243, 'design' ) ;
#63 = AXIS2_PLACEMENT_3D ( 'NONE', #49, #169, #80 ) ;
#64 = CALENDAR_DATE ( 2022, 8, 7 ) ;
#65 = EDGE_LOOP ( 'NONE', ( #12, #189, #148, #93 ) ) ;
#66 = EDGE_CURVE ( 'NONE', #215, #356, #58, .T. ) ;
#67 = DATE_TIME_ROLE ( 'classification_date' ) ;
#68 = FACE_OUTER_BOUND ( 'NONE', #373, .T. ) ;
#69 = COORDINATED_UNIVERSAL_TIME_OFFSET ( 1, 0, .AHEAD. ) ;
#70 = VERTEX_POINT ( 'NONE', #153 ) ;
#71 = VECTOR ( 'NONE', #168, 1000.000000000000000 ) ;
#72 = CALENDAR_DATE ( 2022, 8, 7 ) ;
#73 = CARTESIAN_POINT ( 'NONE',  ( 4.000000000000000000, 4.898587196589412829E-16, 5.500000000000005329 ) ) ;
#74 = EDGE_CURVE ( 'NONE', #31, #298, #315, .T. ) ;
#75 = DIRECTION ( 'NONE',  ( -1.000000000000000000, 0.000000000000000000, 0.000000000000000000 ) ) ;
#76 = LINE ( 'NONE', #238, #71 ) ;
#77 = VECTOR ( 'NONE', #5, 1000.000000000000000 ) ;
#78 = FACE_BOUND ( 'NONE', #36, .T. ) ;
#79 = CC_DESIGN_DATE_AND_TIME_ASSIGNMENT ( #277, #92, ( #167 ) ) ;
#80 = DIRECTION ( 'NONE',  ( 1.000000000000000000, 0.000000000000000000, 0.000000000000000000 ) ) ;
#81 = DIRECTION ( 'NONE',  ( 0.000000000000000000, 0.000000000000000000, 1.000000000000000000 ) ) ;
#82 = CIRCLE ( 'NONE', #17, 7.000000000000000000 ) ;
#83 = CARTESIAN_POINT ( 'NONE',  ( 0.000000000000000000, 0.000000000000000000, 0.000000000000000000 ) ) ;
#84 = EDGE_LOOP ( 'NONE', ( #371, #311, #127, #181 ) ) ;
#85 = DIRECTION ( 'NONE',  ( 1.000000000000000000, 0.000000000000000000, 0.000000000000000000 ) ) ;
#86 = DIRECTION ( 'NONE',  ( 0.000000000000000000, 0.000000000000000000, 1.000000000000000000 ) ) ;
#87 = ORIENTED_EDGE ( 'NONE', *, *, #171, .F. ) ;
#88 =( LENGTH_UNIT ( ) NAMED_UNIT ( * ) SI_UNIT ( .MILLI., .METRE. ) );
#89 = CC_DESIGN_DATE_AND_TIME_ASSIGNMENT ( #363, #67, ( #225 ) ) ;
#90 = APPROVAL_ROLE ( '' ) ;
#91 = ORIENTED_EDGE ( 'NONE', *, *, #74, .T. ) ;
#92 = DATE_TIME_ROLE ( 'creation_date' ) ;
#93 = ORIENTED_EDGE ( 'NONE', *, *, #135, .F. ) ;
#94 = AXIS2_PLACEMENT_3D ( 'NONE', #186, #9, #121 ) ;
#95 = ORIENTED_EDGE ( 'NONE', *, *, #376, .F. ) ;
#96 = VERTEX_POINT ( 'NONE', #282 ) ;
#97 = APPROVAL_STATUS ( 'not_yet_approved' ) ;
#98 = DIRECTION ( 'NONE',  ( -1.000000000000000000, 0.000000000000000000, 0.000000000000000000 ) ) ;
#99 = VECTOR ( 'NONE', #351, 1000.000000000000000 ) ;
#100 = CARTESIAN_POINT ( 'NONE',  ( 7.000000000000000000, 8.572527594031473190E-16, 0.000000000000000000 ) ) ;
#101 = DIRECTION ( 'NONE',  ( -1.000000000000000000, 0.000000000000000000, 0.000000000000000000 ) ) ;
#102 = MANIFOLD_SOLID_BREP ( 'Odebrat vysunutím3', #271 ) ;
#103 = CARTESIAN_POINT ( 'NONE',  ( 0.000000000000000000, 0.000000000000000000, 505.0000000000000000 ) ) ;
#104 = AXIS2_PLACEMENT_3D ( 'NONE', #333, #174, #176 ) ;
#105 = DIRECTION ( 'NONE',  ( 0.000000000000000000, 0.000000000000000000, 1.000000000000000000 ) ) ;
#106 = PLANE ( 'NONE',  #250 ) ;
#107 = CARTESIAN_POINT ( 'NONE',  ( -2.600000000000000089, 0.000000000000000000, 0.000000000000000000 ) ) ;
#108 = AXIS2_PLACEMENT_3D ( 'NONE', #42, #155, #164 ) ;
#109 = EDGE_LOOP ( 'NONE', ( #1, #8 ) ) ;
#110 = MECHANICAL_CONTEXT ( 'NONE', #200, 'mechanical' ) ;
#111 = VERTEX_POINT ( 'NONE', #157 ) ;
#112 = DIRECTION ( 'NONE',  ( 0.000000000000000000, 0.000000000000000000, 1.000000000000000000 ) ) ;
#113 = EDGE_CURVE ( 'NONE', #54, #111, #337, .T. ) ;
#114 = CARTESIAN_POINT ( 'NONE',  ( 4.000000000000000000, 4.898587196589412829E-16, 505.0000000000000000 ) ) ;
#115 = AXIS2_PLACEMENT_3D ( 'NONE', #328, #143, #245 ) ;
#116 = PERSON_AND_ORGANIZATION ( #150, #203 ) ;
#117 = ORIENTED_EDGE ( 'NONE', *, *, #269, .F. ) ;
#118 = EDGE_CURVE ( 'NONE', #242, #359, #347, .T. ) ;
#119 = DIRECTION ( 'NONE',  ( 1.000000000000000000, 0.000000000000000000, -0.000000000000000000 ) ) ;
#120 = PERSON_AND_ORGANIZATION ( #150, #203 ) ;
#121 = DIRECTION ( 'NONE',  ( 1.000000000000000000, 0.000000000000000000, 0.000000000000000000 ) ) ;
#122 = APPROVAL_PERSON_ORGANIZATION ( #123, #357, #185 ) ;
#123 = PERSON_AND_ORGANIZATION ( #150, #203 ) ;
#124 = ORIENTED_EDGE ( 'NONE', *, *, #304, .T. ) ;
#125 = PERSON_AND_ORGANIZATION_ROLE ( 'classification_officer' ) ;
#126 = FACE_BOUND ( 'NONE', #369, .T. ) ;
#127 = ORIENTED_EDGE ( 'NONE', *, *, #269, .T. ) ;
#128 = CIRCLE ( 'NONE', #293, 4.000000000000000000 ) ;
#129 = CYLINDRICAL_SURFACE ( 'NONE', #6, 4.000000000000000000 ) ;
#130 = DIRECTION ( 'NONE',  ( 1.000000000000000000, 0.000000000000000000, 0.000000000000000000 ) ) ;
#131 = ADVANCED_FACE ( 'NONE', ( #78, #205 ), #106, .T. ) ;
#132 = CARTESIAN_POINT ( 'NONE',  ( 0.000000000000000000, 0.000000000000000000, 505.0000000000000000 ) ) ;
#133 = CIRCLE ( 'NONE', #159, 7.000000000000000000 ) ;
#134 = CARTESIAN_POINT ( 'NONE',  ( 7.000000000000000000, 8.572527594031473190E-16, 5.000000000000000000 ) ) ;
#135 = EDGE_CURVE ( 'NONE', #175, #359, #204, .T. ) ;
#136 = CARTESIAN_POINT ( 'NONE',  ( -7.000000000000000000, 0.000000000000000000, 5.000000000000000000 ) ) ;
#137 = FACE_OUTER_BOUND ( 'NONE', #177, .T. ) ;
#138 = ORIENTED_EDGE ( 'NONE', *, *, #66, .T. ) ;
#139 = DIRECTION ( 'NONE',  ( 0.000000000000000000, 0.000000000000000000, 1.000000000000000000 ) ) ;
#140 = VECTOR ( 'NONE', #18, 1000.000000000000000 ) ;
#141 =( GEOMETRIC_REPRESENTATION_CONTEXT ( 3 ) GLOBAL_UNCERTAINTY_ASSIGNED_CONTEXT ( ( #221 ) ) GLOBAL_UNIT_ASSIGNED_CONTEXT ( ( #88, #216, #183 ) ) REPRESENTATION_CONTEXT ( 'NONE', 'WORKASPACE' ) );
#142 = VERTEX_POINT ( 'NONE', #134 ) ;
#143 = DIRECTION ( 'NONE',  ( 0.000000000000000000, 0.000000000000000000, -1.000000000000000000 ) ) ;
#144 = CC_DESIGN_PERSON_AND_ORGANIZATION_ASSIGNMENT ( #41, #147, ( #167 ) ) ;
#145 = DIRECTION ( 'NONE',  ( 0.000000000000000000, 0.000000000000000000, 1.000000000000000000 ) ) ;
#146 = ORIENTED_EDGE ( 'NONE', *, *, #199, .T. ) ;
#147 = PERSON_AND_ORGANIZATION_ROLE ( 'creator' ) ;
#148 = ORIENTED_EDGE ( 'NONE', *, *, #118, .T. ) ;
#149 = PRODUCT ( 'e3eb', 'e3eb', '', ( #110 ) ) ;
#150 = PERSON ( 'NEURÈENÝ', 'NEURÈENÝ', 'NEURÈENÝ', ('NEURÈENÝ'), ('NEURÈENÝ'), ('NEURÈENÝ') ) ;
#151 = EDGE_CURVE ( 'NONE', #298, #343, #76, .T. ) ;
#152 = APPROVAL_DATE_TIME ( #219, #345 ) ;
#153 = CARTESIAN_POINT ( 'NONE',  ( 2.600000000000000089, 3.184081677783118191E-16, 0.000000000000000000 ) ) ;
#154 = PERSON_AND_ORGANIZATION ( #150, #203 ) ;
#155 = DIRECTION ( 'NONE',  ( 0.000000000000000000, 0.000000000000000000, 1.000000000000000000 ) ) ;
#156 = APPROVAL_STATUS ( 'not_yet_approved' ) ;
#157 = CARTESIAN_POINT ( 'NONE',  ( -4.000000000000000000, 0.000000000000000000, 5.500000000000005329 ) ) ;
#158 = ADVANCED_BREP_SHAPE_REPRESENTATION ( 'e3eb', ( #102, #361 ), #141 ) ;
#159 = AXIS2_PLACEMENT_3D ( 'NONE', #233, #318, #130 ) ;
#160 = APPROVAL_PERSON_ORGANIZATION ( #116, #13, #307 ) ;
#161 = COORDINATED_UNIVERSAL_TIME_OFFSET ( 1, 0, .AHEAD. ) ;
#162 = ORIENTED_EDGE ( 'NONE', *, *, #178, .F. ) ;
#163 = CC_DESIGN_PERSON_AND_ORGANIZATION_ASSIGNMENT ( #39, #60, ( #29 ) ) ;
#164 = DIRECTION ( 'NONE',  ( 1.000000000000000000, 0.000000000000000000, 0.000000000000000000 ) ) ;
#165 = DIRECTION ( 'NONE',  ( -0.000000000000000000, -0.000000000000000000, -1.000000000000000000 ) ) ;
#166 = AXIS2_PLACEMENT_3D ( 'NONE', #247, #86, #213 ) ;
#167 = PRODUCT_DEFINITION ( 'NEZNÁMÝ', '', #29, #62 ) ;
#168 = DIRECTION ( 'NONE',  ( 0.000000000000000000, 0.000000000000000000, -1.000000000000000000 ) ) ;
#169 = DIRECTION ( 'NONE',  ( -0.000000000000000000, -0.000000000000000000, -1.000000000000000000 ) ) ;
#170 = CARTESIAN_POINT ( 'NONE',  ( 0.000000000000000000, 0.000000000000000000, 5.500000000000005329 ) ) ;
#171 = EDGE_CURVE ( 'NONE', #343, #70, #224, .T. ) ;
#172 = AXIS2_PLACEMENT_3D ( 'NONE', #201, #165, #291 ) ;
#173 = CYLINDRICAL_SURFACE ( 'NONE', #306, 7.000000000000000000 ) ;
#174 = DIRECTION ( 'NONE',  ( 0.000000000000000000, 0.000000000000000000, 1.000000000000000000 ) ) ;
#175 = VERTEX_POINT ( 'NONE', #136 ) ;
#176 = DIRECTION ( 'NONE',  ( 1.000000000000000000, 0.000000000000000000, 0.000000000000000000 ) ) ;
#177 = EDGE_LOOP ( 'NONE', ( #95, #327, #366, #275 ) ) ;
#178 = EDGE_CURVE ( 'NONE', #111, #54, #22, .T. ) ;
#179 = TOROIDAL_SURFACE ( 'NONE', #166, 4.500000000000000888, 0.5000000000000000000 ) ;
#180 = CC_DESIGN_APPROVAL ( #13, ( #29 ) ) ;
#181 = ORIENTED_EDGE ( 'NONE', *, *, #151, .F. ) ;
#182 = DIRECTION ( 'NONE',  ( -0.000000000000000000, -0.000000000000000000, -1.000000000000000000 ) ) ;
#183 =( NAMED_UNIT ( * ) SI_UNIT ( $, .STERADIAN. ) SOLID_ANGLE_UNIT ( ) );
#184 = ORIENTED_EDGE ( 'NONE', *, *, #217, .F. ) ;
#185 = APPROVAL_ROLE ( '' ) ;
#186 = CARTESIAN_POINT ( 'NONE',  ( 0.000000000000000000, 0.000000000000000000, 5.000000000000000000 ) ) ;
#187 = AXIS2_PLACEMENT_3D ( 'NONE', #302, #145, #32 ) ;
#188 = PRODUCT_RELATED_PRODUCT_CATEGORY ( 'detail', '', ( #149 ) ) ;
#189 = ORIENTED_EDGE ( 'NONE', *, *, #217, .T. ) ;
#190 = APPROVAL_STATUS ( 'not_yet_approved' ) ;
#191 = DIRECTION ( 'NONE',  ( -1.000000000000000000, 0.000000000000000000, 0.000000000000000000 ) ) ;
#192 = CC_DESIGN_PERSON_AND_ORGANIZATION_ASSIGNMENT ( #120, #125, ( #225 ) ) ;
#193 = FACE_OUTER_BOUND ( 'NONE', #218, .T. ) ;
#194 = CIRCLE ( 'NONE', #260, 0.5000000000000004441 ) ;
#195 = LOCAL_TIME ( 17, 7, 54.00000000000000000, #344 ) ;
#196 = PERSON_AND_ORGANIZATION_ROLE ( 'design_owner' ) ;
#197 = CARTESIAN_POINT ( 'NONE',  ( 0.000000000000000000, 0.000000000000000000, 505.0000000000000000 ) ) ;
#198 = DIRECTION ( 'NONE',  ( -0.000000000000000000, -0.000000000000000000, -1.000000000000000000 ) ) ;
#199 = EDGE_CURVE ( 'NONE', #359, #242, #82, .T. ) ;
#200 = APPLICATION_CONTEXT ( 'configuration controlled 3d designs of mechanical parts and assemblies' ) ;
#201 = CARTESIAN_POINT ( 'NONE',  ( 0.000000000000000000, 0.000000000000000000, 0.000000000000000000 ) ) ;
#202 = TOROIDAL_SURFACE ( 'NONE', #187, 4.500000000000000888, 0.5000000000000000000 ) ;
#203 = ORGANIZATION ( 'NEURÈENÝ', 'NEURÈENÝ', '' ) ;
#204 = LINE ( 'NONE', #353, #253 ) ;
#205 = FACE_OUTER_BOUND ( 'NONE', #109, .T. ) ;
#206 = CARTESIAN_POINT ( 'NONE',  ( 7.000000000000000000, 8.572527594031473190E-16, 5.000000000000000000 ) ) ;
#207 = AXIS2_PLACEMENT_3D ( 'NONE', #170, #19, #324 ) ;
#208 = ORIENTED_EDGE ( 'NONE', *, *, #254, .T. ) ;
#209 = LINE ( 'NONE', #53, #367 ) ;
#210 = EDGE_CURVE ( 'NONE', #142, #175, #133, .T. ) ;
#211 = CARTESIAN_POINT ( 'NONE',  ( 4.000000000000000000, 4.898587196589412829E-16, 505.0000000000000000 ) ) ;
#212 = ORIENTED_EDGE ( 'NONE', *, *, #276, .T. ) ;
#213 = DIRECTION ( 'NONE',  ( 1.000000000000000000, 0.000000000000000000, 0.000000000000000000 ) ) ;
#214 = CIRCLE ( 'NONE', #325, 0.5000000000000004441 ) ;
#215 = VERTEX_POINT ( 'NONE', #288 ) ;
#216 =( NAMED_UNIT ( * ) PLANE_ANGLE_UNIT ( ) SI_UNIT ( $, .RADIAN. ) );
#217 = EDGE_CURVE ( 'NONE', #142, #242, #349, .T. ) ;
#218 = EDGE_LOOP ( 'NONE', ( #256, #91, #59, #26 ) ) ;
#219 = DATE_AND_TIME ( #313, #279 ) ;
#220 = FACE_OUTER_BOUND ( 'NONE', #223, .T. ) ;
#221 = UNCERTAINTY_MEASURE_WITH_UNIT (LENGTH_MEASURE( 1.000000000000000082E-05 ), #88, 'distance_accuracy_value', 'NONE');
#222 = CALENDAR_DATE ( 2022, 8, 7 ) ;
#223 = EDGE_LOOP ( 'NONE', ( #246, #38 ) ) ;
#224 = CIRCLE ( 'NONE', #320, 2.600000000000000089 ) ;
#225 = SECURITY_CLASSIFICATION ( '', '', #257 ) ;
#226 = DIRECTION ( 'NONE',  ( 0.000000000000000000, -1.000000000000000000, 0.000000000000000000 ) ) ;
#227 = ORIENTED_EDGE ( 'NONE', *, *, #66, .F. ) ;
#228 = DATE_AND_TIME ( #7, #368 ) ;
#229 = CARTESIAN_POINT ( 'NONE',  ( 4.500000000000000888, 0.000000000000000000, 5.500000000000005329 ) ) ;
#230 = CIRCLE ( 'NONE', #352, 7.000000000000000000 ) ;
#231 = CARTESIAN_POINT ( 'NONE',  ( 4.500000000000000888, 0.000000000000000000, 5.000000000000002665 ) ) ;
#232 = ADVANCED_FACE ( 'NONE', ( #322 ), #173, .T. ) ;
#233 = CARTESIAN_POINT ( 'NONE',  ( 0.000000000000000000, 0.000000000000000000, 5.000000000000000000 ) ) ;
#234 = DIRECTION ( 'NONE',  ( 0.000000000000000000, 0.000000000000000000, 1.000000000000000000 ) ) ;
#235 = CIRCLE ( 'NONE', #104, 2.600000000000000089 ) ;
#236 = DIRECTION ( 'NONE',  ( 1.000000000000000000, 0.000000000000000000, -0.000000000000000000 ) ) ;
#237 = EDGE_CURVE ( 'NONE', #356, #215, #128, .T. ) ;
#238 = CARTESIAN_POINT ( 'NONE',  ( -2.600000000000000089, 0.000000000000000000, 505.0000000000000000 ) ) ;
#239 = DIRECTION ( 'NONE',  ( -1.000000000000000000, 1.224646799147351482E-16, 0.000000000000000000 ) ) ;
#240 = CIRCLE ( 'NONE', #94, 4.500000000000000888 ) ;
#241 = CARTESIAN_POINT ( 'NONE',  ( 0.000000000000000000, 0.000000000000000000, 5.000000000000000000 ) ) ;
#242 = VERTEX_POINT ( 'NONE', #100 ) ;
#243 = APPLICATION_CONTEXT ( 'configuration controlled 3d designs of mechanical parts and assemblies' ) ;
#244 = CC_DESIGN_PERSON_AND_ORGANIZATION_ASSIGNMENT ( #11, #196, ( #149 ) ) ;
#245 = DIRECTION ( 'NONE',  ( -1.000000000000000000, 0.000000000000000000, 0.000000000000000000 ) ) ;
#246 = ORIENTED_EDGE ( 'NONE', *, *, #199, .F. ) ;
#247 = CARTESIAN_POINT ( 'NONE',  ( 0.000000000000000000, 0.000000000000000000, 5.500000000000005329 ) ) ;
#248 = VERTEX_POINT ( 'NONE', #231 ) ;
#249 = CARTESIAN_POINT ( 'NONE',  ( -4.500000000000000888, 5.510910596163089556E-16, 5.500000000000005329 ) ) ;
#250 = AXIS2_PLACEMENT_3D ( 'NONE', #48, #105, #236 ) ;
#251 = LOCAL_TIME ( 17, 7, 54.00000000000000000, #340 ) ;
#252 = PERSON_AND_ORGANIZATION_ROLE ( 'design_supplier' ) ;
#253 = VECTOR ( 'NONE', #52, 1000.000000000000000 ) ;
#254 = EDGE_CURVE ( 'NONE', #248, #96, #278, .T. ) ;
#255 = COORDINATED_UNIVERSAL_TIME_OFFSET ( 1, 0, .AHEAD. ) ;
#256 = ORIENTED_EDGE ( 'NONE', *, *, #286, .F. ) ;
#257 = SECURITY_CLASSIFICATION_LEVEL ( 'unclassified' ) ;
#258 = CARTESIAN_POINT ( 'NONE',  ( 0.000000000000000000, 0.000000000000000000, 505.0000000000000000 ) ) ;
#259 = CYLINDRICAL_SURFACE ( 'NONE', #10, 7.000000000000000000 ) ;
#260 = AXIS2_PLACEMENT_3D ( 'NONE', #229, #226, #339 ) ;
#261 = AXIS2_PLACEMENT_3D ( 'NONE', #267, #319, #378 ) ;
#262 = DIRECTION ( 'NONE',  ( 1.000000000000000000, 0.000000000000000000, -0.000000000000000000 ) ) ;
#263 = CARTESIAN_POINT ( 'NONE',  ( 0.000000000000000000, 0.000000000000000000, 505.0000000000000000 ) ) ;
#264 = DIRECTION ( 'NONE',  ( 1.000000000000000000, 0.000000000000000000, 0.000000000000000000 ) ) ;
#265 = ADVANCED_FACE ( 'NONE', ( #348 ), #129, .T. ) ;
#266 = AXIS2_PLACEMENT_3D ( 'NONE', #197, #312, #317 ) ;
#267 = CARTESIAN_POINT ( 'NONE',  ( 0.000000000000000000, 0.000000000000000000, 0.000000000000000000 ) ) ;
#268 = DIRECTION ( 'NONE',  ( 0.000000000000000000, 0.000000000000000000, -1.000000000000000000 ) ) ;
#269 = EDGE_CURVE ( 'NONE', #70, #343, #284, .T. ) ;
#270 = ORIENTED_EDGE ( 'NONE', *, *, #276, .F. ) ;
#271 = CLOSED_SHELL ( 'NONE', ( #336, #350, #265, #232, #16, #131, #34, #321, #281, #296, #51 ) ) ;
#272 = CARTESIAN_POINT ( 'NONE',  ( 0.000000000000000000, 0.000000000000000000, 505.0000000000000000 ) ) ;
#273 = ORIENTED_EDGE ( 'NONE', *, *, #135, .T. ) ;
#274 = FACE_OUTER_BOUND ( 'NONE', #84, .T. ) ;
#275 = ORIENTED_EDGE ( 'NONE', *, *, #23, .F. ) ;
#276 = EDGE_CURVE ( 'NONE', #215, #111, #47, .T. ) ;
#277 = DATE_AND_TIME ( #222, #43 ) ;
#278 = CIRCLE ( 'NONE', #63, 4.500000000000000888 ) ;
#279 = LOCAL_TIME ( 17, 7, 54.00000000000000000, #161 ) ;
#280 = DIRECTION ( 'NONE',  ( 0.000000000000000000, 0.000000000000000000, 1.000000000000000000 ) ) ;
#281 = ADVANCED_FACE ( 'NONE', ( #377, #20 ), #292, .T. ) ;
#282 = CARTESIAN_POINT ( 'NONE',  ( -4.500000000000000888, 5.510910596163088569E-16, 5.000000000000002665 ) ) ;
#283 = CARTESIAN_POINT ( 'NONE',  ( 0.000000000000000000, 0.000000000000000000, 5.500000000000005329 ) ) ;
#284 = CIRCLE ( 'NONE', #172, 2.600000000000000089 ) ;
#285 = ORIENTED_EDGE ( 'NONE', *, *, #310, .F. ) ;
#286 = EDGE_CURVE ( 'NONE', #31, #70, #209, .T. ) ;
#287 = EDGE_LOOP ( 'NONE', ( #297, #14 ) ) ;
#288 = CARTESIAN_POINT ( 'NONE',  ( -4.000000000000000000, 0.000000000000000000, 505.0000000000000000 ) ) ;
#289 = APPROVAL_PERSON_ORGANIZATION ( #154, #345, #90 ) ;
#290 = CARTESIAN_POINT ( 'NONE',  ( 0.000000000000000000, 0.000000000000000000, 0.000000000000000000 ) ) ;
#291 = DIRECTION ( 'NONE',  ( 1.000000000000000000, 0.000000000000000000, 0.000000000000000000 ) ) ;
#292 = PLANE ( 'NONE',  #360 ) ;
#293 = AXIS2_PLACEMENT_3D ( 'NONE', #263, #234, #264 ) ;
#294 = CC_DESIGN_APPROVAL ( #345, ( #225 ) ) ;
#295 = DIRECTION ( 'NONE',  ( -0.000000000000000000, -0.000000000000000000, -1.000000000000000000 ) ) ;
#296 = ADVANCED_FACE ( 'NONE', ( #137 ), #202, .F. ) ;
#297 = ORIENTED_EDGE ( 'NONE', *, *, #372, .F. ) ;
#298 = VERTEX_POINT ( 'NONE', #30 ) ;
#299 = AXIS2_PLACEMENT_3D ( 'NONE', #283, #45, #380 ) ;
#300 = CC_DESIGN_APPROVAL ( #357, ( #167 ) ) ;
#301 = ORIENTED_EDGE ( 'NONE', *, *, #178, .T. ) ;
#302 = CARTESIAN_POINT ( 'NONE',  ( 0.000000000000000000, 0.000000000000000000, 5.500000000000005329 ) ) ;
#303 = EDGE_LOOP ( 'NONE', ( #329, #227, #212, #301 ) ) ;
#304 = EDGE_CURVE ( 'NONE', #356, #54, #362, .T. ) ;
#305 = ORIENTED_EDGE ( 'NONE', *, *, #376, .T. ) ;
#306 = AXIS2_PLACEMENT_3D ( 'NONE', #374, #295, #101 ) ;
#307 = APPROVAL_ROLE ( '' ) ;
#308 = CC_DESIGN_SECURITY_CLASSIFICATION ( #225, ( #29 ) ) ;
#309 = DIRECTION ( 'NONE',  ( 0.000000000000000000, 0.000000000000000000, -1.000000000000000000 ) ) ;
#310 = EDGE_CURVE ( 'NONE', #175, #142, #230, .T. ) ;
#311 = ORIENTED_EDGE ( 'NONE', *, *, #286, .T. ) ;
#312 = DIRECTION ( 'NONE',  ( 0.000000000000000000, 0.000000000000000000, 1.000000000000000000 ) ) ;
#313 = CALENDAR_DATE ( 2022, 8, 7 ) ;
#314 = CARTESIAN_POINT ( 'NONE',  ( 2.600000000000000089, 3.184081677783118191E-16, 505.0000000000000000 ) ) ;
#315 = CIRCLE ( 'NONE', #108, 2.600000000000000089 ) ;
#316 = APPLICATION_PROTOCOL_DEFINITION ( 'international standard', 'config_control_design', 1994, #243 ) ;
#317 = DIRECTION ( 'NONE',  ( 1.000000000000000000, 0.000000000000000000, 0.000000000000000000 ) ) ;
#318 = DIRECTION ( 'NONE',  ( 0.000000000000000000, 0.000000000000000000, 1.000000000000000000 ) ) ;
#319 = DIRECTION ( 'NONE',  ( 0.000000000000000000, 0.000000000000000000, 1.000000000000000000 ) ) ;
#320 = AXIS2_PLACEMENT_3D ( 'NONE', #290, #198, #24 ) ;
#321 = ADVANCED_FACE ( 'NONE', ( #57 ), #326, .T. ) ;
#322 = FACE_OUTER_BOUND ( 'NONE', #65, .T. ) ;
#323 = DIRECTION ( 'NONE',  ( -0.000000000000000000, -0.000000000000000000, -1.000000000000000000 ) ) ;
#324 = DIRECTION ( 'NONE',  ( 1.000000000000000000, 0.000000000000000000, 0.000000000000000000 ) ) ;
#325 = AXIS2_PLACEMENT_3D ( 'NONE', #249, #330, #239 ) ;
#326 = CYLINDRICAL_SURFACE ( 'NONE', #2, 4.000000000000000000 ) ;
#327 = ORIENTED_EDGE ( 'NONE', *, *, #113, .F. ) ;
#328 = CARTESIAN_POINT ( 'NONE',  ( 0.000000000000000000, 0.000000000000000000, 505.0000000000000000 ) ) ;
#329 = ORIENTED_EDGE ( 'NONE', *, *, #304, .F. ) ;
#330 = DIRECTION ( 'NONE',  ( 1.224646799147353207E-16, 1.000000000000000000, -0.000000000000000000 ) ) ;
#331 = CC_DESIGN_PERSON_AND_ORGANIZATION_ASSIGNMENT ( #338, #252, ( #29 ) ) ;
#332 = EDGE_LOOP ( 'NONE', ( #138, #56 ) ) ;
#333 = CARTESIAN_POINT ( 'NONE',  ( 0.000000000000000000, 0.000000000000000000, 505.0000000000000000 ) ) ;
#334 = APPROVAL_DATE_TIME ( #365, #13 ) ;
#335 = PLANE ( 'NONE',  #379 ) ;
#336 = ADVANCED_FACE ( 'NONE', ( #274 ), #25, .F. ) ;
#337 = CIRCLE ( 'NONE', #299, 4.000000000000000000 ) ;
#338 = PERSON_AND_ORGANIZATION ( #150, #203 ) ;
#339 = DIRECTION ( 'NONE',  ( 0.000000000000000000, 0.000000000000000000, -1.000000000000000000 ) ) ;
#340 = COORDINATED_UNIVERSAL_TIME_OFFSET ( 1, 0, .AHEAD. ) ;
#341 = CYLINDRICAL_SURFACE ( 'NONE', #28, 2.600000000000000089 ) ;
#342 = APPROVAL_DATE_TIME ( #228, #357 ) ;
#343 = VERTEX_POINT ( 'NONE', #107 ) ;
#344 = COORDINATED_UNIVERSAL_TIME_OFFSET ( 1, 0, .AHEAD. ) ;
#345 = APPROVAL ( #190, 'NEURÈENÝ' ) ;
#346 = DIRECTION ( 'NONE',  ( -0.000000000000000000, -0.000000000000000000, -1.000000000000000000 ) ) ;
#347 = CIRCLE ( 'NONE', #261, 7.000000000000000000 ) ;
#348 = FACE_OUTER_BOUND ( 'NONE', #355, .T. ) ;
#349 = LINE ( 'NONE', #206, #99 ) ;
#350 = ADVANCED_FACE ( 'NONE', ( #358 ), #179, .F. ) ;
#351 = DIRECTION ( 'NONE',  ( -0.000000000000000000, -0.000000000000000000, -1.000000000000000000 ) ) ;
#352 = AXIS2_PLACEMENT_3D ( 'NONE', #241, #112, #85 ) ;
#353 = CARTESIAN_POINT ( 'NONE',  ( -7.000000000000000000, 0.000000000000000000, 5.000000000000000000 ) ) ;
#354 = CARTESIAN_POINT ( 'NONE',  ( 0.000000000000000000, 0.000000000000000000, 0.000000000000000000 ) ) ;
#355 = EDGE_LOOP ( 'NONE', ( #4, #124, #364, #270 ) ) ;
#356 = VERTEX_POINT ( 'NONE', #114 ) ;
#357 = APPROVAL ( #156, 'NEURÈENÝ' ) ;
#358 = FACE_OUTER_BOUND ( 'NONE', #33, .T. ) ;
#359 = VERTEX_POINT ( 'NONE', #55 ) ;
#360 = AXIS2_PLACEMENT_3D ( 'NONE', #103, #21, #262 ) ;
#361 = AXIS2_PLACEMENT_3D ( 'NONE', #83, #139, #3 ) ;
#362 = LINE ( 'NONE', #211, #77 ) ;
#363 = DATE_AND_TIME ( #64, #251 ) ;
#364 = ORIENTED_EDGE ( 'NONE', *, *, #113, .T. ) ;
#365 = DATE_AND_TIME ( #72, #195 ) ;
#366 = ORIENTED_EDGE ( 'NONE', *, *, #46, .T. ) ;
#367 = VECTOR ( 'NONE', #268, 1000.000000000000000 ) ;
#368 = LOCAL_TIME ( 17, 7, 54.00000000000000000, #69 ) ;
#369 = EDGE_LOOP ( 'NONE', ( #87, #117 ) ) ;
#370 = SHAPE_DEFINITION_REPRESENTATION ( #37, #158 ) ;
#371 = ORIENTED_EDGE ( 'NONE', *, *, #372, .T. ) ;
#372 = EDGE_CURVE ( 'NONE', #298, #31, #235, .T. ) ;
#373 = EDGE_LOOP ( 'NONE', ( #184, #285, #273, #146 ) ) ;
#374 = CARTESIAN_POINT ( 'NONE',  ( 0.000000000000000000, 0.000000000000000000, 5.000000000000000000 ) ) ;
#375 = DIRECTION ( 'NONE',  ( 1.000000000000000000, 0.000000000000000000, 0.000000000000000000 ) ) ;
#376 = EDGE_CURVE ( 'NONE', #111, #96, #214, .T. ) ;
#377 = FACE_BOUND ( 'NONE', #287, .T. ) ;
#378 = DIRECTION ( 'NONE',  ( 1.000000000000000000, 0.000000000000000000, 0.000000000000000000 ) ) ;
#379 = AXIS2_PLACEMENT_3D ( 'NONE', #61, #280, #119 ) ;
#380 = DIRECTION ( 'NONE',  ( 1.000000000000000000, 0.000000000000000000, 0.000000000000000000 ) ) ;
#381 = DIRECTION ( 'NONE',  ( -1.000000000000000000, 0.000000000000000000, 0.000000000000000000 ) ) ;
ENDSEC;
END-ISO-10303-21;
