ISO-10303-21;
HEADER;
FILE_DESCRIPTION (( 'STEP AP203' ),
    '1' );
FILE_NAME ('139c.STEP',
    '2022-07-08T14:48:31',
    ( '' ),
    ( '' ),
    'SwSTEP 2.0',
    'SolidWorks 2019',
    '' );
FILE_SCHEMA (( 'CONFIG_CONTROL_DESIGN' ));
ENDSEC;

DATA;
#1 = CARTESIAN_POINT ( 'NONE',  ( 0.000000000000000000, 0.000000000000000000, 0.000000000000000000 ) ) ;
#2 = DIRECTION ( 'NONE',  ( -0.000000000000000000, -0.000000000000000000, -1.000000000000000000 ) ) ;
#3 = UNCERTAINTY_MEASURE_WITH_UNIT (LENGTH_MEASURE( 1.000000000000000082E-05 ), #369, 'distance_accuracy_value', 'NONE');
#4 = ORIENTED_EDGE ( 'NONE', *, *, #57, .T. ) ;
#5 = EDGE_CURVE ( 'NONE', #250, #364, #176, .T. ) ;
#6 = AXIS2_PLACEMENT_3D ( 'NONE', #259, #53, #350 ) ;
#7 = ORIENTED_EDGE ( 'NONE', *, *, #173, .T. ) ;
#8 = ADVANCED_FACE ( 'NONE', ( #187 ), #101, .F. ) ;
#9 = EDGE_LOOP ( 'NONE', ( #70, #248, #4, #210 ) ) ;
#10 = APPROVAL_STATUS ( 'not_yet_approved' ) ;
#11 = VERTEX_POINT ( 'NONE', #73 ) ;
#12 = AXIS2_PLACEMENT_3D ( 'NONE', #20, #307, #220 ) ;
#13 = VECTOR ( 'NONE', #242, 1000.000000000000000 ) ;
#14 = PRODUCT ( '139c', '139c', '', ( #129 ) ) ;
#15 = ADVANCED_FACE ( 'NONE', ( #44 ), #136, .T. ) ;
#16 = CARTESIAN_POINT ( 'NONE',  ( 5.500000000000000000, 0.000000000000000000, 4.999999999999975131 ) ) ;
#17 = EDGE_LOOP ( 'NONE', ( #192, #357, #46, #157 ) ) ;
#18 = DIRECTION ( 'NONE',  ( -1.000000000000000000, 0.000000000000000000, 0.000000000000000000 ) ) ;
#19 = PERSON_AND_ORGANIZATION ( #189, #29 ) ;
#20 = CARTESIAN_POINT ( 'NONE',  ( 0.000000000000000000, 0.000000000000000000, 705.0000000000000000 ) ) ;
#21 = AXIS2_PLACEMENT_3D ( 'NONE', #372, #161, #106 ) ;
#22 = EDGE_CURVE ( 'NONE', #134, #126, #339, .T. ) ;
#23 = DIRECTION ( 'NONE',  ( -0.000000000000000000, -0.000000000000000000, -1.000000000000000000 ) ) ;
#24 = CARTESIAN_POINT ( 'NONE',  ( 0.000000000000000000, 0.000000000000000000, 705.0000000000000000 ) ) ;
#25 = CIRCLE ( 'NONE', #165, 5.000000000000000000 ) ;
#26 = ADVANCED_FACE ( 'NONE', ( #164 ), #247, .F. ) ;
#27 = DIRECTION ( 'NONE',  ( 0.000000000000000000, -1.000000000000000000, 0.000000000000000000 ) ) ;
#28 = EDGE_LOOP ( 'NONE', ( #39, #366, #183, #35 ) ) ;
#29 = ORGANIZATION ( 'NEURÈENÝ', 'NEURÈENÝ', '' ) ;
#30 = DIRECTION ( 'NONE',  ( -1.000000000000000000, 0.000000000000000000, 0.000000000000000000 ) ) ;
#31 = EDGE_CURVE ( 'NONE', #126, #218, #25, .T. ) ;
#32 = EDGE_LOOP ( 'NONE', ( #216, #370 ) ) ;
#33 = CARTESIAN_POINT ( 'NONE',  ( 0.000000000000000000, 0.000000000000000000, 5.499999999999949374 ) ) ;
#34 = ORIENTED_EDGE ( 'NONE', *, *, #323, .T. ) ;
#35 = ORIENTED_EDGE ( 'NONE', *, *, #31, .T. ) ;
#36 = EDGE_CURVE ( 'NONE', #302, #11, #269, .T. ) ;
#37 = AXIS2_PLACEMENT_3D ( 'NONE', #260, #2, #175 ) ;
#38 = DIRECTION ( 'NONE',  ( 1.000000000000000000, 0.000000000000000000, 0.000000000000000000 ) ) ;
#39 = ORIENTED_EDGE ( 'NONE', *, *, #64, .F. ) ;
#40 = CARTESIAN_POINT ( 'NONE',  ( 0.000000000000000000, 0.000000000000000000, 5.499999999999949374 ) ) ;
#41 = ADVANCED_FACE ( 'NONE', ( #373 ), #43, .F. ) ;
#42 = EDGE_LOOP ( 'NONE', ( #214, #195, #45, #212 ) ) ;
#43 = TOROIDAL_SURFACE ( 'NONE', #205, 5.500000000000000000, 0.5000000000000000000 ) ;
#44 = FACE_OUTER_BOUND ( 'NONE', #337, .T. ) ;
#45 = ORIENTED_EDGE ( 'NONE', *, *, #244, .F. ) ;
#46 = ORIENTED_EDGE ( 'NONE', *, *, #36, .T. ) ;
#47 = CALENDAR_DATE ( 2022, 8, 7 ) ;
#48 = LINE ( 'NONE', #284, #340 ) ;
#49 = PERSON_AND_ORGANIZATION ( #189, #29 ) ;
#50 = CARTESIAN_POINT ( 'NONE',  ( -5.000000000000000000, 0.000000000000000000, 705.0000000000000000 ) ) ;
#51 = CARTESIAN_POINT ( 'NONE',  ( -5.000000000000000000, 0.000000000000000000, 5.499999999999949374 ) ) ;
#52 = CC_DESIGN_DATE_AND_TIME_ASSIGNMENT ( #115, #351, ( #172 ) ) ;
#53 = DIRECTION ( 'NONE',  ( 0.000000000000000000, 0.000000000000000000, 1.000000000000000000 ) ) ;
#54 = AXIS2_PLACEMENT_3D ( 'NONE', #310, #104, #18 ) ;
#55 = PLANE ( 'NONE',  #317 ) ;
#56 = CARTESIAN_POINT ( 'NONE',  ( 0.000000000000000000, 0.000000000000000000, 705.0000000000000000 ) ) ;
#57 = EDGE_CURVE ( 'NONE', #130, #59, #280, .T. ) ;
#58 = CARTESIAN_POINT ( 'NONE',  ( -8.000000000000000000, 0.000000000000000000, 5.000000000000000000 ) ) ;
#59 = VERTEX_POINT ( 'NONE', #313 ) ;
#60 = PRODUCT_DEFINITION_FORMATION_WITH_SPECIFIED_SOURCE ( 'LIBOVOLNÝ', '', #14, .NOT_KNOWN. ) ;
#61 = CARTESIAN_POINT ( 'NONE',  ( 0.000000000000000000, 0.000000000000000000, 0.000000000000000000 ) ) ;
#62 = EDGE_LOOP ( 'NONE', ( #329, #66, #34, #360 ) ) ;
#63 = CARTESIAN_POINT ( 'NONE',  ( 8.000000000000000000, 9.797174393178825657E-16, 5.000000000000000000 ) ) ;
#64 = EDGE_CURVE ( 'NONE', #96, #218, #48, .T. ) ;
#65 = LINE ( 'NONE', #241, #74 ) ;
#66 = ORIENTED_EDGE ( 'NONE', *, *, #64, .T. ) ;
#67 = AXIS2_PLACEMENT_3D ( 'NONE', #107, #223, #368 ) ;
#68 = DIRECTION ( 'NONE',  ( 0.000000000000000000, 0.000000000000000000, 1.000000000000000000 ) ) ;
#69 = APPLICATION_CONTEXT ( 'configuration controlled 3d designs of mechanical parts and assemblies' ) ;
#70 = ORIENTED_EDGE ( 'NONE', *, *, #173, .F. ) ;
#71 = PERSON_AND_ORGANIZATION_ROLE ( 'design_owner' ) ;
#72 = EDGE_LOOP ( 'NONE', ( #262, #78 ) ) ;
#73 = CARTESIAN_POINT ( 'NONE',  ( -3.100000000000000089, 0.000000000000000000, 0.000000000000000000 ) ) ;
#74 = VECTOR ( 'NONE', #95, 1000.000000000000000 ) ;
#75 = LOCAL_TIME ( 16, 48, 31.00000000000000000, #311 ) ;
#76 = ORIENTED_EDGE ( 'NONE', *, *, #319, .T. ) ;
#77 = CARTESIAN_POINT ( 'NONE',  ( 0.000000000000000000, 0.000000000000000000, 5.499999999999949374 ) ) ;
#78 = ORIENTED_EDGE ( 'NONE', *, *, #91, .T. ) ;
#79 = COORDINATED_UNIVERSAL_TIME_OFFSET ( 1, 0, .AHEAD. ) ;
#80 = FACE_OUTER_BOUND ( 'NONE', #28, .T. ) ;
#81 = AXIS2_PLACEMENT_3D ( 'NONE', #61, #362, #149 ) ;
#82 = ADVANCED_FACE ( 'NONE', ( #282 ), #231, .T. ) ;
#83 = APPROVAL_DATE_TIME ( #196, #254 ) ;
#84 = FACE_BOUND ( 'NONE', #295, .T. ) ;
#85 = CARTESIAN_POINT ( 'NONE',  ( 0.000000000000000000, 0.000000000000000000, 5.499999999999949374 ) ) ;
#86 = DIRECTION ( 'NONE',  ( -1.000000000000000000, 0.000000000000000000, 0.000000000000000000 ) ) ;
#87 = CIRCLE ( 'NONE', #237, 8.000000000000000000 ) ;
#88 = ADVANCED_BREP_SHAPE_REPRESENTATION ( '139c', ( #374, #21 ), #213 ) ;
#89 = EDGE_LOOP ( 'NONE', ( #227, #7 ) ) ;
#90 = APPLICATION_CONTEXT ( 'configuration controlled 3d designs of mechanical parts and assemblies' ) ;
#91 = EDGE_CURVE ( 'NONE', #292, #355, #184, .T. ) ;
#92 = DIRECTION ( 'NONE',  ( 1.000000000000000000, 0.000000000000000000, 0.000000000000000000 ) ) ;
#93 = ORIENTED_EDGE ( 'NONE', *, *, #109, .T. ) ;
#94 = APPROVAL_DATE_TIME ( #358, #156 ) ;
#95 = DIRECTION ( 'NONE',  ( 0.000000000000000000, 0.000000000000000000, -1.000000000000000000 ) ) ;
#96 = VERTEX_POINT ( 'NONE', #375 ) ;
#97 = APPROVAL_PERSON_ORGANIZATION ( #303, #254, #131 ) ;
#98 = AXIS2_PLACEMENT_3D ( 'NONE', #77, #246, #38 ) ;
#99 = DIRECTION ( 'NONE',  ( 0.000000000000000000, 0.000000000000000000, 1.000000000000000000 ) ) ;
#100 = ORIENTED_EDGE ( 'NONE', *, *, #234, .F. ) ;
#101 = CYLINDRICAL_SURFACE ( 'NONE', #54, 3.100000000000000089 ) ;
#102 = CIRCLE ( 'NONE', #301, 0.5000000000000004441 ) ;
#103 = PLANE ( 'NONE',  #193 ) ;
#104 = DIRECTION ( 'NONE',  ( 0.000000000000000000, 0.000000000000000000, -1.000000000000000000 ) ) ;
#105 = EDGE_CURVE ( 'NONE', #134, #96, #108, .T. ) ;
#106 = DIRECTION ( 'NONE',  ( 1.000000000000000000, 0.000000000000000000, 0.000000000000000000 ) ) ;
#107 = CARTESIAN_POINT ( 'NONE',  ( 0.000000000000000000, 0.000000000000000000, 5.000000000000000000 ) ) ;
#108 = CIRCLE ( 'NONE', #6, 5.000000000000000000 ) ;
#109 = EDGE_CURVE ( 'NONE', #96, #134, #121, .T. ) ;
#110 = APPROVAL_STATUS ( 'not_yet_approved' ) ;
#111 = DIRECTION ( 'NONE',  ( -0.000000000000000000, -0.000000000000000000, -1.000000000000000000 ) ) ;
#112 = DIRECTION ( 'NONE',  ( 0.000000000000000000, 0.000000000000000000, 1.000000000000000000 ) ) ;
#113 = CARTESIAN_POINT ( 'NONE',  ( 0.000000000000000000, 0.000000000000000000, 0.000000000000000000 ) ) ;
#114 = AXIS2_PLACEMENT_3D ( 'NONE', #315, #200, #258 ) ;
#115 = DATE_AND_TIME ( #47, #75 ) ;
#116 = DIRECTION ( 'NONE',  ( 0.000000000000000000, 0.000000000000000000, 1.000000000000000000 ) ) ;
#117 = CARTESIAN_POINT ( 'NONE',  ( -8.000000000000000000, 0.000000000000000000, 5.000000000000000000 ) ) ;
#118 = DESIGN_CONTEXT ( 'detailed design', #90, 'design' ) ;
#119 = DIRECTION ( 'NONE',  ( 1.000000000000000000, 0.000000000000000000, 0.000000000000000000 ) ) ;
#120 = CC_DESIGN_PERSON_AND_ORGANIZATION_ASSIGNMENT ( #222, #71, ( #14 ) ) ;
#121 = CIRCLE ( 'NONE', #219, 5.000000000000000000 ) ;
#122 = DIRECTION ( 'NONE',  ( 0.000000000000000000, 0.000000000000000000, 1.000000000000000000 ) ) ;
#123 = COORDINATED_UNIVERSAL_TIME_OFFSET ( 1, 0, .AHEAD. ) ;
#124 = CARTESIAN_POINT ( 'NONE',  ( 3.100000000000000089, 3.796405077356794918E-16, 705.0000000000000000 ) ) ;
#125 = CC_DESIGN_PERSON_AND_ORGANIZATION_ASSIGNMENT ( #49, #283, ( #172 ) ) ;
#126 = VERTEX_POINT ( 'NONE', #51 ) ;
#127 = AXIS2_PLACEMENT_3D ( 'NONE', #299, #99, #208 ) ;
#128 = FACE_OUTER_BOUND ( 'NONE', #9, .T. ) ;
#129 = MECHANICAL_CONTEXT ( 'NONE', #69, 'mechanical' ) ;
#130 = VERTEX_POINT ( 'NONE', #381 ) ;
#131 = APPROVAL_ROLE ( '' ) ;
#132 = ORIENTED_EDGE ( 'NONE', *, *, #105, .T. ) ;
#133 = TOROIDAL_SURFACE ( 'NONE', #177, 5.500000000000000000, 0.5000000000000000000 ) ;
#134 = VERTEX_POINT ( 'NONE', #50 ) ;
#135 = FACE_OUTER_BOUND ( 'NONE', #274, .T. ) ;
#136 = CYLINDRICAL_SURFACE ( 'NONE', #67, 8.000000000000000000 ) ;
#137 =( NAMED_UNIT ( * ) PLANE_ANGLE_UNIT ( ) SI_UNIT ( $, .RADIAN. ) );
#138 = AXIS2_PLACEMENT_3D ( 'NONE', #233, #146, #253 ) ;
#139 = FACE_OUTER_BOUND ( 'NONE', #297, .T. ) ;
#140 = PERSON_AND_ORGANIZATION ( #189, #29 ) ;
#141 = CC_DESIGN_PERSON_AND_ORGANIZATION_ASSIGNMENT ( #256, #343, ( #60 ) ) ;
#142 = APPROVAL_ROLE ( '' ) ;
#143 = CARTESIAN_POINT ( 'NONE',  ( 0.000000000000000000, 0.000000000000000000, 705.0000000000000000 ) ) ;
#144 = AXIS2_PLACEMENT_3D ( 'NONE', #188, #332, #304 ) ;
#145 = CC_DESIGN_APPROVAL ( #156, ( #172 ) ) ;
#146 = DIRECTION ( 'NONE',  ( -0.000000000000000000, -0.000000000000000000, -1.000000000000000000 ) ) ;
#147 = VERTEX_POINT ( 'NONE', #117 ) ;
#148 = CIRCLE ( 'NONE', #127, 8.000000000000000000 ) ;
#149 = DIRECTION ( 'NONE',  ( 1.000000000000000000, 0.000000000000000000, 0.000000000000000000 ) ) ;
#150 = ORIENTED_EDGE ( 'NONE', *, *, #91, .F. ) ;
#151 = ADVANCED_FACE ( 'NONE', ( #84, #139 ), #55, .T. ) ;
#152 = APPROVAL_ROLE ( '' ) ;
#153 = DIRECTION ( 'NONE',  ( -1.000000000000000000, 1.224646799147351482E-16, 0.000000000000000000 ) ) ;
#154 = VERTEX_POINT ( 'NONE', #229 ) ;
#155 = CIRCLE ( 'NONE', #98, 5.000000000000000000 ) ;
#156 = APPROVAL ( #202, 'NEURÈENÝ' ) ;
#157 = ORIENTED_EDGE ( 'NONE', *, *, #308, .F. ) ;
#158 = AXIS2_PLACEMENT_3D ( 'NONE', #113, #291, #203 ) ;
#159 = ORIENTED_EDGE ( 'NONE', *, *, #252, .T. ) ;
#160 = ADVANCED_FACE ( 'NONE', ( #316, #286 ), #378, .T. ) ;
#161 = DIRECTION ( 'NONE',  ( 0.000000000000000000, 0.000000000000000000, 1.000000000000000000 ) ) ;
#162 = DIRECTION ( 'NONE',  ( -0.000000000000000000, -0.000000000000000000, -1.000000000000000000 ) ) ;
#163 = CALENDAR_DATE ( 2022, 8, 7 ) ;
#164 = FACE_OUTER_BOUND ( 'NONE', #325, .T. ) ;
#165 = AXIS2_PLACEMENT_3D ( 'NONE', #40, #318, #168 ) ;
#166 = DATE_TIME_ROLE ( 'creation_date' ) ;
#167 = CC_DESIGN_PERSON_AND_ORGANIZATION_ASSIGNMENT ( #345, #199, ( #367 ) ) ;
#168 = DIRECTION ( 'NONE',  ( 1.000000000000000000, 0.000000000000000000, 0.000000000000000000 ) ) ;
#169 = DIRECTION ( 'NONE',  ( 1.000000000000000000, 0.000000000000000000, 0.000000000000000000 ) ) ;
#170 = AXIS2_PLACEMENT_3D ( 'NONE', #352, #111, #86 ) ;
#171 = DIRECTION ( 'NONE',  ( 1.000000000000000000, 0.000000000000000000, -0.000000000000000000 ) ) ;
#172 = SECURITY_CLASSIFICATION ( '', '', #281 ) ;
#173 = EDGE_CURVE ( 'NONE', #154, #147, #87, .T. ) ;
#174 = DIRECTION ( 'NONE',  ( 1.000000000000000000, 0.000000000000000000, 0.000000000000000000 ) ) ;
#175 = DIRECTION ( 'NONE',  ( -1.000000000000000000, 0.000000000000000000, 0.000000000000000000 ) ) ;
#176 = CIRCLE ( 'NONE', #12, 3.100000000000000089 ) ;
#177 = AXIS2_PLACEMENT_3D ( 'NONE', #33, #268, #263 ) ;
#178 = CARTESIAN_POINT ( 'NONE',  ( 0.000000000000000000, 0.000000000000000000, 705.0000000000000000 ) ) ;
#179 = ORIENTED_EDGE ( 'NONE', *, *, #217, .T. ) ;
#180 = CARTESIAN_POINT ( 'NONE',  ( 0.000000000000000000, 0.000000000000000000, 5.000000000000000000 ) ) ;
#181 = ORIENTED_EDGE ( 'NONE', *, *, #5, .F. ) ;
#182 = CARTESIAN_POINT ( 'NONE',  ( 5.500000000000000000, 0.000000000000000000, 5.499999999999949374 ) ) ;
#183 = ORIENTED_EDGE ( 'NONE', *, *, #22, .T. ) ;
#184 = CIRCLE ( 'NONE', #138, 5.500000000000000000 ) ;
#185 = APPROVAL_PERSON_ORGANIZATION ( #285, #230, #142 ) ;
#186 = ADVANCED_FACE ( 'NONE', ( #80 ), #209, .T. ) ;
#187 = FACE_OUTER_BOUND ( 'NONE', #17, .T. ) ;
#188 = CARTESIAN_POINT ( 'NONE',  ( 0.000000000000000000, 0.000000000000000000, 705.0000000000000000 ) ) ;
#189 = PERSON ( 'NEURÈENÝ', 'NEURÈENÝ', 'NEURÈENÝ', ('NEURÈENÝ'), ('NEURÈENÝ'), ('NEURÈENÝ') ) ;
#190 = CARTESIAN_POINT ( 'NONE',  ( 3.100000000000000089, 3.796405077356794918E-16, 705.0000000000000000 ) ) ;
#191 = CC_DESIGN_DATE_AND_TIME_ASSIGNMENT ( #289, #166, ( #367 ) ) ;
#192 = ORIENTED_EDGE ( 'NONE', *, *, #298, .T. ) ;
#193 = AXIS2_PLACEMENT_3D ( 'NONE', #341, #68, #273 ) ;
#194 = FACE_BOUND ( 'NONE', #32, .T. ) ;
#195 = ORIENTED_EDGE ( 'NONE', *, *, #221, .T. ) ;
#196 = DATE_AND_TIME ( #349, #243 ) ;
#197 = ORIENTED_EDGE ( 'NONE', *, *, #240, .T. ) ;
#198 = VECTOR ( 'NONE', #277, 1000.000000000000000 ) ;
#199 = PERSON_AND_ORGANIZATION_ROLE ( 'creator' ) ;
#200 = DIRECTION ( 'NONE',  ( -0.000000000000000000, -0.000000000000000000, -1.000000000000000000 ) ) ;
#201 = DIRECTION ( 'NONE',  ( 0.000000000000000000, 0.000000000000000000, 1.000000000000000000 ) ) ;
#202 = APPROVAL_STATUS ( 'not_yet_approved' ) ;
#203 = DIRECTION ( 'NONE',  ( 1.000000000000000000, 0.000000000000000000, 0.000000000000000000 ) ) ;
#204 = CC_DESIGN_PERSON_AND_ORGANIZATION_ASSIGNMENT ( #19, #312, ( #60 ) ) ;
#205 = AXIS2_PLACEMENT_3D ( 'NONE', #85, #346, #169 ) ;
#206 = DIRECTION ( 'NONE',  ( 0.000000000000000000, 0.000000000000000000, 1.000000000000000000 ) ) ;
#207 = APPROVAL_PERSON_ORGANIZATION ( #140, #156, #152 ) ;
#208 = DIRECTION ( 'NONE',  ( 1.000000000000000000, 0.000000000000000000, 0.000000000000000000 ) ) ;
#209 = CYLINDRICAL_SURFACE ( 'NONE', #361, 5.000000000000000000 ) ;
#210 = ORIENTED_EDGE ( 'NONE', *, *, #240, .F. ) ;
#211 = CARTESIAN_POINT ( 'NONE',  ( -5.500000000000000000, 6.735557395310442023E-16, 5.499999999999949374 ) ) ;
#212 = ORIENTED_EDGE ( 'NONE', *, *, #319, .F. ) ;
#213 =( GEOMETRIC_REPRESENTATION_CONTEXT ( 3 ) GLOBAL_UNCERTAINTY_ASSIGNED_CONTEXT ( ( #3 ) ) GLOBAL_UNIT_ASSIGNED_CONTEXT ( ( #369, #137, #333 ) ) REPRESENTATION_CONTEXT ( 'NONE', 'WORKASPACE' ) );
#214 = ORIENTED_EDGE ( 'NONE', *, *, #31, .F. ) ;
#215 = CARTESIAN_POINT ( 'NONE',  ( -5.500000000000000000, 6.735557395310442023E-16, 4.999999999999975131 ) ) ;
#216 = ORIENTED_EDGE ( 'NONE', *, *, #252, .F. ) ;
#217 = EDGE_CURVE ( 'NONE', #59, #130, #275, .T. ) ;
#218 = VERTEX_POINT ( 'NONE', #359 ) ;
#219 = AXIS2_PLACEMENT_3D ( 'NONE', #24, #112, #174 ) ;
#220 = DIRECTION ( 'NONE',  ( 1.000000000000000000, 0.000000000000000000, 0.000000000000000000 ) ) ;
#221 = EDGE_CURVE ( 'NONE', #126, #292, #102, .T. ) ;
#222 = PERSON_AND_ORGANIZATION ( #189, #29 ) ;
#223 = DIRECTION ( 'NONE',  ( -0.000000000000000000, -0.000000000000000000, -1.000000000000000000 ) ) ;
#224 = VECTOR ( 'NONE', #294, 1000.000000000000000 ) ;
#225 = LOCAL_TIME ( 16, 48, 31.00000000000000000, #314 ) ;
#226 = DIRECTION ( 'NONE',  ( 0.000000000000000000, 0.000000000000000000, -1.000000000000000000 ) ) ;
#227 = ORIENTED_EDGE ( 'NONE', *, *, #267, .T. ) ;
#228 = COORDINATED_UNIVERSAL_TIME_OFFSET ( 1, 0, .AHEAD. ) ;
#229 = CARTESIAN_POINT ( 'NONE',  ( 8.000000000000000000, 9.797174393178825657E-16, 5.000000000000000000 ) ) ;
#230 = APPROVAL ( #110, 'NEURÈENÝ' ) ;
#231 = CYLINDRICAL_SURFACE ( 'NONE', #170, 5.000000000000000000 ) ;
#232 = AXIS2_PLACEMENT_3D ( 'NONE', #182, #27, #226 ) ;
#233 = CARTESIAN_POINT ( 'NONE',  ( 0.000000000000000000, 0.000000000000000000, 5.000000000000000000 ) ) ;
#234 = EDGE_CURVE ( 'NONE', #154, #130, #356, .T. ) ;
#235 = DATE_AND_TIME ( #163, #257 ) ;
#236 = CARTESIAN_POINT ( 'NONE',  ( 0.000000000000000000, 0.000000000000000000, 5.000000000000000000 ) ) ;
#237 = AXIS2_PLACEMENT_3D ( 'NONE', #353, #206, #344 ) ;
#238 = DIRECTION ( 'NONE',  ( 1.000000000000000000, 0.000000000000000000, 0.000000000000000000 ) ) ;
#239 = ORIENTED_EDGE ( 'NONE', *, *, #221, .F. ) ;
#240 = EDGE_CURVE ( 'NONE', #147, #59, #320, .T. ) ;
#241 = CARTESIAN_POINT ( 'NONE',  ( -3.100000000000000089, 0.000000000000000000, 705.0000000000000000 ) ) ;
#242 = DIRECTION ( 'NONE',  ( -0.000000000000000000, -0.000000000000000000, -1.000000000000000000 ) ) ;
#243 = LOCAL_TIME ( 16, 48, 31.00000000000000000, #79 ) ;
#244 = EDGE_CURVE ( 'NONE', #355, #292, #348, .T. ) ;
#245 = CYLINDRICAL_SURFACE ( 'NONE', #37, 8.000000000000000000 ) ;
#246 = DIRECTION ( 'NONE',  ( 0.000000000000000000, 0.000000000000000000, 1.000000000000000000 ) ) ;
#247 = CYLINDRICAL_SURFACE ( 'NONE', #144, 3.100000000000000089 ) ;
#248 = ORIENTED_EDGE ( 'NONE', *, *, #234, .T. ) ;
#249 = CIRCLE ( 'NONE', #81, 3.100000000000000089 ) ;
#250 = VERTEX_POINT ( 'NONE', #124 ) ;
#251 = AXIS2_PLACEMENT_3D ( 'NONE', #178, #122, #238 ) ;
#252 = EDGE_CURVE ( 'NONE', #11, #302, #249, .T. ) ;
#253 = DIRECTION ( 'NONE',  ( 1.000000000000000000, 0.000000000000000000, 0.000000000000000000 ) ) ;
#254 = APPROVAL ( #10, 'NEURÈENÝ' ) ;
#255 = CC_DESIGN_APPROVAL ( #254, ( #367 ) ) ;
#256 = PERSON_AND_ORGANIZATION ( #189, #29 ) ;
#257 = LOCAL_TIME ( 16, 48, 31.00000000000000000, #228 ) ;
#258 = DIRECTION ( 'NONE',  ( 1.000000000000000000, 0.000000000000000000, 0.000000000000000000 ) ) ;
#259 = CARTESIAN_POINT ( 'NONE',  ( 0.000000000000000000, 0.000000000000000000, 705.0000000000000000 ) ) ;
#260 = CARTESIAN_POINT ( 'NONE',  ( 0.000000000000000000, 0.000000000000000000, 5.000000000000000000 ) ) ;
#261 = LOCAL_TIME ( 16, 48, 31.00000000000000000, #123 ) ;
#262 = ORIENTED_EDGE ( 'NONE', *, *, #244, .T. ) ;
#263 = DIRECTION ( 'NONE',  ( 1.000000000000000000, 0.000000000000000000, 0.000000000000000000 ) ) ;
#264 = ORIENTED_EDGE ( 'NONE', *, *, #267, .F. ) ;
#265 = SHAPE_DEFINITION_REPRESENTATION ( #335, #88 ) ;
#266 = ORIENTED_EDGE ( 'NONE', *, *, #379, .F. ) ;
#267 = EDGE_CURVE ( 'NONE', #147, #154, #148, .T. ) ;
#268 = DIRECTION ( 'NONE',  ( 0.000000000000000000, 0.000000000000000000, 1.000000000000000000 ) ) ;
#269 = CIRCLE ( 'NONE', #114, 3.100000000000000089 ) ;
#270 = ORIENTED_EDGE ( 'NONE', *, *, #308, .T. ) ;
#271 = CC_DESIGN_SECURITY_CLASSIFICATION ( #172, ( #60 ) ) ;
#272 = EDGE_LOOP ( 'NONE', ( #239, #278, #76, #150 ) ) ;
#273 = DIRECTION ( 'NONE',  ( 1.000000000000000000, 0.000000000000000000, -0.000000000000000000 ) ) ;
#274 = EDGE_LOOP ( 'NONE', ( #327, #276 ) ) ;
#275 = CIRCLE ( 'NONE', #287, 8.000000000000000000 ) ;
#276 = ORIENTED_EDGE ( 'NONE', *, *, #57, .F. ) ;
#277 = DIRECTION ( 'NONE',  ( 0.000000000000000000, 0.000000000000000000, -1.000000000000000000 ) ) ;
#278 = ORIENTED_EDGE ( 'NONE', *, *, #323, .F. ) ;
#279 = ADVANCED_FACE ( 'NONE', ( #128 ), #245, .T. ) ;
#280 = CIRCLE ( 'NONE', #158, 8.000000000000000000 ) ;
#281 = SECURITY_CLASSIFICATION_LEVEL ( 'unclassified' ) ;
#282 = FACE_OUTER_BOUND ( 'NONE', #62, .T. ) ;
#283 = PERSON_AND_ORGANIZATION_ROLE ( 'classification_officer' ) ;
#284 = CARTESIAN_POINT ( 'NONE',  ( 5.000000000000000000, 6.123233995736766282E-16, 705.0000000000000000 ) ) ;
#285 = PERSON_AND_ORGANIZATION ( #189, #29 ) ;
#286 = FACE_OUTER_BOUND ( 'NONE', #89, .T. ) ;
#287 = AXIS2_PLACEMENT_3D ( 'NONE', #1, #328, #119 ) ;
#288 = CC_DESIGN_APPROVAL ( #230, ( #60 ) ) ;
#289 = DATE_AND_TIME ( #380, #225 ) ;
#290 = CALENDAR_DATE ( 2022, 8, 7 ) ;
#291 = DIRECTION ( 'NONE',  ( 0.000000000000000000, 0.000000000000000000, 1.000000000000000000 ) ) ;
#292 = VERTEX_POINT ( 'NONE', #215 ) ;
#293 = AXIS2_PLACEMENT_3D ( 'NONE', #180, #324, #92 ) ;
#294 = DIRECTION ( 'NONE',  ( -0.000000000000000000, -0.000000000000000000, -1.000000000000000000 ) ) ;
#295 = EDGE_LOOP ( 'NONE', ( #300, #181 ) ) ;
#296 = DIRECTION ( 'NONE',  ( 1.224646799147353207E-16, 1.000000000000000000, -0.000000000000000000 ) ) ;
#297 = EDGE_LOOP ( 'NONE', ( #132, #93 ) ) ;
#298 = EDGE_CURVE ( 'NONE', #364, #250, #306, .T. ) ;
#299 = CARTESIAN_POINT ( 'NONE',  ( 0.000000000000000000, 0.000000000000000000, 5.000000000000000000 ) ) ;
#300 = ORIENTED_EDGE ( 'NONE', *, *, #298, .F. ) ;
#301 = AXIS2_PLACEMENT_3D ( 'NONE', #211, #296, #153 ) ;
#302 = VERTEX_POINT ( 'NONE', #321 ) ;
#303 = PERSON_AND_ORGANIZATION ( #189, #29 ) ;
#304 = DIRECTION ( 'NONE',  ( -1.000000000000000000, 0.000000000000000000, 0.000000000000000000 ) ) ;
#305 = ADVANCED_FACE ( 'NONE', ( #363 ), #133, .F. ) ;
#306 = CIRCLE ( 'NONE', #251, 3.100000000000000089 ) ;
#307 = DIRECTION ( 'NONE',  ( 0.000000000000000000, 0.000000000000000000, 1.000000000000000000 ) ) ;
#308 = EDGE_CURVE ( 'NONE', #364, #11, #65, .T. ) ;
#309 = APPROVAL_DATE_TIME ( #235, #230 ) ;
#310 = CARTESIAN_POINT ( 'NONE',  ( 0.000000000000000000, 0.000000000000000000, 705.0000000000000000 ) ) ;
#311 = COORDINATED_UNIVERSAL_TIME_OFFSET ( 1, 0, .AHEAD. ) ;
#312 = PERSON_AND_ORGANIZATION_ROLE ( 'creator' ) ;
#313 = CARTESIAN_POINT ( 'NONE',  ( -8.000000000000000000, 0.000000000000000000, 0.000000000000000000 ) ) ;
#314 = COORDINATED_UNIVERSAL_TIME_OFFSET ( 1, 0, .AHEAD. ) ;
#315 = CARTESIAN_POINT ( 'NONE',  ( 0.000000000000000000, 0.000000000000000000, 0.000000000000000000 ) ) ;
#316 = FACE_BOUND ( 'NONE', #72, .T. ) ;
#317 = AXIS2_PLACEMENT_3D ( 'NONE', #143, #201, #377 ) ;
#318 = DIRECTION ( 'NONE',  ( 0.000000000000000000, 0.000000000000000000, 1.000000000000000000 ) ) ;
#319 = EDGE_CURVE ( 'NONE', #218, #355, #331, .T. ) ;
#320 = LINE ( 'NONE', #58, #224 ) ;
#321 = CARTESIAN_POINT ( 'NONE',  ( 3.100000000000000089, 3.796405077356794918E-16, 0.000000000000000000 ) ) ;
#322 = AXIS2_PLACEMENT_3D ( 'NONE', #236, #116, #171 ) ;
#323 = EDGE_CURVE ( 'NONE', #218, #126, #155, .T. ) ;
#324 = DIRECTION ( 'NONE',  ( -0.000000000000000000, -0.000000000000000000, -1.000000000000000000 ) ) ;
#325 = EDGE_LOOP ( 'NONE', ( #266, #342, #270, #159 ) ) ;
#326 = DIRECTION ( 'NONE',  ( -0.000000000000000000, -0.000000000000000000, -1.000000000000000000 ) ) ;
#327 = ORIENTED_EDGE ( 'NONE', *, *, #217, .F. ) ;
#328 = DIRECTION ( 'NONE',  ( 0.000000000000000000, 0.000000000000000000, 1.000000000000000000 ) ) ;
#329 = ORIENTED_EDGE ( 'NONE', *, *, #109, .F. ) ;
#330 = CARTESIAN_POINT ( 'NONE',  ( -3.100000000000000089, 0.000000000000000000, 705.0000000000000000 ) ) ;
#331 = CIRCLE ( 'NONE', #232, 0.5000000000000004441 ) ;
#332 = DIRECTION ( 'NONE',  ( 0.000000000000000000, 0.000000000000000000, -1.000000000000000000 ) ) ;
#333 =( NAMED_UNIT ( * ) SI_UNIT ( $, .STERADIAN. ) SOLID_ANGLE_UNIT ( ) );
#334 = CARTESIAN_POINT ( 'NONE',  ( -5.000000000000000000, 0.000000000000000000, 705.0000000000000000 ) ) ;
#335 = PRODUCT_DEFINITION_SHAPE ( 'NONE', 'NONE',  #367 ) ;
#336 = LINE ( 'NONE', #190, #198 ) ;
#337 = EDGE_LOOP ( 'NONE', ( #100, #264, #197, #179 ) ) ;
#338 = APPLICATION_PROTOCOL_DEFINITION ( 'international standard', 'config_control_design', 1994, #90 ) ;
#339 = LINE ( 'NONE', #334, #354 ) ;
#340 = VECTOR ( 'NONE', #23, 1000.000000000000000 ) ;
#341 = CARTESIAN_POINT ( 'NONE',  ( 0.000000000000000000, 0.000000000000000000, 0.000000000000000000 ) ) ;
#342 = ORIENTED_EDGE ( 'NONE', *, *, #5, .T. ) ;
#343 = PERSON_AND_ORGANIZATION_ROLE ( 'design_supplier' ) ;
#344 = DIRECTION ( 'NONE',  ( 1.000000000000000000, 0.000000000000000000, 0.000000000000000000 ) ) ;
#345 = PERSON_AND_ORGANIZATION ( #189, #29 ) ;
#346 = DIRECTION ( 'NONE',  ( 0.000000000000000000, 0.000000000000000000, 1.000000000000000000 ) ) ;
#347 = CLOSED_SHELL ( 'NONE', ( #8, #305, #82, #279, #15, #160, #376, #186, #151, #41, #26 ) ) ;
#348 = CIRCLE ( 'NONE', #293, 5.500000000000000000 ) ;
#349 = CALENDAR_DATE ( 2022, 8, 7 ) ;
#350 = DIRECTION ( 'NONE',  ( 1.000000000000000000, 0.000000000000000000, 0.000000000000000000 ) ) ;
#351 = DATE_TIME_ROLE ( 'classification_date' ) ;
#352 = CARTESIAN_POINT ( 'NONE',  ( 0.000000000000000000, 0.000000000000000000, 705.0000000000000000 ) ) ;
#353 = CARTESIAN_POINT ( 'NONE',  ( 0.000000000000000000, 0.000000000000000000, 5.000000000000000000 ) ) ;
#354 = VECTOR ( 'NONE', #162, 1000.000000000000000 ) ;
#355 = VERTEX_POINT ( 'NONE', #16 ) ;
#356 = LINE ( 'NONE', #63, #13 ) ;
#357 = ORIENTED_EDGE ( 'NONE', *, *, #379, .T. ) ;
#358 = DATE_AND_TIME ( #290, #261 ) ;
#359 = CARTESIAN_POINT ( 'NONE',  ( 5.000000000000000000, 6.123233995736766282E-16, 5.499999999999949374 ) ) ;
#360 = ORIENTED_EDGE ( 'NONE', *, *, #22, .F. ) ;
#361 = AXIS2_PLACEMENT_3D ( 'NONE', #56, #326, #30 ) ;
#362 = DIRECTION ( 'NONE',  ( -0.000000000000000000, -0.000000000000000000, -1.000000000000000000 ) ) ;
#363 = FACE_OUTER_BOUND ( 'NONE', #42, .T. ) ;
#364 = VERTEX_POINT ( 'NONE', #330 ) ;
#365 = APPLICATION_PROTOCOL_DEFINITION ( 'international standard', 'config_control_design', 1994, #69 ) ;
#366 = ORIENTED_EDGE ( 'NONE', *, *, #105, .F. ) ;
#367 = PRODUCT_DEFINITION ( 'NEZNÁMÝ', '', #60, #118 ) ;
#368 = DIRECTION ( 'NONE',  ( -1.000000000000000000, 0.000000000000000000, 0.000000000000000000 ) ) ;
#369 =( LENGTH_UNIT ( ) NAMED_UNIT ( * ) SI_UNIT ( .MILLI., .METRE. ) );
#370 = ORIENTED_EDGE ( 'NONE', *, *, #36, .F. ) ;
#371 = PRODUCT_RELATED_PRODUCT_CATEGORY ( 'detail', '', ( #14 ) ) ;
#372 = CARTESIAN_POINT ( 'NONE',  ( 0.000000000000000000, 0.000000000000000000, 0.000000000000000000 ) ) ;
#373 = FACE_OUTER_BOUND ( 'NONE', #272, .T. ) ;
#374 = MANIFOLD_SOLID_BREP ( 'Odebrat vysunutím3', #347 ) ;
#375 = CARTESIAN_POINT ( 'NONE',  ( 5.000000000000000000, 6.123233995736766282E-16, 705.0000000000000000 ) ) ;
#376 = ADVANCED_FACE ( 'NONE', ( #194, #135 ), #103, .F. ) ;
#377 = DIRECTION ( 'NONE',  ( 1.000000000000000000, 0.000000000000000000, -0.000000000000000000 ) ) ;
#378 = PLANE ( 'NONE',  #322 ) ;
#379 = EDGE_CURVE ( 'NONE', #250, #302, #336, .T. ) ;
#380 = CALENDAR_DATE ( 2022, 8, 7 ) ;
#381 = CARTESIAN_POINT ( 'NONE',  ( 8.000000000000000000, 9.797174393178825657E-16, 0.000000000000000000 ) ) ;
ENDSEC;
END-ISO-10303-21;
