ISO-10303-21;
HEADER;
FILE_DESCRIPTION (( 'STEP AP203' ),
    '1' );
FILE_NAME ('2ee0.STEP',
    '2022-07-08T14:39:26',
    ( '' ),
    ( '' ),
    'SwSTEP 2.0',
    'SolidWorks 2019',
    '' );
FILE_SCHEMA (( 'CONFIG_CONTROL_DESIGN' ));
ENDSEC;

DATA;
#1 = DIRECTION ( 'NONE',  ( 1.000000000000000000, 0.000000000000000000, 0.000000000000000000 ) ) ;
#2 = ORIENTED_EDGE ( 'NONE', *, *, #376, .T. ) ;
#3 = APPROVAL_PERSON_ORGANIZATION ( #94, #256, #14 ) ;
#4 = ORIENTED_EDGE ( 'NONE', *, *, #268, .F. ) ;
#5 = ADVANCED_FACE ( 'NONE', ( #36, #157 ), #269, .T. ) ;
#6 = EDGE_LOOP ( 'NONE', ( #176, #204, #148, #62 ) ) ;
#7 = CALENDAR_DATE ( 2022, 8, 7 ) ;
#8 = ORIENTED_EDGE ( 'NONE', *, *, #167, .F. ) ;
#9 = PERSON_AND_ORGANIZATION ( #377, #348 ) ;
#10 = VERTEX_POINT ( 'NONE', #291 ) ;
#11 = AXIS2_PLACEMENT_3D ( 'NONE', #351, #27, #349 ) ;
#12 = MECHANICAL_CONTEXT ( 'NONE', #49, 'mechanical' ) ;
#13 = ORIENTED_EDGE ( 'NONE', *, *, #325, .T. ) ;
#14 = APPROVAL_ROLE ( '' ) ;
#15 = DIRECTION ( 'NONE',  ( 0.000000000000000000, 0.000000000000000000, 1.000000000000000000 ) ) ;
#16 = CIRCLE ( 'NONE', #226, 10.00000000000000000 ) ;
#17 = DATE_TIME_ROLE ( 'creation_date' ) ;
#18 = DIRECTION ( 'NONE',  ( -0.000000000000000000, -0.000000000000000000, -1.000000000000000000 ) ) ;
#19 = TOROIDAL_SURFACE ( 'NONE', #236, 6.700000000000001066, 0.6999999999999999556 ) ;
#20 = CC_DESIGN_APPROVAL ( #175, ( #267 ) ) ;
#21 = DIRECTION ( 'NONE',  ( 1.000000000000000000, 0.000000000000000000, 0.000000000000000000 ) ) ;
#22 = DIRECTION ( 'NONE',  ( 0.000000000000000000, 0.000000000000000000, -1.000000000000000000 ) ) ;
#23 = CC_DESIGN_PERSON_AND_ORGANIZATION_ASSIGNMENT ( #61, #270, ( #97 ) ) ;
#24 = DIRECTION ( 'NONE',  ( 0.000000000000000000, 0.000000000000000000, 1.000000000000000000 ) ) ;
#25 = DIRECTION ( 'NONE',  ( -1.000000000000000000, 0.000000000000000000, 0.000000000000000000 ) ) ;
#26 = PLANE ( 'NONE',  #367 ) ;
#27 = DIRECTION ( 'NONE',  ( -0.000000000000000000, -0.000000000000000000, -1.000000000000000000 ) ) ;
#28 = CC_DESIGN_SECURITY_CLASSIFICATION ( #260, ( #267 ) ) ;
#29 = CARTESIAN_POINT ( 'NONE',  ( -6.000000000000000888, 0.000000000000000000, 157.0000000000000000 ) ) ;
#30 = ORIENTED_EDGE ( 'NONE', *, *, #376, .F. ) ;
#31 = DIRECTION ( 'NONE',  ( 1.000000000000000000, 0.000000000000000000, -0.000000000000000000 ) ) ;
#32 = ORIENTED_EDGE ( 'NONE', *, *, #281, .T. ) ;
#33 = CARTESIAN_POINT ( 'NONE',  ( 0.000000000000000000, 0.000000000000000000, 7.000000000000000000 ) ) ;
#34 = ORIENTED_EDGE ( 'NONE', *, *, #133, .T. ) ;
#35 =( NAMED_UNIT ( * ) PLANE_ANGLE_UNIT ( ) SI_UNIT ( $, .RADIAN. ) );
#36 = FACE_BOUND ( 'NONE', #333, .T. ) ;
#37 = APPROVAL_ROLE ( '' ) ;
#38 = ORIENTED_EDGE ( 'NONE', *, *, #268, .T. ) ;
#39 = DIRECTION ( 'NONE',  ( -0.000000000000000000, -0.000000000000000000, -1.000000000000000000 ) ) ;
#40 = DATE_AND_TIME ( #159, #380 ) ;
#41 = DIRECTION ( 'NONE',  ( 1.000000000000000000, 0.000000000000000000, 0.000000000000000000 ) ) ;
#42 = DIRECTION ( 'NONE',  ( 0.000000000000000000, 0.000000000000000000, 1.000000000000000000 ) ) ;
#43 = AXIS2_PLACEMENT_3D ( 'NONE', #33, #203, #320 ) ;
#44 = DIRECTION ( 'NONE',  ( 1.000000000000000000, 0.000000000000000000, 0.000000000000000000 ) ) ;
#45 = LINE ( 'NONE', #75, #144 ) ;
#46 = AXIS2_PLACEMENT_3D ( 'NONE', #353, #231, #354 ) ;
#47 = CARTESIAN_POINT ( 'NONE',  ( 0.000000000000000000, 0.000000000000000000, 7.700000000000012612 ) ) ;
#48 = ORIENTED_EDGE ( 'NONE', *, *, #167, .T. ) ;
#49 = APPLICATION_CONTEXT ( 'configuration controlled 3d designs of mechanical parts and assemblies' ) ;
#50 = AXIS2_PLACEMENT_3D ( 'NONE', #132, #245, #365 ) ;
#51 = AXIS2_PLACEMENT_3D ( 'NONE', #201, #378, #347 ) ;
#52 = DIRECTION ( 'NONE',  ( -1.000000000000000000, 0.000000000000000000, 0.000000000000000000 ) ) ;
#53 = EDGE_CURVE ( 'NONE', #80, #10, #251, .T. ) ;
#54 = DIRECTION ( 'NONE',  ( -0.000000000000000000, -0.000000000000000000, -1.000000000000000000 ) ) ;
#55 = AXIS2_PLACEMENT_3D ( 'NONE', #91, #208, #329 ) ;
#56 = CARTESIAN_POINT ( 'NONE',  ( 0.000000000000000000, 0.000000000000000000, 7.700000000000012612 ) ) ;
#57 = CIRCLE ( 'NONE', #335, 6.000000000000000888 ) ;
#58 = ORIENTED_EDGE ( 'NONE', *, *, #177, .T. ) ;
#59 = EDGE_LOOP ( 'NONE', ( #178, #255, #93, #283 ) ) ;
#60 = CARTESIAN_POINT ( 'NONE',  ( 0.000000000000000000, 0.000000000000000000, 7.000000000000000000 ) ) ;
#61 = PERSON_AND_ORGANIZATION ( #377, #348 ) ;
#62 = ORIENTED_EDGE ( 'NONE', *, *, #325, .F. ) ;
#63 = DIRECTION ( 'NONE',  ( 0.000000000000000000, 0.000000000000000000, 1.000000000000000000 ) ) ;
#64 = ORIENTED_EDGE ( 'NONE', *, *, #288, .T. ) ;
#65 = CALENDAR_DATE ( 2022, 8, 7 ) ;
#66 = EDGE_CURVE ( 'NONE', #289, #155, #258, .T. ) ;
#67 = FACE_BOUND ( 'NONE', #118, .T. ) ;
#68 = CIRCLE ( 'NONE', #366, 6.000000000000000888 ) ;
#69 = APPROVAL_ROLE ( '' ) ;
#70 = EDGE_CURVE ( 'NONE', #206, #330, #99, .T. ) ;
#71 = LINE ( 'NONE', #247, #73 ) ;
#72 = DIRECTION ( 'NONE',  ( -0.000000000000000000, -0.000000000000000000, -1.000000000000000000 ) ) ;
#73 = VECTOR ( 'NONE', #18, 1000.000000000000000 ) ;
#74 = CC_DESIGN_PERSON_AND_ORGANIZATION_ASSIGNMENT ( #188, #235, ( #267 ) ) ;
#75 = CARTESIAN_POINT ( 'NONE',  ( 4.000000000000000000, 4.898587196589412829E-16, 157.0000000000000000 ) ) ;
#76 = CC_DESIGN_APPROVAL ( #256, ( #332 ) ) ;
#77 = DIRECTION ( 'NONE',  ( 1.000000000000000000, 0.000000000000000000, 0.000000000000000000 ) ) ;
#78 = FACE_OUTER_BOUND ( 'NONE', #257, .T. ) ;
#79 = FACE_OUTER_BOUND ( 'NONE', #143, .T. ) ;
#80 = VERTEX_POINT ( 'NONE', #129 ) ;
#81 = AXIS2_PLACEMENT_3D ( 'NONE', #249, #173, #25 ) ;
#82 = CARTESIAN_POINT ( 'NONE',  ( 10.00000000000000000, 1.224646799147353256E-15, 7.000000000000000000 ) ) ;
#83 = VERTEX_POINT ( 'NONE', #278 ) ;
#84 = FACE_OUTER_BOUND ( 'NONE', #95, .T. ) ;
#85 = CC_DESIGN_PERSON_AND_ORGANIZATION_ASSIGNMENT ( #182, #368, ( #260 ) ) ;
#86 = ORIENTED_EDGE ( 'NONE', *, *, #302, .F. ) ;
#87 = EDGE_LOOP ( 'NONE', ( #116, #120, #314, #212 ) ) ;
#88 = DIRECTION ( 'NONE',  ( 0.000000000000000000, 0.000000000000000000, 1.000000000000000000 ) ) ;
#89 = ADVANCED_FACE ( 'NONE', ( #67, #218 ), #131, .F. ) ;
#90 = VECTOR ( 'NONE', #158, 1000.000000000000000 ) ;
#91 = CARTESIAN_POINT ( 'NONE',  ( 0.000000000000000000, 0.000000000000000000, 0.000000000000000000 ) ) ;
#92 = DATE_AND_TIME ( #238, #341 ) ;
#93 = ORIENTED_EDGE ( 'NONE', *, *, #124, .T. ) ;
#94 = PERSON_AND_ORGANIZATION ( #377, #348 ) ;
#95 = EDGE_LOOP ( 'NONE', ( #321, #169, #38, #202 ) ) ;
#96 = APPROVAL_DATE_TIME ( #92, #175 ) ;
#97 = PRODUCT ( '2ee0', '2ee0', '', ( #12 ) ) ;
#98 = FACE_OUTER_BOUND ( 'NONE', #286, .T. ) ;
#99 = CIRCLE ( 'NONE', #312, 10.00000000000000000 ) ;
#100 = CARTESIAN_POINT ( 'NONE',  ( -10.00000000000000000, 0.000000000000000000, 7.000000000000000000 ) ) ;
#101 =( GEOMETRIC_REPRESENTATION_CONTEXT ( 3 ) GLOBAL_UNCERTAINTY_ASSIGNED_CONTEXT ( ( #219 ) ) GLOBAL_UNIT_ASSIGNED_CONTEXT ( ( #207, #35, #240 ) ) REPRESENTATION_CONTEXT ( 'NONE', 'WORKASPACE' ) );
#102 = PERSON_AND_ORGANIZATION ( #377, #348 ) ;
#103 = CARTESIAN_POINT ( 'NONE',  ( 0.000000000000000000, 0.000000000000000000, 157.0000000000000000 ) ) ;
#104 = CARTESIAN_POINT ( 'NONE',  ( 0.000000000000000000, 0.000000000000000000, 157.0000000000000000 ) ) ;
#105 = DIRECTION ( 'NONE',  ( 1.000000000000000000, 0.000000000000000000, 0.000000000000000000 ) ) ;
#106 = AXIS2_PLACEMENT_3D ( 'NONE', #220, #39, #77 ) ;
#107 = APPROVAL_PERSON_ORGANIZATION ( #102, #122, #37 ) ;
#108 = FACE_OUTER_BOUND ( 'NONE', #230, .T. ) ;
#109 = CARTESIAN_POINT ( 'NONE',  ( -10.00000000000000000, 0.000000000000000000, 0.000000000000000000 ) ) ;
#110 = ADVANCED_BREP_SHAPE_REPRESENTATION ( '2ee0', ( #319, #180 ), #101 ) ;
#111 = EDGE_CURVE ( 'NONE', #234, #83, #45, .T. ) ;
#112 = DIRECTION ( 'NONE',  ( 1.000000000000000000, 0.000000000000000000, 0.000000000000000000 ) ) ;
#113 = CYLINDRICAL_SURFACE ( 'NONE', #43, 10.00000000000000000 ) ;
#114 = DIRECTION ( 'NONE',  ( 1.000000000000000000, 0.000000000000000000, 0.000000000000000000 ) ) ;
#115 = ORIENTED_EDGE ( 'NONE', *, *, #345, .T. ) ;
#116 = ORIENTED_EDGE ( 'NONE', *, *, #111, .F. ) ;
#117 = ORIENTED_EDGE ( 'NONE', *, *, #213, .F. ) ;
#118 = EDGE_LOOP ( 'NONE', ( #183, #4 ) ) ;
#119 = APPROVAL_PERSON_ORGANIZATION ( #9, #175, #69 ) ;
#120 = ORIENTED_EDGE ( 'NONE', *, *, #166, .T. ) ;
#121 = APPROVAL_DATE_TIME ( #190, #122 ) ;
#122 = APPROVAL ( #299, 'NEURÈENÝ' ) ;
#123 = DIRECTION ( 'NONE',  ( 0.000000000000000000, 0.000000000000000000, 1.000000000000000000 ) ) ;
#124 = EDGE_CURVE ( 'NONE', #206, #289, #71, .T. ) ;
#125 = CARTESIAN_POINT ( 'NONE',  ( 6.000000000000000888, 7.347880794884120722E-16, 157.0000000000000000 ) ) ;
#126 = CIRCLE ( 'NONE', #346, 4.000000000000000000 ) ;
#127 = APPLICATION_PROTOCOL_DEFINITION ( 'international standard', 'config_control_design', 1994, #140 ) ;
#128 = AXIS2_PLACEMENT_3D ( 'NONE', #228, #284, #112 ) ;
#129 = CARTESIAN_POINT ( 'NONE',  ( -6.000000000000000888, 0.000000000000000000, 7.700000000000012612 ) ) ;
#130 = DIRECTION ( 'NONE',  ( 0.000000000000000000, 0.000000000000000000, 1.000000000000000000 ) ) ;
#131 = PLANE ( 'NONE',  #192 ) ;
#132 = CARTESIAN_POINT ( 'NONE',  ( 0.000000000000000000, 0.000000000000000000, 7.000000000000000000 ) ) ;
#133 = EDGE_CURVE ( 'NONE', #330, #155, #339, .T. ) ;
#134 = AXIS2_PLACEMENT_3D ( 'NONE', #310, #370, #248 ) ;
#135 = DIRECTION ( 'NONE',  ( 1.000000000000000000, 0.000000000000000000, 0.000000000000000000 ) ) ;
#136 = EDGE_LOOP ( 'NONE', ( #318, #237, #300, #117 ) ) ;
#137 = CYLINDRICAL_SURFACE ( 'NONE', #81, 4.000000000000000000 ) ;
#138 = FACE_OUTER_BOUND ( 'NONE', #6, .T. ) ;
#139 = EDGE_LOOP ( 'NONE', ( #172, #8 ) ) ;
#140 = APPLICATION_CONTEXT ( 'configuration controlled 3d designs of mechanical parts and assemblies' ) ;
#141 = DIRECTION ( 'NONE',  ( 0.000000000000000000, 0.000000000000000000, 1.000000000000000000 ) ) ;
#142 = VERTEX_POINT ( 'NONE', #125 ) ;
#143 = EDGE_LOOP ( 'NONE', ( #239, #362 ) ) ;
#144 = VECTOR ( 'NONE', #22, 1000.000000000000000 ) ;
#145 = VERTEX_POINT ( 'NONE', #279 ) ;
#146 = CIRCLE ( 'NONE', #128, 4.000000000000000000 ) ;
#147 = VECTOR ( 'NONE', #344, 1000.000000000000000 ) ;
#148 = ORIENTED_EDGE ( 'NONE', *, *, #213, .T. ) ;
#149 = CC_DESIGN_DATE_AND_TIME_ASSIGNMENT ( #40, #273, ( #260 ) ) ;
#150 = CC_DESIGN_PERSON_AND_ORGANIZATION_ASSIGNMENT ( #296, #306, ( #332 ) ) ;
#151 = VERTEX_POINT ( 'NONE', #197 ) ;
#152 = CARTESIAN_POINT ( 'NONE',  ( 0.000000000000000000, 0.000000000000000000, 0.000000000000000000 ) ) ;
#153 = EDGE_CURVE ( 'NONE', #142, #145, #198, .T. ) ;
#154 = CLOSED_SHELL ( 'NONE', ( #343, #223, #360, #373, #205, #5, #89, #229, #292, #272, #253 ) ) ;
#155 = VERTEX_POINT ( 'NONE', #340 ) ;
#156 = APPROVAL_STATUS ( 'not_yet_approved' ) ;
#157 = FACE_OUTER_BOUND ( 'NONE', #185, .T. ) ;
#158 = DIRECTION ( 'NONE',  ( 0.000000000000000000, 0.000000000000000000, -1.000000000000000000 ) ) ;
#159 = CALENDAR_DATE ( 2022, 8, 7 ) ;
#160 = CARTESIAN_POINT ( 'NONE',  ( 0.000000000000000000, 0.000000000000000000, 0.000000000000000000 ) ) ;
#161 = DESIGN_CONTEXT ( 'detailed design', #140, 'design' ) ;
#162 = EDGE_CURVE ( 'NONE', #356, #151, #334, .T. ) ;
#163 = CARTESIAN_POINT ( 'NONE',  ( 0.000000000000000000, 0.000000000000000000, 157.0000000000000000 ) ) ;
#164 = AXIS2_PLACEMENT_3D ( 'NONE', #280, #252, #114 ) ;
#165 = DIRECTION ( 'NONE',  ( 0.000000000000000000, 0.000000000000000000, 1.000000000000000000 ) ) ;
#166 = EDGE_CURVE ( 'NONE', #234, #356, #126, .T. ) ;
#167 = EDGE_CURVE ( 'NONE', #155, #289, #16, .T. ) ;
#168 = DIRECTION ( 'NONE',  ( 0.000000000000000000, 0.000000000000000000, 1.000000000000000000 ) ) ;
#169 = ORIENTED_EDGE ( 'NONE', *, *, #111, .T. ) ;
#170 = CARTESIAN_POINT ( 'NONE',  ( 6.000000000000000888, 7.347880794884120722E-16, 157.0000000000000000 ) ) ;
#171 = DIRECTION ( 'NONE',  ( 0.000000000000000000, 0.000000000000000000, 1.000000000000000000 ) ) ;
#172 = ORIENTED_EDGE ( 'NONE', *, *, #66, .F. ) ;
#173 = DIRECTION ( 'NONE',  ( 0.000000000000000000, 0.000000000000000000, -1.000000000000000000 ) ) ;
#174 = CIRCLE ( 'NONE', #11, 6.700000000000001066 ) ;
#175 = APPROVAL ( #216, 'NEURÈENÝ' ) ;
#176 = ORIENTED_EDGE ( 'NONE', *, *, #53, .F. ) ;
#177 = EDGE_CURVE ( 'NONE', #330, #206, #327, .T. ) ;
#178 = ORIENTED_EDGE ( 'NONE', *, *, #133, .F. ) ;
#179 = DIRECTION ( 'NONE',  ( 1.000000000000000000, 0.000000000000000000, -0.000000000000000000 ) ) ;
#180 = AXIS2_PLACEMENT_3D ( 'NONE', #152, #63, #262 ) ;
#181 = DIRECTION ( 'NONE',  ( 0.000000000000000000, 0.000000000000000000, 1.000000000000000000 ) ) ;
#182 = PERSON_AND_ORGANIZATION ( #377, #348 ) ;
#183 = ORIENTED_EDGE ( 'NONE', *, *, #196, .F. ) ;
#184 = COORDINATED_UNIVERSAL_TIME_OFFSET ( 1, 0, .AHEAD. ) ;
#185 = EDGE_LOOP ( 'NONE', ( #297, #58 ) ) ;
#186 = AXIS2_PLACEMENT_3D ( 'NONE', #103, #72, #191 ) ;
#187 = CARTESIAN_POINT ( 'NONE',  ( 0.000000000000000000, 0.000000000000000000, 157.0000000000000000 ) ) ;
#188 = PERSON_AND_ORGANIZATION ( #377, #348 ) ;
#189 = CARTESIAN_POINT ( 'NONE',  ( 6.700000000000001066, 0.000000000000000000, 7.000000000000006217 ) ) ;
#190 = DATE_AND_TIME ( #266, #323 ) ;
#191 = DIRECTION ( 'NONE',  ( -1.000000000000000000, 0.000000000000000000, 0.000000000000000000 ) ) ;
#192 = AXIS2_PLACEMENT_3D ( 'NONE', #215, #165, #224 ) ;
#193 = CIRCLE ( 'NONE', #106, 4.000000000000000000 ) ;
#194 = DIRECTION ( 'NONE',  ( 0.000000000000000000, 0.000000000000000000, 1.000000000000000000 ) ) ;
#195 = AXIS2_PLACEMENT_3D ( 'NONE', #47, #171, #316 ) ;
#196 = EDGE_CURVE ( 'NONE', #151, #83, #193, .T. ) ;
#197 = CARTESIAN_POINT ( 'NONE',  ( -4.000000000000000000, 0.000000000000000000, 0.000000000000000000 ) ) ;
#198 = CIRCLE ( 'NONE', #274, 6.000000000000000888 ) ;
#199 = DIRECTION ( 'NONE',  ( 0.000000000000000000, 0.000000000000000000, -1.000000000000000000 ) ) ;
#200 = AXIS2_PLACEMENT_3D ( 'NONE', #313, #199, #52 ) ;
#201 = CARTESIAN_POINT ( 'NONE',  ( 0.000000000000000000, 0.000000000000000000, 157.0000000000000000 ) ) ;
#202 = ORIENTED_EDGE ( 'NONE', *, *, #162, .F. ) ;
#203 = DIRECTION ( 'NONE',  ( -0.000000000000000000, -0.000000000000000000, -1.000000000000000000 ) ) ;
#204 = ORIENTED_EDGE ( 'NONE', *, *, #369, .F. ) ;
#205 = ADVANCED_FACE ( 'NONE', ( #244 ), #311, .T. ) ;
#206 = VERTEX_POINT ( 'NONE', #100 ) ;
#207 =( LENGTH_UNIT ( ) NAMED_UNIT ( * ) SI_UNIT ( .MILLI., .METRE. ) );
#208 = DIRECTION ( 'NONE',  ( 0.000000000000000000, 0.000000000000000000, 1.000000000000000000 ) ) ;
#209 = TOROIDAL_SURFACE ( 'NONE', #308, 6.700000000000001066, 0.6999999999999999556 ) ;
#210 = SECURITY_CLASSIFICATION_LEVEL ( 'unclassified' ) ;
#211 = CIRCLE ( 'NONE', #51, 4.000000000000000000 ) ;
#212 = ORIENTED_EDGE ( 'NONE', *, *, #196, .T. ) ;
#213 = EDGE_CURVE ( 'NONE', #324, #214, #322, .T. ) ;
#214 = VERTEX_POINT ( 'NONE', #189 ) ;
#215 = CARTESIAN_POINT ( 'NONE',  ( 0.000000000000000000, 0.000000000000000000, 0.000000000000000000 ) ) ;
#216 = APPROVAL_STATUS ( 'not_yet_approved' ) ;
#217 = CIRCLE ( 'NONE', #164, 6.700000000000001066 ) ;
#218 = FACE_OUTER_BOUND ( 'NONE', #139, .T. ) ;
#219 = UNCERTAINTY_MEASURE_WITH_UNIT (LENGTH_MEASURE( 1.000000000000000082E-05 ), #207, 'distance_accuracy_value', 'NONE');
#220 = CARTESIAN_POINT ( 'NONE',  ( 0.000000000000000000, 0.000000000000000000, 0.000000000000000000 ) ) ;
#221 = PRODUCT_DEFINITION_SHAPE ( 'NONE', 'NONE',  #332 ) ;
#222 = FACE_OUTER_BOUND ( 'NONE', #136, .T. ) ;
#223 = ADVANCED_FACE ( 'NONE', ( #222 ), #209, .F. ) ;
#224 = DIRECTION ( 'NONE',  ( 1.000000000000000000, 0.000000000000000000, -0.000000000000000000 ) ) ;
#225 = CARTESIAN_POINT ( 'NONE',  ( 0.000000000000000000, 0.000000000000000000, 157.0000000000000000 ) ) ;
#226 = AXIS2_PLACEMENT_3D ( 'NONE', #160, #130, #105 ) ;
#227 = FACE_OUTER_BOUND ( 'NONE', #87, .T. ) ;
#228 = CARTESIAN_POINT ( 'NONE',  ( 0.000000000000000000, 0.000000000000000000, 0.000000000000000000 ) ) ;
#229 = ADVANCED_FACE ( 'NONE', ( #98 ), #305, .T. ) ;
#230 = EDGE_LOOP ( 'NONE', ( #359, #34, #48, #263 ) ) ;
#231 = DIRECTION ( 'NONE',  ( 1.224646799147353207E-16, 1.000000000000000000, -0.000000000000000000 ) ) ;
#232 = CC_DESIGN_PERSON_AND_ORGANIZATION_ASSIGNMENT ( #242, #358, ( #267 ) ) ;
#233 = COORDINATED_UNIVERSAL_TIME_OFFSET ( 1, 0, .AHEAD. ) ;
#234 = VERTEX_POINT ( 'NONE', #307 ) ;
#235 = PERSON_AND_ORGANIZATION_ROLE ( 'design_supplier' ) ;
#236 = AXIS2_PLACEMENT_3D ( 'NONE', #56, #168, #135 ) ;
#237 = ORIENTED_EDGE ( 'NONE', *, *, #53, .T. ) ;
#238 = CALENDAR_DATE ( 2022, 8, 7 ) ;
#239 = ORIENTED_EDGE ( 'NONE', *, *, #246, .T. ) ;
#240 =( NAMED_UNIT ( * ) SI_UNIT ( $, .STERADIAN. ) SOLID_ANGLE_UNIT ( ) );
#241 = DIRECTION ( 'NONE',  ( 1.000000000000000000, 0.000000000000000000, 0.000000000000000000 ) ) ;
#242 = PERSON_AND_ORGANIZATION ( #377, #348 ) ;
#243 = LOCAL_TIME ( 16, 39, 26.00000000000000000, #233 ) ;
#244 = FACE_OUTER_BOUND ( 'NONE', #59, .T. ) ;
#245 = DIRECTION ( 'NONE',  ( -0.000000000000000000, -0.000000000000000000, -1.000000000000000000 ) ) ;
#246 = EDGE_CURVE ( 'NONE', #145, #142, #68, .T. ) ;
#247 = CARTESIAN_POINT ( 'NONE',  ( -10.00000000000000000, 0.000000000000000000, 7.000000000000000000 ) ) ;
#248 = DIRECTION ( 'NONE',  ( 0.000000000000000000, 0.000000000000000000, -1.000000000000000000 ) ) ;
#249 = CARTESIAN_POINT ( 'NONE',  ( 0.000000000000000000, 0.000000000000000000, 157.0000000000000000 ) ) ;
#250 = FACE_BOUND ( 'NONE', #265, .T. ) ;
#251 = CIRCLE ( 'NONE', #46, 0.7000000000000000666 ) ;
#252 = DIRECTION ( 'NONE',  ( -0.000000000000000000, -0.000000000000000000, -1.000000000000000000 ) ) ;
#253 = ADVANCED_FACE ( 'NONE', ( #227 ), #137, .F. ) ;
#254 = DIRECTION ( 'NONE',  ( -0.000000000000000000, -0.000000000000000000, -1.000000000000000000 ) ) ;
#255 = ORIENTED_EDGE ( 'NONE', *, *, #70, .F. ) ;
#256 = APPROVAL ( #156, 'NEURÈENÝ' ) ;
#257 = EDGE_LOOP ( 'NONE', ( #259, #64, #350, #30 ) ) ;
#258 = CIRCLE ( 'NONE', #55, 10.00000000000000000 ) ;
#259 = ORIENTED_EDGE ( 'NONE', *, *, #153, .F. ) ;
#260 = SECURITY_CLASSIFICATION ( '', '', #210 ) ;
#261 = CARTESIAN_POINT ( 'NONE',  ( 0.000000000000000000, 0.000000000000000000, 7.000000000000000000 ) ) ;
#262 = DIRECTION ( 'NONE',  ( 1.000000000000000000, 0.000000000000000000, 0.000000000000000000 ) ) ;
#263 = ORIENTED_EDGE ( 'NONE', *, *, #124, .F. ) ;
#264 = DATE_AND_TIME ( #7, #287 ) ;
#265 = EDGE_LOOP ( 'NONE', ( #86, #290 ) ) ;
#266 = CALENDAR_DATE ( 2022, 8, 7 ) ;
#267 = PRODUCT_DEFINITION_FORMATION_WITH_SPECIFIED_SOURCE ( 'LIBOVOLNÝ', '', #97, .NOT_KNOWN. ) ;
#268 = EDGE_CURVE ( 'NONE', #83, #151, #146, .T. ) ;
#269 = PLANE ( 'NONE',  #298 ) ;
#270 = PERSON_AND_ORGANIZATION_ROLE ( 'design_owner' ) ;
#271 = DIRECTION ( 'NONE',  ( 0.000000000000000000, 0.000000000000000000, 1.000000000000000000 ) ) ;
#272 = ADVANCED_FACE ( 'NONE', ( #138 ), #19, .F. ) ;
#273 = DATE_TIME_ROLE ( 'classification_date' ) ;
#274 = AXIS2_PLACEMENT_3D ( 'NONE', #104, #15, #241 ) ;
#275 = CARTESIAN_POINT ( 'NONE',  ( 0.000000000000000000, 0.000000000000000000, 7.000000000000000000 ) ) ;
#276 = AXIS2_PLACEMENT_3D ( 'NONE', #317, #54, #381 ) ;
#277 = DIRECTION ( 'NONE',  ( 1.000000000000000000, 0.000000000000000000, 0.000000000000000000 ) ) ;
#278 = CARTESIAN_POINT ( 'NONE',  ( 4.000000000000000000, 4.898587196589412829E-16, 0.000000000000000000 ) ) ;
#279 = CARTESIAN_POINT ( 'NONE',  ( -6.000000000000000888, 0.000000000000000000, 157.0000000000000000 ) ) ;
#280 = CARTESIAN_POINT ( 'NONE',  ( 0.000000000000000000, 0.000000000000000000, 7.000000000000000000 ) ) ;
#281 = EDGE_CURVE ( 'NONE', #214, #10, #217, .T. ) ;
#282 = LINE ( 'NONE', #170, #147 ) ;
#283 = ORIENTED_EDGE ( 'NONE', *, *, #66, .T. ) ;
#284 = DIRECTION ( 'NONE',  ( -0.000000000000000000, -0.000000000000000000, -1.000000000000000000 ) ) ;
#285 = LINE ( 'NONE', #29, #357 ) ;
#286 = EDGE_LOOP ( 'NONE', ( #295, #326, #2, #115 ) ) ;
#287 = LOCAL_TIME ( 16, 39, 26.00000000000000000, #304 ) ;
#288 = EDGE_CURVE ( 'NONE', #142, #324, #282, .T. ) ;
#289 = VERTEX_POINT ( 'NONE', #109 ) ;
#290 = ORIENTED_EDGE ( 'NONE', *, *, #166, .F. ) ;
#291 = CARTESIAN_POINT ( 'NONE',  ( -6.700000000000001066, 8.205133554287267548E-16, 7.000000000000006217 ) ) ;
#292 = ADVANCED_FACE ( 'NONE', ( #250, #79 ), #26, .T. ) ;
#293 = CIRCLE ( 'NONE', #195, 6.000000000000000888 ) ;
#294 = CARTESIAN_POINT ( 'NONE',  ( 0.000000000000000000, 0.000000000000000000, 7.700000000000012612 ) ) ;
#295 = ORIENTED_EDGE ( 'NONE', *, *, #288, .F. ) ;
#296 = PERSON_AND_ORGANIZATION ( #377, #348 ) ;
#297 = ORIENTED_EDGE ( 'NONE', *, *, #70, .T. ) ;
#298 = AXIS2_PLACEMENT_3D ( 'NONE', #261, #123, #31 ) ;
#299 = APPROVAL_STATUS ( 'not_yet_approved' ) ;
#300 = ORIENTED_EDGE ( 'NONE', *, *, #281, .F. ) ;
#301 = APPLICATION_PROTOCOL_DEFINITION ( 'international standard', 'config_control_design', 1994, #49 ) ;
#302 = EDGE_CURVE ( 'NONE', #356, #234, #211, .T. ) ;
#303 = DIRECTION ( 'NONE',  ( 1.000000000000000000, 0.000000000000000000, 0.000000000000000000 ) ) ;
#304 = COORDINATED_UNIVERSAL_TIME_OFFSET ( 1, 0, .AHEAD. ) ;
#305 = CYLINDRICAL_SURFACE ( 'NONE', #186, 6.000000000000000888 ) ;
#306 = PERSON_AND_ORGANIZATION_ROLE ( 'creator' ) ;
#307 = CARTESIAN_POINT ( 'NONE',  ( 4.000000000000000000, 4.898587196589412829E-16, 157.0000000000000000 ) ) ;
#308 = AXIS2_PLACEMENT_3D ( 'NONE', #371, #24, #41 ) ;
#309 = CC_DESIGN_APPROVAL ( #122, ( #260 ) ) ;
#310 = CARTESIAN_POINT ( 'NONE',  ( 6.700000000000001066, 0.000000000000000000, 7.700000000000012612 ) ) ;
#311 = CYLINDRICAL_SURFACE ( 'NONE', #50, 10.00000000000000000 ) ;
#312 = AXIS2_PLACEMENT_3D ( 'NONE', #60, #181, #21 ) ;
#313 = CARTESIAN_POINT ( 'NONE',  ( 0.000000000000000000, 0.000000000000000000, 157.0000000000000000 ) ) ;
#314 = ORIENTED_EDGE ( 'NONE', *, *, #162, .T. ) ;
#315 = AXIS2_PLACEMENT_3D ( 'NONE', #275, #42, #277 ) ;
#316 = DIRECTION ( 'NONE',  ( 1.000000000000000000, 0.000000000000000000, 0.000000000000000000 ) ) ;
#317 = CARTESIAN_POINT ( 'NONE',  ( 0.000000000000000000, 0.000000000000000000, 157.0000000000000000 ) ) ;
#318 = ORIENTED_EDGE ( 'NONE', *, *, #345, .F. ) ;
#319 = MANIFOLD_SOLID_BREP ( 'Odebrat vysunutím3', #154 ) ;
#320 = DIRECTION ( 'NONE',  ( -1.000000000000000000, 0.000000000000000000, 0.000000000000000000 ) ) ;
#321 = ORIENTED_EDGE ( 'NONE', *, *, #302, .T. ) ;
#322 = CIRCLE ( 'NONE', #134, 0.7000000000000000666 ) ;
#323 = LOCAL_TIME ( 16, 39, 26.00000000000000000, #338 ) ;
#324 = VERTEX_POINT ( 'NONE', #374 ) ;
#325 = EDGE_CURVE ( 'NONE', #10, #214, #174, .T. ) ;
#326 = ORIENTED_EDGE ( 'NONE', *, *, #246, .F. ) ;
#327 = CIRCLE ( 'NONE', #315, 10.00000000000000000 ) ;
#328 = CYLINDRICAL_SURFACE ( 'NONE', #200, 4.000000000000000000 ) ;
#329 = DIRECTION ( 'NONE',  ( 1.000000000000000000, 0.000000000000000000, 0.000000000000000000 ) ) ;
#330 = VERTEX_POINT ( 'NONE', #82 ) ;
#331 = DATE_AND_TIME ( #65, #243 ) ;
#332 = PRODUCT_DEFINITION ( 'NEZNÁMÝ', '', #267, #161 ) ;
#333 = EDGE_LOOP ( 'NONE', ( #32, #13 ) ) ;
#334 = LINE ( 'NONE', #342, #90 ) ;
#335 = AXIS2_PLACEMENT_3D ( 'NONE', #294, #141, #1 ) ;
#336 = APPROVAL_DATE_TIME ( #264, #256 ) ;
#337 = CARTESIAN_POINT ( 'NONE',  ( 10.00000000000000000, 1.224646799147353256E-15, 7.000000000000000000 ) ) ;
#338 = COORDINATED_UNIVERSAL_TIME_OFFSET ( 1, 0, .AHEAD. ) ;
#339 = LINE ( 'NONE', #337, #363 ) ;
#340 = CARTESIAN_POINT ( 'NONE',  ( 10.00000000000000000, 1.224646799147353256E-15, 0.000000000000000000 ) ) ;
#341 = LOCAL_TIME ( 16, 39, 26.00000000000000000, #355 ) ;
#342 = CARTESIAN_POINT ( 'NONE',  ( -4.000000000000000000, 0.000000000000000000, 157.0000000000000000 ) ) ;
#343 = ADVANCED_FACE ( 'NONE', ( #84 ), #328, .F. ) ;
#344 = DIRECTION ( 'NONE',  ( -0.000000000000000000, -0.000000000000000000, -1.000000000000000000 ) ) ;
#345 = EDGE_CURVE ( 'NONE', #80, #324, #293, .T. ) ;
#346 = AXIS2_PLACEMENT_3D ( 'NONE', #187, #271, #303 ) ;
#347 = DIRECTION ( 'NONE',  ( 1.000000000000000000, 0.000000000000000000, 0.000000000000000000 ) ) ;
#348 = ORGANIZATION ( 'NEURÈENÝ', 'NEURÈENÝ', '' ) ;
#349 = DIRECTION ( 'NONE',  ( 1.000000000000000000, 0.000000000000000000, 0.000000000000000000 ) ) ;
#350 = ORIENTED_EDGE ( 'NONE', *, *, #369, .T. ) ;
#351 = CARTESIAN_POINT ( 'NONE',  ( 0.000000000000000000, 0.000000000000000000, 7.000000000000000000 ) ) ;
#352 = CYLINDRICAL_SURFACE ( 'NONE', #276, 6.000000000000000888 ) ;
#353 = CARTESIAN_POINT ( 'NONE',  ( -6.700000000000001066, 8.205133554287267548E-16, 7.700000000000012612 ) ) ;
#354 = DIRECTION ( 'NONE',  ( -1.000000000000000000, 1.224646799147353454E-16, 0.000000000000000000 ) ) ;
#355 = COORDINATED_UNIVERSAL_TIME_OFFSET ( 1, 0, .AHEAD. ) ;
#356 = VERTEX_POINT ( 'NONE', #379 ) ;
#357 = VECTOR ( 'NONE', #254, 1000.000000000000000 ) ;
#358 = PERSON_AND_ORGANIZATION_ROLE ( 'creator' ) ;
#359 = ORIENTED_EDGE ( 'NONE', *, *, #177, .F. ) ;
#360 = ADVANCED_FACE ( 'NONE', ( #78 ), #352, .T. ) ;
#361 = SHAPE_DEFINITION_REPRESENTATION ( #221, #110 ) ;
#362 = ORIENTED_EDGE ( 'NONE', *, *, #153, .T. ) ;
#363 = VECTOR ( 'NONE', #372, 1000.000000000000000 ) ;
#364 = CC_DESIGN_DATE_AND_TIME_ASSIGNMENT ( #331, #17, ( #332 ) ) ;
#365 = DIRECTION ( 'NONE',  ( -1.000000000000000000, 0.000000000000000000, 0.000000000000000000 ) ) ;
#366 = AXIS2_PLACEMENT_3D ( 'NONE', #163, #194, #44 ) ;
#367 = AXIS2_PLACEMENT_3D ( 'NONE', #225, #88, #179 ) ;
#368 = PERSON_AND_ORGANIZATION_ROLE ( 'classification_officer' ) ;
#369 = EDGE_CURVE ( 'NONE', #324, #80, #57, .T. ) ;
#370 = DIRECTION ( 'NONE',  ( 0.000000000000000000, -1.000000000000000000, 0.000000000000000000 ) ) ;
#371 = CARTESIAN_POINT ( 'NONE',  ( 0.000000000000000000, 0.000000000000000000, 7.700000000000012612 ) ) ;
#372 = DIRECTION ( 'NONE',  ( -0.000000000000000000, -0.000000000000000000, -1.000000000000000000 ) ) ;
#373 = ADVANCED_FACE ( 'NONE', ( #108 ), #113, .T. ) ;
#374 = CARTESIAN_POINT ( 'NONE',  ( 6.000000000000000888, 7.347880794884120722E-16, 7.700000000000012612 ) ) ;
#375 = PRODUCT_RELATED_PRODUCT_CATEGORY ( 'detail', '', ( #97 ) ) ;
#376 = EDGE_CURVE ( 'NONE', #145, #80, #285, .T. ) ;
#377 = PERSON ( 'NEURÈENÝ', 'NEURÈENÝ', 'NEURÈENÝ', ('NEURÈENÝ'), ('NEURÈENÝ'), ('NEURÈENÝ') ) ;
#378 = DIRECTION ( 'NONE',  ( 0.000000000000000000, 0.000000000000000000, 1.000000000000000000 ) ) ;
#379 = CARTESIAN_POINT ( 'NONE',  ( -4.000000000000000000, 0.000000000000000000, 157.0000000000000000 ) ) ;
#380 = LOCAL_TIME ( 16, 39, 26.00000000000000000, #184 ) ;
#381 = DIRECTION ( 'NONE',  ( -1.000000000000000000, 0.000000000000000000, 0.000000000000000000 ) ) ;
ENDSEC;
END-ISO-10303-21;
