ISO-10303-21;
HEADER;
FILE_DESCRIPTION (( 'STEP AP203' ),
    '1' );
FILE_NAME ('bb4e.STEP',
    '2022-07-08T15:38:06',
    ( '' ),
    ( '' ),
    'SwSTEP 2.0',
    'SolidWorks 2019',
    '' );
FILE_SCHEMA (( 'CONFIG_CONTROL_DESIGN' ));
ENDSEC;

DATA;
#1 = DIRECTION ( 'NONE',  ( -0.000000000000000000, -0.000000000000000000, -1.000000000000000000 ) ) ;
#2 = ORIENTED_EDGE ( 'NONE', *, *, #12, .F. ) ;
#3 = APPROVAL ( #110, 'NEURÈENÝ' ) ;
#4 = PLANE ( 'NONE',  #277 ) ;
#5 = DIRECTION ( 'NONE',  ( -1.000000000000000000, 0.000000000000000000, 0.000000000000000000 ) ) ;
#6 = AXIS2_PLACEMENT_3D ( 'NONE', #45, #234, #228 ) ;
#7 = CARTESIAN_POINT ( 'NONE',  ( 0.000000000000000000, 0.000000000000000000, 5.500000000000005329 ) ) ;
#8 = ADVANCED_BREP_SHAPE_REPRESENTATION ( 'bb4e', ( #71, #312 ), #69 ) ;
#9 = CIRCLE ( 'NONE', #226, 6.000000000000000888 ) ;
#10 = VECTOR ( 'NONE', #185, 1000.000000000000000 ) ;
#11 = ORIENTED_EDGE ( 'NONE', *, *, #222, .T. ) ;
#12 = EDGE_CURVE ( 'NONE', #311, #14, #219, .T. ) ;
#13 = DIRECTION ( 'NONE',  ( 0.000000000000000000, 0.000000000000000000, 1.000000000000000000 ) ) ;
#14 = VERTEX_POINT ( 'NONE', #241 ) ;
#15 = CARTESIAN_POINT ( 'NONE',  ( 0.000000000000000000, 0.000000000000000000, 405.0000000000000000 ) ) ;
#16 = CYLINDRICAL_SURFACE ( 'NONE', #105, 6.000000000000000888 ) ;
#17 = CIRCLE ( 'NONE', #169, 1.750000000000000000 ) ;
#18 = EDGE_CURVE ( 'NONE', #251, #146, #291, .T. ) ;
#19 = PERSON_AND_ORGANIZATION ( #196, #227 ) ;
#20 = DIRECTION ( 'NONE',  ( -1.000000000000000000, 0.000000000000000000, 0.000000000000000000 ) ) ;
#21 = ORIENTED_EDGE ( 'NONE', *, *, #374, .F. ) ;
#22 = EDGE_CURVE ( 'NONE', #251, #323, #67, .T. ) ;
#23 = FACE_OUTER_BOUND ( 'NONE', #164, .T. ) ;
#24 = ADVANCED_FACE ( 'NONE', ( #238 ), #333, .F. ) ;
#25 = CARTESIAN_POINT ( 'NONE',  ( 0.000000000000000000, 0.000000000000000000, 405.0000000000000000 ) ) ;
#26 = CIRCLE ( 'NONE', #348, 3.000000000000000444 ) ;
#27 = FACE_BOUND ( 'NONE', #56, .T. ) ;
#28 = APPROVAL_DATE_TIME ( #297, #3 ) ;
#29 = ORIENTED_EDGE ( 'NONE', *, *, #85, .F. ) ;
#30 = APPLICATION_CONTEXT ( 'configuration controlled 3d designs of mechanical parts and assemblies' ) ;
#31 = DIRECTION ( 'NONE',  ( 1.000000000000000000, 0.000000000000000000, 0.000000000000000000 ) ) ;
#32 = CARTESIAN_POINT ( 'NONE',  ( -3.500000000000000444, 4.286263797015737088E-16, 5.000000000000002665 ) ) ;
#33 = CYLINDRICAL_SURFACE ( 'NONE', #166, 3.000000000000000444 ) ;
#34 = EDGE_LOOP ( 'NONE', ( #194, #181 ) ) ;
#35 = DIRECTION ( 'NONE',  ( 1.000000000000000000, 0.000000000000000000, 0.000000000000000000 ) ) ;
#36 = ORIENTED_EDGE ( 'NONE', *, *, #232, .F. ) ;
#37 = DIRECTION ( 'NONE',  ( 0.000000000000000000, 0.000000000000000000, 1.000000000000000000 ) ) ;
#38 = AXIS2_PLACEMENT_3D ( 'NONE', #246, #114, #268 ) ;
#39 = APPROVAL_PERSON_ORGANIZATION ( #43, #210, #195 ) ;
#40 = FACE_OUTER_BOUND ( 'NONE', #214, .T. ) ;
#41 = CARTESIAN_POINT ( 'NONE',  ( 0.000000000000000000, 0.000000000000000000, 5.000000000000000000 ) ) ;
#42 = DIRECTION ( 'NONE',  ( 1.000000000000000000, 0.000000000000000000, 0.000000000000000000 ) ) ;
#43 = PERSON_AND_ORGANIZATION ( #196, #227 ) ;
#44 = DIRECTION ( 'NONE',  ( 1.000000000000000000, 0.000000000000000000, -0.000000000000000000 ) ) ;
#45 = CARTESIAN_POINT ( 'NONE',  ( 0.000000000000000000, 0.000000000000000000, 0.000000000000000000 ) ) ;
#46 = CARTESIAN_POINT ( 'NONE',  ( 0.000000000000000000, 0.000000000000000000, 405.0000000000000000 ) ) ;
#47 = CC_DESIGN_DATE_AND_TIME_ASSIGNMENT ( #361, #263, ( #180 ) ) ;
#48 = COORDINATED_UNIVERSAL_TIME_OFFSET ( 1, 0, .AHEAD. ) ;
#49 = PRODUCT_DEFINITION_SHAPE ( 'NONE', 'NONE',  #299 ) ;
#50 = CARTESIAN_POINT ( 'NONE',  ( -3.000000000000000444, 0.000000000000000000, 405.0000000000000000 ) ) ;
#51 = CIRCLE ( 'NONE', #284, 3.000000000000000444 ) ;
#52 = ORIENTED_EDGE ( 'NONE', *, *, #89, .F. ) ;
#53 = ADVANCED_FACE ( 'NONE', ( #360, #208 ), #4, .T. ) ;
#54 = AXIS2_PLACEMENT_3D ( 'NONE', #334, #144, #244 ) ;
#55 = CC_DESIGN_APPROVAL ( #3, ( #180 ) ) ;
#56 = EDGE_LOOP ( 'NONE', ( #118, #11 ) ) ;
#57 = APPROVAL_ROLE ( '' ) ;
#58 = CARTESIAN_POINT ( 'NONE',  ( 0.000000000000000000, 0.000000000000000000, 5.500000000000005329 ) ) ;
#59 = ADVANCED_FACE ( 'NONE', ( #40 ), #16, .T. ) ;
#60 = CIRCLE ( 'NONE', #117, 3.500000000000000444 ) ;
#61 = CARTESIAN_POINT ( 'NONE',  ( 3.000000000000000444, 3.673940397442060361E-16, 405.0000000000000000 ) ) ;
#62 = ORIENTED_EDGE ( 'NONE', *, *, #72, .F. ) ;
#63 = DIRECTION ( 'NONE',  ( 1.000000000000000000, 0.000000000000000000, 0.000000000000000000 ) ) ;
#64 = DIRECTION ( 'NONE',  ( -1.000000000000000000, 0.000000000000000000, 0.000000000000000000 ) ) ;
#65 = CC_DESIGN_PERSON_AND_ORGANIZATION_ASSIGNMENT ( #325, #103, ( #260 ) ) ;
#66 = DIRECTION ( 'NONE',  ( 0.000000000000000000, 0.000000000000000000, 1.000000000000000000 ) ) ;
#67 = CIRCLE ( 'NONE', #115, 0.4999999999999995559 ) ;
#68 = CARTESIAN_POINT ( 'NONE',  ( 6.000000000000000888, 7.347880794884120722E-16, 5.000000000000000000 ) ) ;
#69 =( GEOMETRIC_REPRESENTATION_CONTEXT ( 3 ) GLOBAL_UNCERTAINTY_ASSIGNED_CONTEXT ( ( #265 ) ) GLOBAL_UNIT_ASSIGNED_CONTEXT ( ( #254, #98, #158 ) ) REPRESENTATION_CONTEXT ( 'NONE', 'WORKASPACE' ) );
#70 = CARTESIAN_POINT ( 'NONE',  ( -6.000000000000000888, 0.000000000000000000, 5.000000000000000000 ) ) ;
#71 = MANIFOLD_SOLID_BREP ( 'Odebrat vysunutím3', #211 ) ;
#72 = EDGE_CURVE ( 'NONE', #127, #249, #310, .T. ) ;
#73 = DATE_TIME_ROLE ( 'creation_date' ) ;
#74 = CARTESIAN_POINT ( 'NONE',  ( 0.000000000000000000, 0.000000000000000000, 0.000000000000000000 ) ) ;
#75 = CARTESIAN_POINT ( 'NONE',  ( 1.750000000000000000, 2.143131898507868297E-16, 405.0000000000000000 ) ) ;
#76 = ADVANCED_FACE ( 'NONE', ( #153 ), #33, .T. ) ;
#77 = ORIENTED_EDGE ( 'NONE', *, *, #94, .T. ) ;
#78 = PERSON_AND_ORGANIZATION_ROLE ( 'creator' ) ;
#79 = DIRECTION ( 'NONE',  ( -0.000000000000000000, -0.000000000000000000, -1.000000000000000000 ) ) ;
#80 = ORIENTED_EDGE ( 'NONE', *, *, #317, .T. ) ;
#81 = CALENDAR_DATE ( 2022, 8, 7 ) ;
#82 = VECTOR ( 'NONE', #258, 1000.000000000000000 ) ;
#83 = PLANE ( 'NONE',  #161 ) ;
#84 = DESIGN_CONTEXT ( 'detailed design', #30, 'design' ) ;
#85 = EDGE_CURVE ( 'NONE', #186, #249, #340, .T. ) ;
#86 = DIRECTION ( 'NONE',  ( 0.000000000000000000, 0.000000000000000000, 1.000000000000000000 ) ) ;
#87 = SHAPE_DEFINITION_REPRESENTATION ( #49, #8 ) ;
#88 = CARTESIAN_POINT ( 'NONE',  ( 0.000000000000000000, 0.000000000000000000, 0.000000000000000000 ) ) ;
#89 = EDGE_CURVE ( 'NONE', #124, #237, #148, .T. ) ;
#90 = CALENDAR_DATE ( 2022, 8, 7 ) ;
#91 = ORIENTED_EDGE ( 'NONE', *, *, #304, .T. ) ;
#92 = DIRECTION ( 'NONE',  ( -0.000000000000000000, -0.000000000000000000, -1.000000000000000000 ) ) ;
#93 = AXIS2_PLACEMENT_3D ( 'NONE', #25, #86, #113 ) ;
#94 = EDGE_CURVE ( 'NONE', #255, #124, #298, .T. ) ;
#95 = CARTESIAN_POINT ( 'NONE',  ( 3.500000000000000444, 0.000000000000000000, 5.500000000000005329 ) ) ;
#96 = DIRECTION ( 'NONE',  ( 0.000000000000000000, 0.000000000000000000, 1.000000000000000000 ) ) ;
#97 = ORIENTED_EDGE ( 'NONE', *, *, #22, .F. ) ;
#98 =( NAMED_UNIT ( * ) PLANE_ANGLE_UNIT ( ) SI_UNIT ( $, .RADIAN. ) );
#99 = CARTESIAN_POINT ( 'NONE',  ( 0.000000000000000000, 0.000000000000000000, 5.500000000000005329 ) ) ;
#100 = CC_DESIGN_APPROVAL ( #183, ( #260 ) ) ;
#101 = CALENDAR_DATE ( 2022, 8, 7 ) ;
#102 = FACE_OUTER_BOUND ( 'NONE', #137, .T. ) ;
#103 = PERSON_AND_ORGANIZATION_ROLE ( 'design_supplier' ) ;
#104 = ORIENTED_EDGE ( 'NONE', *, *, #22, .T. ) ;
#105 = AXIS2_PLACEMENT_3D ( 'NONE', #315, #365, #64 ) ;
#106 = COORDINATED_UNIVERSAL_TIME_OFFSET ( 1, 0, .AHEAD. ) ;
#107 = EDGE_CURVE ( 'NONE', #255, #159, #111, .T. ) ;
#108 = EDGE_LOOP ( 'NONE', ( #188, #104, #319, #354 ) ) ;
#109 = VERTEX_POINT ( 'NONE', #350 ) ;
#110 = APPROVAL_STATUS ( 'not_yet_approved' ) ;
#111 = CIRCLE ( 'NONE', #372, 6.000000000000000888 ) ;
#112 = APPROVAL_PERSON_ORGANIZATION ( #245, #3, #57 ) ;
#113 = DIRECTION ( 'NONE',  ( 1.000000000000000000, 0.000000000000000000, 0.000000000000000000 ) ) ;
#114 = DIRECTION ( 'NONE',  ( 0.000000000000000000, 0.000000000000000000, 1.000000000000000000 ) ) ;
#115 = AXIS2_PLACEMENT_3D ( 'NONE', #248, #140, #358 ) ;
#116 = ADVANCED_FACE ( 'NONE', ( #138 ), #191, .T. ) ;
#117 = AXIS2_PLACEMENT_3D ( 'NONE', #41, #92, #63 ) ;
#118 = ORIENTED_EDGE ( 'NONE', *, *, #266, .T. ) ;
#119 = ADVANCED_FACE ( 'NONE', ( #330, #102 ), #83, .F. ) ;
#120 = CARTESIAN_POINT ( 'NONE',  ( -1.750000000000000000, 0.000000000000000000, 405.0000000000000000 ) ) ;
#121 = CARTESIAN_POINT ( 'NONE',  ( 0.000000000000000000, 0.000000000000000000, 0.000000000000000000 ) ) ;
#122 = LOCAL_TIME ( 17, 38, 6.000000000000000000, #178 ) ;
#123 = DIRECTION ( 'NONE',  ( -0.000000000000000000, -0.000000000000000000, -1.000000000000000000 ) ) ;
#124 = VERTEX_POINT ( 'NONE', #379 ) ;
#125 = DIRECTION ( 'NONE',  ( 0.000000000000000000, 0.000000000000000000, 1.000000000000000000 ) ) ;
#126 = DIRECTION ( 'NONE',  ( 1.000000000000000000, 0.000000000000000000, 0.000000000000000000 ) ) ;
#127 = VERTEX_POINT ( 'NONE', #75 ) ;
#128 = APPLICATION_PROTOCOL_DEFINITION ( 'international standard', 'config_control_design', 1994, #357 ) ;
#129 = CIRCLE ( 'NONE', #302, 1.750000000000000000 ) ;
#130 = PERSON_AND_ORGANIZATION ( #196, #227 ) ;
#131 = PRODUCT ( 'bb4e', 'bb4e', '', ( #328 ) ) ;
#132 = CC_DESIGN_PERSON_AND_ORGANIZATION_ASSIGNMENT ( #376, #163, ( #260 ) ) ;
#133 = ORIENTED_EDGE ( 'NONE', *, *, #139, .T. ) ;
#134 = DIRECTION ( 'NONE',  ( 1.000000000000000000, 0.000000000000000000, 0.000000000000000000 ) ) ;
#135 = VECTOR ( 'NONE', #281, 1000.000000000000000 ) ;
#136 = CYLINDRICAL_SURFACE ( 'NONE', #220, 1.750000000000000000 ) ;
#137 = EDGE_LOOP ( 'NONE', ( #231, #52 ) ) ;
#138 = FACE_OUTER_BOUND ( 'NONE', #217, .T. ) ;
#139 = EDGE_CURVE ( 'NONE', #109, #127, #129, .T. ) ;
#140 = DIRECTION ( 'NONE',  ( 1.224646799147353207E-16, 1.000000000000000000, -0.000000000000000000 ) ) ;
#141 = PLANE ( 'NONE',  #38 ) ;
#142 = CIRCLE ( 'NONE', #364, 3.500000000000000444 ) ;
#143 = CALENDAR_DATE ( 2022, 8, 7 ) ;
#144 = DIRECTION ( 'NONE',  ( 0.000000000000000000, 0.000000000000000000, 1.000000000000000000 ) ) ;
#145 = EDGE_CURVE ( 'NONE', #14, #251, #200, .T. ) ;
#146 = VERTEX_POINT ( 'NONE', #294 ) ;
#147 = CYLINDRICAL_SURFACE ( 'NONE', #341, 6.000000000000000888 ) ;
#148 = CIRCLE ( 'NONE', #201, 6.000000000000000888 ) ;
#149 = ADVANCED_FACE ( 'NONE', ( #23 ), #136, .F. ) ;
#150 = CARTESIAN_POINT ( 'NONE',  ( -3.000000000000000444, 0.000000000000000000, 5.500000000000005329 ) ) ;
#151 = CARTESIAN_POINT ( 'NONE',  ( 0.000000000000000000, 0.000000000000000000, 405.0000000000000000 ) ) ;
#152 = LINE ( 'NONE', #120, #10 ) ;
#153 = FACE_OUTER_BOUND ( 'NONE', #259, .T. ) ;
#154 = AXIS2_PLACEMENT_3D ( 'NONE', #326, #79, #20 ) ;
#155 = LOCAL_TIME ( 17, 38, 6.000000000000000000, #48 ) ;
#156 = ORIENTED_EDGE ( 'NONE', *, *, #190, .T. ) ;
#157 = ADVANCED_FACE ( 'NONE', ( #337 ), #147, .T. ) ;
#158 =( NAMED_UNIT ( * ) SI_UNIT ( $, .STERADIAN. ) SOLID_ANGLE_UNIT ( ) );
#159 = VERTEX_POINT ( 'NONE', #300 ) ;
#160 = COORDINATED_UNIVERSAL_TIME_OFFSET ( 1, 0, .AHEAD. ) ;
#161 = AXIS2_PLACEMENT_3D ( 'NONE', #261, #225, #44 ) ;
#162 = ADVANCED_FACE ( 'NONE', ( #27, #209 ), #141, .T. ) ;
#163 = PERSON_AND_ORGANIZATION_ROLE ( 'creator' ) ;
#164 = EDGE_LOOP ( 'NONE', ( #133, #313, #156, #21 ) ) ;
#165 = DIRECTION ( 'NONE',  ( 0.000000000000000000, 0.000000000000000000, 1.000000000000000000 ) ) ;
#166 = AXIS2_PLACEMENT_3D ( 'NONE', #151, #123, #218 ) ;
#167 = EDGE_LOOP ( 'NONE', ( #29, #296 ) ) ;
#168 = DIRECTION ( 'NONE',  ( -0.000000000000000000, -0.000000000000000000, -1.000000000000000000 ) ) ;
#169 = AXIS2_PLACEMENT_3D ( 'NONE', #88, #1, #31 ) ;
#170 = ORIENTED_EDGE ( 'NONE', *, *, #18, .T. ) ;
#171 = LOCAL_TIME ( 17, 38, 6.000000000000000000, #199 ) ;
#172 = ORIENTED_EDGE ( 'NONE', *, *, #85, .T. ) ;
#173 = DIRECTION ( 'NONE',  ( 0.000000000000000000, 0.000000000000000000, -1.000000000000000000 ) ) ;
#174 = DIRECTION ( 'NONE',  ( -0.000000000000000000, -0.000000000000000000, -1.000000000000000000 ) ) ;
#175 = TOROIDAL_SURFACE ( 'NONE', #322, 3.500000000000000444, 0.5000000000000000000 ) ;
#176 = ADVANCED_FACE ( 'NONE', ( #212 ), #175, .F. ) ;
#177 = AXIS2_PLACEMENT_3D ( 'NONE', #7, #66, #256 ) ;
#178 = COORDINATED_UNIVERSAL_TIME_OFFSET ( 1, 0, .AHEAD. ) ;
#179 = DIRECTION ( 'NONE',  ( 0.000000000000000000, 0.000000000000000000, 1.000000000000000000 ) ) ;
#180 = SECURITY_CLASSIFICATION ( '', '', #288 ) ;
#181 = ORIENTED_EDGE ( 'NONE', *, *, #107, .T. ) ;
#182 = LINE ( 'NONE', #70, #135 ) ;
#183 = APPROVAL ( #346, 'NEURÈENÝ' ) ;
#184 = VERTEX_POINT ( 'NONE', #303 ) ;
#185 = DIRECTION ( 'NONE',  ( 0.000000000000000000, 0.000000000000000000, -1.000000000000000000 ) ) ;
#186 = VERTEX_POINT ( 'NONE', #362 ) ;
#187 = CARTESIAN_POINT ( 'NONE',  ( 0.000000000000000000, 0.000000000000000000, 405.0000000000000000 ) ) ;
#188 = ORIENTED_EDGE ( 'NONE', *, *, #18, .F. ) ;
#189 = DATE_AND_TIME ( #224, #155 ) ;
#190 = EDGE_CURVE ( 'NONE', #249, #186, #17, .T. ) ;
#191 = CYLINDRICAL_SURFACE ( 'NONE', #154, 3.000000000000000444 ) ;
#192 = VECTOR ( 'NONE', #370, 1000.000000000000000 ) ;
#193 = DIRECTION ( 'NONE',  ( 1.000000000000000000, 0.000000000000000000, 0.000000000000000000 ) ) ;
#194 = ORIENTED_EDGE ( 'NONE', *, *, #338, .T. ) ;
#195 = APPROVAL_ROLE ( '' ) ;
#196 = PERSON ( 'NEURÈENÝ', 'NEURÈENÝ', 'NEURÈENÝ', ('NEURÈENÝ'), ('NEURÈENÝ'), ('NEURÈENÝ') ) ;
#197 = DIRECTION ( 'NONE',  ( 0.000000000000000000, 0.000000000000000000, 1.000000000000000000 ) ) ;
#198 = ORIENTED_EDGE ( 'NONE', *, *, #304, .F. ) ;
#199 = COORDINATED_UNIVERSAL_TIME_OFFSET ( 1, 0, .AHEAD. ) ;
#200 = LINE ( 'NONE', #50, #206 ) ;
#201 = AXIS2_PLACEMENT_3D ( 'NONE', #321, #197, #193 ) ;
#202 = EDGE_CURVE ( 'NONE', #127, #109, #213, .T. ) ;
#203 = ORIENTED_EDGE ( 'NONE', *, *, #94, .F. ) ;
#204 = DATE_AND_TIME ( #81, #324 ) ;
#205 = DIRECTION ( 'NONE',  ( -1.000000000000000000, 0.000000000000000000, 0.000000000000000000 ) ) ;
#206 = VECTOR ( 'NONE', #168, 1000.000000000000000 ) ;
#207 = ORIENTED_EDGE ( 'NONE', *, *, #338, .F. ) ;
#208 = FACE_OUTER_BOUND ( 'NONE', #235, .T. ) ;
#209 = FACE_OUTER_BOUND ( 'NONE', #34, .T. ) ;
#210 = APPROVAL ( #352, 'NEURÈENÝ' ) ;
#211 = CLOSED_SHELL ( 'NONE', ( #149, #176, #116, #157, #59, #162, #119, #76, #53, #347, #24 ) ) ;
#212 = FACE_OUTER_BOUND ( 'NONE', #108, .T. ) ;
#213 = CIRCLE ( 'NONE', #236, 1.750000000000000000 ) ;
#214 = EDGE_LOOP ( 'NONE', ( #203, #207, #373, #80 ) ) ;
#215 = DIRECTION ( 'NONE',  ( 1.000000000000000000, 0.000000000000000000, 0.000000000000000000 ) ) ;
#216 = CIRCLE ( 'NONE', #285, 0.5000000000000004441 ) ;
#217 = EDGE_LOOP ( 'NONE', ( #2, #91, #278, #332 ) ) ;
#218 = DIRECTION ( 'NONE',  ( -1.000000000000000000, 0.000000000000000000, 0.000000000000000000 ) ) ;
#219 = CIRCLE ( 'NONE', #93, 3.000000000000000444 ) ;
#220 = AXIS2_PLACEMENT_3D ( 'NONE', #262, #381, #205 ) ;
#221 = CARTESIAN_POINT ( 'NONE',  ( 0.000000000000000000, 0.000000000000000000, 5.000000000000000000 ) ) ;
#222 = EDGE_CURVE ( 'NONE', #323, #184, #60, .T. ) ;
#223 = ORIENTED_EDGE ( 'NONE', *, *, #107, .F. ) ;
#224 = CALENDAR_DATE ( 2022, 8, 7 ) ;
#225 = DIRECTION ( 'NONE',  ( 0.000000000000000000, 0.000000000000000000, 1.000000000000000000 ) ) ;
#226 = AXIS2_PLACEMENT_3D ( 'NONE', #121, #125, #42 ) ;
#227 = ORGANIZATION ( 'NEURÈENÝ', 'NEURÈENÝ', '' ) ;
#228 = DIRECTION ( 'NONE',  ( 1.000000000000000000, 0.000000000000000000, 0.000000000000000000 ) ) ;
#229 = ORIENTED_EDGE ( 'NONE', *, *, #374, .T. ) ;
#230 = APPLICATION_PROTOCOL_DEFINITION ( 'international standard', 'config_control_design', 1994, #30 ) ;
#231 = ORIENTED_EDGE ( 'NONE', *, *, #317, .F. ) ;
#232 = EDGE_CURVE ( 'NONE', #159, #237, #182, .T. ) ;
#233 = PERSON_AND_ORGANIZATION_ROLE ( 'design_owner' ) ;
#234 = DIRECTION ( 'NONE',  ( -0.000000000000000000, -0.000000000000000000, -1.000000000000000000 ) ) ;
#235 = EDGE_LOOP ( 'NONE', ( #345, #366 ) ) ;
#236 = AXIS2_PLACEMENT_3D ( 'NONE', #15, #37, #252 ) ;
#237 = VERTEX_POINT ( 'NONE', #306 ) ;
#238 = FACE_OUTER_BOUND ( 'NONE', #305, .T. ) ;
#239 = EDGE_CURVE ( 'NONE', #146, #251, #51, .T. ) ;
#240 = CARTESIAN_POINT ( 'NONE',  ( 0.000000000000000000, 0.000000000000000000, 405.0000000000000000 ) ) ;
#241 = CARTESIAN_POINT ( 'NONE',  ( -3.000000000000000444, 0.000000000000000000, 405.0000000000000000 ) ) ;
#242 = VECTOR ( 'NONE', #307, 1000.000000000000000 ) ;
#243 = TOROIDAL_SURFACE ( 'NONE', #177, 3.500000000000000444, 0.5000000000000000000 ) ;
#244 = DIRECTION ( 'NONE',  ( 1.000000000000000000, 0.000000000000000000, 0.000000000000000000 ) ) ;
#245 = PERSON_AND_ORGANIZATION ( #196, #227 ) ;
#246 = CARTESIAN_POINT ( 'NONE',  ( 0.000000000000000000, 0.000000000000000000, 5.000000000000000000 ) ) ;
#247 = CC_DESIGN_PERSON_AND_ORGANIZATION_ASSIGNMENT ( #282, #78, ( #299 ) ) ;
#248 = CARTESIAN_POINT ( 'NONE',  ( -3.500000000000000444, 4.286263797015737088E-16, 5.500000000000005329 ) ) ;
#249 = VERTEX_POINT ( 'NONE', #276 ) ;
#250 = DIRECTION ( 'NONE',  ( -0.000000000000000000, -0.000000000000000000, -1.000000000000000000 ) ) ;
#251 = VERTEX_POINT ( 'NONE', #150 ) ;
#252 = DIRECTION ( 'NONE',  ( 1.000000000000000000, 0.000000000000000000, 0.000000000000000000 ) ) ;
#253 = CC_DESIGN_APPROVAL ( #210, ( #299 ) ) ;
#254 =( LENGTH_UNIT ( ) NAMED_UNIT ( * ) SI_UNIT ( .MILLI., .METRE. ) );
#255 = VERTEX_POINT ( 'NONE', #68 ) ;
#256 = DIRECTION ( 'NONE',  ( 1.000000000000000000, 0.000000000000000000, 0.000000000000000000 ) ) ;
#257 = PERSON_AND_ORGANIZATION ( #196, #227 ) ;
#258 = DIRECTION ( 'NONE',  ( -0.000000000000000000, -0.000000000000000000, -1.000000000000000000 ) ) ;
#259 = EDGE_LOOP ( 'NONE', ( #198, #267, #355, #170 ) ) ;
#260 = PRODUCT_DEFINITION_FORMATION_WITH_SPECIFIED_SOURCE ( 'LIBOVOLNÝ', '', #131, .NOT_KNOWN. ) ;
#261 = CARTESIAN_POINT ( 'NONE',  ( 0.000000000000000000, 0.000000000000000000, 0.000000000000000000 ) ) ;
#262 = CARTESIAN_POINT ( 'NONE',  ( 0.000000000000000000, 0.000000000000000000, 405.0000000000000000 ) ) ;
#263 = DATE_TIME_ROLE ( 'classification_date' ) ;
#264 = CARTESIAN_POINT ( 'NONE',  ( 0.000000000000000000, 0.000000000000000000, 5.000000000000000000 ) ) ;
#265 = UNCERTAINTY_MEASURE_WITH_UNIT (LENGTH_MEASURE( 1.000000000000000082E-05 ), #254, 'distance_accuracy_value', 'NONE');
#266 = EDGE_CURVE ( 'NONE', #184, #323, #142, .T. ) ;
#267 = ORIENTED_EDGE ( 'NONE', *, *, #308, .F. ) ;
#268 = DIRECTION ( 'NONE',  ( 1.000000000000000000, 0.000000000000000000, -0.000000000000000000 ) ) ;
#269 = AXIS2_PLACEMENT_3D ( 'NONE', #318, #13, #35 ) ;
#270 = CARTESIAN_POINT ( 'NONE',  ( 0.000000000000000000, 0.000000000000000000, 405.0000000000000000 ) ) ;
#271 = DIRECTION ( 'NONE',  ( 1.000000000000000000, 0.000000000000000000, 0.000000000000000000 ) ) ;
#272 = CC_DESIGN_PERSON_AND_ORGANIZATION_ASSIGNMENT ( #19, #378, ( #180 ) ) ;
#273 = DIRECTION ( 'NONE',  ( 1.000000000000000000, 0.000000000000000000, 0.000000000000000000 ) ) ;
#274 = CC_DESIGN_PERSON_AND_ORGANIZATION_ASSIGNMENT ( #130, #233, ( #131 ) ) ;
#275 = ORIENTED_EDGE ( 'NONE', *, *, #202, .F. ) ;
#276 = CARTESIAN_POINT ( 'NONE',  ( 1.750000000000000000, 2.143131898507868297E-16, 0.000000000000000000 ) ) ;
#277 = AXIS2_PLACEMENT_3D ( 'NONE', #240, #96, #368 ) ;
#278 = ORIENTED_EDGE ( 'NONE', *, *, #239, .T. ) ;
#279 = DIRECTION ( 'NONE',  ( 0.000000000000000000, 0.000000000000000000, 1.000000000000000000 ) ) ;
#280 = EDGE_LOOP ( 'NONE', ( #97, #295, #351, #369 ) ) ;
#281 = DIRECTION ( 'NONE',  ( -0.000000000000000000, -0.000000000000000000, -1.000000000000000000 ) ) ;
#282 = PERSON_AND_ORGANIZATION ( #196, #227 ) ;
#283 = AXIS2_PLACEMENT_3D ( 'NONE', #270, #173, #301 ) ;
#284 = AXIS2_PLACEMENT_3D ( 'NONE', #99, #363, #126 ) ;
#285 = AXIS2_PLACEMENT_3D ( 'NONE', #95, #339, #367 ) ;
#286 = DATE_AND_TIME ( #101, #171 ) ;
#287 = DIRECTION ( 'NONE',  ( 0.000000000000000000, 0.000000000000000000, 1.000000000000000000 ) ) ;
#288 = SECURITY_CLASSIFICATION_LEVEL ( 'unclassified' ) ;
#289 = DIRECTION ( 'NONE',  ( 1.000000000000000000, 0.000000000000000000, 0.000000000000000000 ) ) ;
#290 = DIRECTION ( 'NONE',  ( 1.000000000000000000, 0.000000000000000000, 0.000000000000000000 ) ) ;
#291 = CIRCLE ( 'NONE', #54, 3.000000000000000444 ) ;
#292 = ORIENTED_EDGE ( 'NONE', *, *, #89, .T. ) ;
#293 = CC_DESIGN_SECURITY_CLASSIFICATION ( #180, ( #260 ) ) ;
#294 = CARTESIAN_POINT ( 'NONE',  ( 3.000000000000000444, 3.673940397442060361E-16, 5.500000000000005329 ) ) ;
#295 = ORIENTED_EDGE ( 'NONE', *, *, #239, .F. ) ;
#296 = ORIENTED_EDGE ( 'NONE', *, *, #190, .F. ) ;
#297 = DATE_AND_TIME ( #90, #122 ) ;
#298 = LINE ( 'NONE', #353, #82 ) ;
#299 = PRODUCT_DEFINITION ( 'NEZNÁMÝ', '', #260, #84 ) ;
#300 = CARTESIAN_POINT ( 'NONE',  ( -6.000000000000000888, 0.000000000000000000, 5.000000000000000000 ) ) ;
#301 = DIRECTION ( 'NONE',  ( -1.000000000000000000, 0.000000000000000000, 0.000000000000000000 ) ) ;
#302 = AXIS2_PLACEMENT_3D ( 'NONE', #46, #165, #290 ) ;
#303 = CARTESIAN_POINT ( 'NONE',  ( 3.500000000000000444, 0.000000000000000000, 5.000000000000002665 ) ) ;
#304 = EDGE_CURVE ( 'NONE', #311, #146, #344, .T. ) ;
#305 = EDGE_LOOP ( 'NONE', ( #62, #316, #229, #172 ) ) ;
#306 = CARTESIAN_POINT ( 'NONE',  ( -6.000000000000000888, 0.000000000000000000, 0.000000000000000000 ) ) ;
#307 = DIRECTION ( 'NONE',  ( 0.000000000000000000, 0.000000000000000000, -1.000000000000000000 ) ) ;
#308 = EDGE_CURVE ( 'NONE', #14, #311, #26, .T. ) ;
#309 = FACE_OUTER_BOUND ( 'NONE', #280, .T. ) ;
#310 = LINE ( 'NONE', #371, #242 ) ;
#311 = VERTEX_POINT ( 'NONE', #61 ) ;
#312 = AXIS2_PLACEMENT_3D ( 'NONE', #74, #380, #289 ) ;
#313 = ORIENTED_EDGE ( 'NONE', *, *, #72, .T. ) ;
#314 = CARTESIAN_POINT ( 'NONE',  ( 3.000000000000000444, 3.673940397442060361E-16, 405.0000000000000000 ) ) ;
#315 = CARTESIAN_POINT ( 'NONE',  ( 0.000000000000000000, 0.000000000000000000, 5.000000000000000000 ) ) ;
#316 = ORIENTED_EDGE ( 'NONE', *, *, #202, .T. ) ;
#317 = EDGE_CURVE ( 'NONE', #237, #124, #9, .T. ) ;
#318 = CARTESIAN_POINT ( 'NONE',  ( 0.000000000000000000, 0.000000000000000000, 5.000000000000000000 ) ) ;
#319 = ORIENTED_EDGE ( 'NONE', *, *, #266, .F. ) ;
#320 = APPROVAL_DATE_TIME ( #189, #183 ) ;
#321 = CARTESIAN_POINT ( 'NONE',  ( 0.000000000000000000, 0.000000000000000000, 0.000000000000000000 ) ) ;
#322 = AXIS2_PLACEMENT_3D ( 'NONE', #58, #179, #271 ) ;
#323 = VERTEX_POINT ( 'NONE', #32 ) ;
#324 = LOCAL_TIME ( 17, 38, 6.000000000000000000, #160 ) ;
#325 = PERSON_AND_ORGANIZATION ( #196, #227 ) ;
#326 = CARTESIAN_POINT ( 'NONE',  ( 0.000000000000000000, 0.000000000000000000, 405.0000000000000000 ) ) ;
#327 = PRODUCT_RELATED_PRODUCT_CATEGORY ( 'detail', '', ( #131 ) ) ;
#328 = MECHANICAL_CONTEXT ( 'NONE', #357, 'mechanical' ) ;
#329 = APPROVAL_ROLE ( '' ) ;
#330 = FACE_BOUND ( 'NONE', #167, .T. ) ;
#331 = CARTESIAN_POINT ( 'NONE',  ( 0.000000000000000000, 0.000000000000000000, 5.000000000000000000 ) ) ;
#332 = ORIENTED_EDGE ( 'NONE', *, *, #145, .F. ) ;
#333 = CYLINDRICAL_SURFACE ( 'NONE', #283, 1.750000000000000000 ) ;
#334 = CARTESIAN_POINT ( 'NONE',  ( 0.000000000000000000, 0.000000000000000000, 5.500000000000005329 ) ) ;
#335 = CIRCLE ( 'NONE', #269, 6.000000000000000888 ) ;
#336 = EDGE_CURVE ( 'NONE', #146, #184, #216, .T. ) ;
#337 = FACE_OUTER_BOUND ( 'NONE', #375, .T. ) ;
#338 = EDGE_CURVE ( 'NONE', #159, #255, #335, .T. ) ;
#339 = DIRECTION ( 'NONE',  ( 0.000000000000000000, -1.000000000000000000, 0.000000000000000000 ) ) ;
#340 = CIRCLE ( 'NONE', #6, 1.750000000000000000 ) ;
#341 = AXIS2_PLACEMENT_3D ( 'NONE', #331, #174, #5 ) ;
#342 = APPROVAL_PERSON_ORGANIZATION ( #257, #183, #329 ) ;
#343 = CC_DESIGN_DATE_AND_TIME_ASSIGNMENT ( #286, #73, ( #299 ) ) ;
#344 = LINE ( 'NONE', #314, #192 ) ;
#345 = ORIENTED_EDGE ( 'NONE', *, *, #308, .T. ) ;
#346 = APPROVAL_STATUS ( 'not_yet_approved' ) ;
#347 = ADVANCED_FACE ( 'NONE', ( #309 ), #243, .F. ) ;
#348 = AXIS2_PLACEMENT_3D ( 'NONE', #187, #279, #273 ) ;
#349 = APPROVAL_DATE_TIME ( #204, #210 ) ;
#350 = CARTESIAN_POINT ( 'NONE',  ( -1.750000000000000000, 0.000000000000000000, 405.0000000000000000 ) ) ;
#351 = ORIENTED_EDGE ( 'NONE', *, *, #336, .T. ) ;
#352 = APPROVAL_STATUS ( 'not_yet_approved' ) ;
#353 = CARTESIAN_POINT ( 'NONE',  ( 6.000000000000000888, 7.347880794884120722E-16, 5.000000000000000000 ) ) ;
#354 = ORIENTED_EDGE ( 'NONE', *, *, #336, .F. ) ;
#355 = ORIENTED_EDGE ( 'NONE', *, *, #145, .T. ) ;
#356 = ORIENTED_EDGE ( 'NONE', *, *, #139, .F. ) ;
#357 = APPLICATION_CONTEXT ( 'configuration controlled 3d designs of mechanical parts and assemblies' ) ;
#358 = DIRECTION ( 'NONE',  ( -1.000000000000000000, 1.224646799147354440E-16, 0.000000000000000000 ) ) ;
#359 = LOCAL_TIME ( 17, 38, 6.000000000000000000, #106 ) ;
#360 = FACE_BOUND ( 'NONE', #377, .T. ) ;
#361 = DATE_AND_TIME ( #143, #359 ) ;
#362 = CARTESIAN_POINT ( 'NONE',  ( -1.750000000000000000, 0.000000000000000000, 0.000000000000000000 ) ) ;
#363 = DIRECTION ( 'NONE',  ( 0.000000000000000000, 0.000000000000000000, 1.000000000000000000 ) ) ;
#364 = AXIS2_PLACEMENT_3D ( 'NONE', #221, #250, #215 ) ;
#365 = DIRECTION ( 'NONE',  ( -0.000000000000000000, -0.000000000000000000, -1.000000000000000000 ) ) ;
#366 = ORIENTED_EDGE ( 'NONE', *, *, #12, .T. ) ;
#367 = DIRECTION ( 'NONE',  ( 0.000000000000000000, 0.000000000000000000, -1.000000000000000000 ) ) ;
#368 = DIRECTION ( 'NONE',  ( 1.000000000000000000, 0.000000000000000000, -0.000000000000000000 ) ) ;
#369 = ORIENTED_EDGE ( 'NONE', *, *, #222, .F. ) ;
#370 = DIRECTION ( 'NONE',  ( -0.000000000000000000, -0.000000000000000000, -1.000000000000000000 ) ) ;
#371 = CARTESIAN_POINT ( 'NONE',  ( 1.750000000000000000, 2.143131898507868297E-16, 405.0000000000000000 ) ) ;
#372 = AXIS2_PLACEMENT_3D ( 'NONE', #264, #287, #134 ) ;
#373 = ORIENTED_EDGE ( 'NONE', *, *, #232, .T. ) ;
#374 = EDGE_CURVE ( 'NONE', #109, #186, #152, .T. ) ;
#375 = EDGE_LOOP ( 'NONE', ( #223, #77, #292, #36 ) ) ;
#376 = PERSON_AND_ORGANIZATION ( #196, #227 ) ;
#377 = EDGE_LOOP ( 'NONE', ( #356, #275 ) ) ;
#378 = PERSON_AND_ORGANIZATION_ROLE ( 'classification_officer' ) ;
#379 = CARTESIAN_POINT ( 'NONE',  ( 6.000000000000000888, 7.347880794884120722E-16, 0.000000000000000000 ) ) ;
#380 = DIRECTION ( 'NONE',  ( 0.000000000000000000, 0.000000000000000000, 1.000000000000000000 ) ) ;
#381 = DIRECTION ( 'NONE',  ( 0.000000000000000000, 0.000000000000000000, -1.000000000000000000 ) ) ;
ENDSEC;
END-ISO-10303-21;
