ISO-10303-21;
HEADER;
FILE_DESCRIPTION (( 'STEP AP203' ),
    '1' );
FILE_NAME ('4812.STEP',
    '2022-07-08T15:14:34',
    ( '' ),
    ( '' ),
    'SwSTEP 2.0',
    'SolidWorks 2019',
    '' );
FILE_SCHEMA (( 'CONFIG_CONTROL_DESIGN' ));
ENDSEC;

DATA;
#1 = CARTESIAN_POINT ( 'NONE',  ( 0.000000000000000000, 0.000000000000000000, 755.0000000000000000 ) ) ;
#2 = ADVANCED_FACE ( 'NONE', ( #146, #263 ), #205, .T. ) ;
#3 = CC_DESIGN_APPROVAL ( #305, ( #259 ) ) ;
#4 = EDGE_CURVE ( 'NONE', #31, #268, #96, .T. ) ;
#5 = DIRECTION ( 'NONE',  ( 1.000000000000000000, 0.000000000000000000, 0.000000000000000000 ) ) ;
#6 = DIRECTION ( 'NONE',  ( 0.000000000000000000, 0.000000000000000000, 1.000000000000000000 ) ) ;
#7 = CARTESIAN_POINT ( 'NONE',  ( 0.000000000000000000, 0.000000000000000000, 5.000000000000000000 ) ) ;
#8 = LINE ( 'NONE', #362, #9 ) ;
#9 = VECTOR ( 'NONE', #322, 1000.000000000000000 ) ;
#10 = FACE_OUTER_BOUND ( 'NONE', #307, .T. ) ;
#11 = PERSON_AND_ORGANIZATION_ROLE ( 'classification_officer' ) ;
#12 = EDGE_LOOP ( 'NONE', ( #73, #152, #41, #214 ) ) ;
#13 = DIRECTION ( 'NONE',  ( -0.000000000000000000, -0.000000000000000000, -1.000000000000000000 ) ) ;
#14 = CALENDAR_DATE ( 2022, 8, 7 ) ;
#15 = CARTESIAN_POINT ( 'NONE',  ( -5.000000000000000000, 0.000000000000000000, 755.0000000000000000 ) ) ;
#16 = ORIENTED_EDGE ( 'NONE', *, *, #371, .F. ) ;
#17 = CARTESIAN_POINT ( 'NONE',  ( 0.000000000000000000, 0.000000000000000000, 5.499999999999949374 ) ) ;
#18 = CIRCLE ( 'NONE', #50, 2.500000000000000000 ) ;
#19 = MECHANICAL_CONTEXT ( 'NONE', #321, 'mechanical' ) ;
#20 = EDGE_CURVE ( 'NONE', #71, #101, #165, .T. ) ;
#21 = EDGE_LOOP ( 'NONE', ( #212, #253 ) ) ;
#22 = PLANE ( 'NONE',  #89 ) ;
#23 = DIRECTION ( 'NONE',  ( 0.000000000000000000, 0.000000000000000000, -1.000000000000000000 ) ) ;
#24 = EDGE_CURVE ( 'NONE', #121, #186, #210, .T. ) ;
#25 = COORDINATED_UNIVERSAL_TIME_OFFSET ( 1, 0, .AHEAD. ) ;
#26 = CARTESIAN_POINT ( 'NONE',  ( 0.000000000000000000, 0.000000000000000000, 0.000000000000000000 ) ) ;
#27 = DIRECTION ( 'NONE',  ( -0.000000000000000000, -0.000000000000000000, -1.000000000000000000 ) ) ;
#28 = AXIS2_PLACEMENT_3D ( 'NONE', #314, #51, #159 ) ;
#29 = VECTOR ( 'NONE', #91, 1000.000000000000000 ) ;
#30 = LINE ( 'NONE', #290, #29 ) ;
#31 = VERTEX_POINT ( 'NONE', #36 ) ;
#32 = AXIS2_PLACEMENT_3D ( 'NONE', #1, #123, #231 ) ;
#33 = CC_DESIGN_DATE_AND_TIME_ASSIGNMENT ( #330, #232, ( #256 ) ) ;
#34 = SECURITY_CLASSIFICATION_LEVEL ( 'unclassified' ) ;
#35 = CYLINDRICAL_SURFACE ( 'NONE', #147, 5.000000000000000000 ) ;
#36 = CARTESIAN_POINT ( 'NONE',  ( -5.500000000000000000, 6.735557395310442023E-16, 4.999999999999975131 ) ) ;
#37 = DIRECTION ( 'NONE',  ( 1.000000000000000000, 0.000000000000000000, 0.000000000000000000 ) ) ;
#38 = ORIENTED_EDGE ( 'NONE', *, *, #375, .T. ) ;
#39 = DIRECTION ( 'NONE',  ( 1.000000000000000000, 0.000000000000000000, 0.000000000000000000 ) ) ;
#40 = DATE_AND_TIME ( #301, #79 ) ;
#41 = ORIENTED_EDGE ( 'NONE', *, *, #83, .T. ) ;
#42 = CARTESIAN_POINT ( 'NONE',  ( -8.000000000000000000, 0.000000000000000000, 0.000000000000000000 ) ) ;
#43 = DATE_AND_TIME ( #137, #113 ) ;
#44 = EDGE_CURVE ( 'NONE', #148, #203, #177, .T. ) ;
#45 = PERSON_AND_ORGANIZATION ( #370, #269 ) ;
#46 = AXIS2_PLACEMENT_3D ( 'NONE', #169, #357, #358 ) ;
#47 = ORIENTED_EDGE ( 'NONE', *, *, #366, .T. ) ;
#48 = CARTESIAN_POINT ( 'NONE',  ( 8.000000000000000000, 9.797174393178825657E-16, 5.000000000000000000 ) ) ;
#49 = VECTOR ( 'NONE', #23, 1000.000000000000000 ) ;
#50 = AXIS2_PLACEMENT_3D ( 'NONE', #191, #27, #117 ) ;
#51 = DIRECTION ( 'NONE',  ( -0.000000000000000000, -0.000000000000000000, -1.000000000000000000 ) ) ;
#52 = VERTEX_POINT ( 'NONE', #236 ) ;
#53 = EDGE_CURVE ( 'NONE', #157, #78, #320, .T. ) ;
#54 = CARTESIAN_POINT ( 'NONE',  ( 0.000000000000000000, 0.000000000000000000, 5.499999999999949374 ) ) ;
#55 = TOROIDAL_SURFACE ( 'NONE', #130, 5.500000000000000000, 0.5000000000000000000 ) ;
#56 = CARTESIAN_POINT ( 'NONE',  ( 2.500000000000000000, 3.061616997868383141E-16, 0.000000000000000000 ) ) ;
#57 = DATE_AND_TIME ( #224, #312 ) ;
#58 = DIRECTION ( 'NONE',  ( -1.000000000000000000, 0.000000000000000000, 0.000000000000000000 ) ) ;
#59 = ORIENTED_EDGE ( 'NONE', *, *, #83, .F. ) ;
#60 = CYLINDRICAL_SURFACE ( 'NONE', #276, 5.000000000000000000 ) ;
#61 = ADVANCED_FACE ( 'NONE', ( #200 ), #35, .T. ) ;
#62 = ORIENTED_EDGE ( 'NONE', *, *, #24, .T. ) ;
#63 = CARTESIAN_POINT ( 'NONE',  ( 0.000000000000000000, 0.000000000000000000, 0.000000000000000000 ) ) ;
#64 = CARTESIAN_POINT ( 'NONE',  ( 8.000000000000000000, 9.797174393178825657E-16, 0.000000000000000000 ) ) ;
#65 = AXIS2_PLACEMENT_3D ( 'NONE', #235, #298, #196 ) ;
#66 =( NAMED_UNIT ( * ) PLANE_ANGLE_UNIT ( ) SI_UNIT ( $, .RADIAN. ) );
#67 = DIRECTION ( 'NONE',  ( 0.000000000000000000, 0.000000000000000000, -1.000000000000000000 ) ) ;
#68 = PERSON_AND_ORGANIZATION_ROLE ( 'creator' ) ;
#69 = ORIENTED_EDGE ( 'NONE', *, *, #127, .T. ) ;
#70 = CARTESIAN_POINT ( 'NONE',  ( -8.000000000000000000, 0.000000000000000000, 5.000000000000000000 ) ) ;
#71 = VERTEX_POINT ( 'NONE', #64 ) ;
#72 = AXIS2_PLACEMENT_3D ( 'NONE', #86, #114, #144 ) ;
#73 = ORIENTED_EDGE ( 'NONE', *, *, #127, .F. ) ;
#74 = DIRECTION ( 'NONE',  ( 1.000000000000000000, 0.000000000000000000, 0.000000000000000000 ) ) ;
#75 = PRODUCT_RELATED_PRODUCT_CATEGORY ( 'detail', '', ( #81 ) ) ;
#76 = ORIENTED_EDGE ( 'NONE', *, *, #116, .T. ) ;
#77 = CARTESIAN_POINT ( 'NONE',  ( -5.500000000000000000, 6.735557395310442023E-16, 5.499999999999949374 ) ) ;
#78 = VERTEX_POINT ( 'NONE', #266 ) ;
#79 = LOCAL_TIME ( 17, 14, 34.00000000000000000, #299 ) ;
#80 = ORIENTED_EDGE ( 'NONE', *, *, #181, .T. ) ;
#81 = PRODUCT ( '4812', '4812', '', ( #19 ) ) ;
#82 = LINE ( 'NONE', #257, #49 ) ;
#83 = EDGE_CURVE ( 'NONE', #186, #268, #195, .T. ) ;
#84 = CIRCLE ( 'NONE', #97, 0.5000000000000004441 ) ;
#85 = LOCAL_TIME ( 17, 14, 34.00000000000000000, #334 ) ;
#86 = CARTESIAN_POINT ( 'NONE',  ( 0.000000000000000000, 0.000000000000000000, 5.000000000000000000 ) ) ;
#87 = EDGE_CURVE ( 'NONE', #138, #71, #8, .T. ) ;
#88 = CARTESIAN_POINT ( 'NONE',  ( 0.000000000000000000, 0.000000000000000000, 755.0000000000000000 ) ) ;
#89 = AXIS2_PLACEMENT_3D ( 'NONE', #108, #209, #340 ) ;
#90 = ADVANCED_FACE ( 'NONE', ( #167 ), #373, .F. ) ;
#91 = DIRECTION ( 'NONE',  ( -0.000000000000000000, -0.000000000000000000, -1.000000000000000000 ) ) ;
#92 = DIRECTION ( 'NONE',  ( -0.000000000000000000, -0.000000000000000000, -1.000000000000000000 ) ) ;
#93 = DIRECTION ( 'NONE',  ( -0.000000000000000000, -0.000000000000000000, -1.000000000000000000 ) ) ;
#94 = SHAPE_DEFINITION_REPRESENTATION ( #376, #353 ) ;
#95 = FACE_OUTER_BOUND ( 'NONE', #182, .T. ) ;
#96 = CIRCLE ( 'NONE', #289, 5.500000000000000000 ) ;
#97 = AXIS2_PLACEMENT_3D ( 'NONE', #77, #183, #368 ) ;
#98 = AXIS2_PLACEMENT_3D ( 'NONE', #213, #310, #39 ) ;
#99 = CIRCLE ( 'NONE', #136, 5.000000000000000000 ) ;
#100 = CARTESIAN_POINT ( 'NONE',  ( 0.000000000000000000, 0.000000000000000000, 755.0000000000000000 ) ) ;
#101 = VERTEX_POINT ( 'NONE', #42 ) ;
#102 = DIRECTION ( 'NONE',  ( -0.000000000000000000, -0.000000000000000000, -1.000000000000000000 ) ) ;
#103 = VECTOR ( 'NONE', #308, 1000.000000000000000 ) ;
#104 = CC_DESIGN_PERSON_AND_ORGANIZATION_ASSIGNMENT ( #355, #261, ( #379 ) ) ;
#105 = ORIENTED_EDGE ( 'NONE', *, *, #4, .T. ) ;
#106 = APPROVAL_STATUS ( 'not_yet_approved' ) ;
#107 = ORIENTED_EDGE ( 'NONE', *, *, #375, .F. ) ;
#108 = CARTESIAN_POINT ( 'NONE',  ( 0.000000000000000000, 0.000000000000000000, 5.000000000000000000 ) ) ;
#109 = EDGE_CURVE ( 'NONE', #148, #121, #242, .T. ) ;
#110 =( NAMED_UNIT ( * ) SI_UNIT ( $, .STERADIAN. ) SOLID_ANGLE_UNIT ( ) );
#111 = ORIENTED_EDGE ( 'NONE', *, *, #53, .T. ) ;
#112 = FACE_BOUND ( 'NONE', #247, .T. ) ;
#113 = LOCAL_TIME ( 17, 14, 34.00000000000000000, #279 ) ;
#114 = DIRECTION ( 'NONE',  ( -0.000000000000000000, -0.000000000000000000, -1.000000000000000000 ) ) ;
#115 = CLOSED_SHELL ( 'NONE', ( #335, #287, #381, #281, #220, #154, #254, #61, #2, #90, #176 ) ) ;
#116 = EDGE_CURVE ( 'NONE', #78, #157, #255, .T. ) ;
#117 = DIRECTION ( 'NONE',  ( 1.000000000000000000, 0.000000000000000000, 0.000000000000000000 ) ) ;
#118 = APPROVAL_PERSON_ORGANIZATION ( #45, #305, #219 ) ;
#119 = DIRECTION ( 'NONE',  ( 0.000000000000000000, 0.000000000000000000, -1.000000000000000000 ) ) ;
#120 = CARTESIAN_POINT ( 'NONE',  ( 0.000000000000000000, 0.000000000000000000, 755.0000000000000000 ) ) ;
#121 = VERTEX_POINT ( 'NONE', #156 ) ;
#122 =( LENGTH_UNIT ( ) NAMED_UNIT ( * ) SI_UNIT ( .MILLI., .METRE. ) );
#123 = DIRECTION ( 'NONE',  ( 0.000000000000000000, 0.000000000000000000, 1.000000000000000000 ) ) ;
#124 = PERSON_AND_ORGANIZATION ( #370, #269 ) ;
#125 = DIRECTION ( 'NONE',  ( 1.000000000000000000, 0.000000000000000000, 0.000000000000000000 ) ) ;
#126 = DIRECTION ( 'NONE',  ( 0.000000000000000000, 0.000000000000000000, 1.000000000000000000 ) ) ;
#127 = EDGE_CURVE ( 'NONE', #121, #31, #84, .T. ) ;
#128 = EDGE_LOOP ( 'NONE', ( #80, #105 ) ) ;
#129 = AXIS2_PLACEMENT_3D ( 'NONE', #296, #6, #175 ) ;
#130 = AXIS2_PLACEMENT_3D ( 'NONE', #54, #161, #164 ) ;
#131 = CARTESIAN_POINT ( 'NONE',  ( 0.000000000000000000, 0.000000000000000000, 755.0000000000000000 ) ) ;
#132 = CARTESIAN_POINT ( 'NONE',  ( 0.000000000000000000, 0.000000000000000000, 5.000000000000000000 ) ) ;
#133 = MANIFOLD_SOLID_BREP ( 'Odebrat vysunutím3', #115 ) ;
#134 = AXIS2_PLACEMENT_3D ( 'NONE', #131, #239, #364 ) ;
#135 = ORIENTED_EDGE ( 'NONE', *, *, #87, .T. ) ;
#136 = AXIS2_PLACEMENT_3D ( 'NONE', #100, #198, #323 ) ;
#137 = CALENDAR_DATE ( 2022, 8, 7 ) ;
#138 = VERTEX_POINT ( 'NONE', #48 ) ;
#139 = ORIENTED_EDGE ( 'NONE', *, *, #53, .F. ) ;
#140 = CARTESIAN_POINT ( 'NONE',  ( -2.500000000000000000, 0.000000000000000000, 0.000000000000000000 ) ) ;
#141 = CARTESIAN_POINT ( 'NONE',  ( 0.000000000000000000, 0.000000000000000000, 0.000000000000000000 ) ) ;
#142 = PLANE ( 'NONE',  #192 ) ;
#143 = APPROVAL ( #365, 'NEURÈENÝ' ) ;
#144 = DIRECTION ( 'NONE',  ( -1.000000000000000000, 0.000000000000000000, 0.000000000000000000 ) ) ;
#145 = LOCAL_TIME ( 17, 14, 34.00000000000000000, #25 ) ;
#146 = FACE_BOUND ( 'NONE', #179, .T. ) ;
#147 = AXIS2_PLACEMENT_3D ( 'NONE', #120, #92, #234 ) ;
#148 = VERTEX_POINT ( 'NONE', #15 ) ;
#149 = PERSON_AND_ORGANIZATION ( #370, #269 ) ;
#150 = CARTESIAN_POINT ( 'NONE',  ( 0.000000000000000000, 0.000000000000000000, 755.0000000000000000 ) ) ;
#151 = CARTESIAN_POINT ( 'NONE',  ( 0.000000000000000000, 0.000000000000000000, 0.000000000000000000 ) ) ;
#152 = ORIENTED_EDGE ( 'NONE', *, *, #292, .F. ) ;
#153 = FACE_OUTER_BOUND ( 'NONE', #160, .T. ) ;
#154 = ADVANCED_FACE ( 'NONE', ( #278, #153 ), #22, .T. ) ;
#155 = EDGE_LOOP ( 'NONE', ( #313, #339, #360, #344 ) ) ;
#156 = CARTESIAN_POINT ( 'NONE',  ( -5.000000000000000000, 0.000000000000000000, 5.499999999999949374 ) ) ;
#157 = VERTEX_POINT ( 'NONE', #187 ) ;
#158 = DATE_AND_TIME ( #311, #145 ) ;
#159 = DIRECTION ( 'NONE',  ( 1.000000000000000000, 0.000000000000000000, 0.000000000000000000 ) ) ;
#160 = EDGE_LOOP ( 'NONE', ( #367, #180 ) ) ;
#161 = DIRECTION ( 'NONE',  ( 0.000000000000000000, 0.000000000000000000, 1.000000000000000000 ) ) ;
#162 = CC_DESIGN_PERSON_AND_ORGANIZATION_ASSIGNMENT ( #149, #267, ( #379 ) ) ;
#163 = CYLINDRICAL_SURFACE ( 'NONE', #185, 8.000000000000000000 ) ;
#164 = DIRECTION ( 'NONE',  ( 1.000000000000000000, 0.000000000000000000, 0.000000000000000000 ) ) ;
#165 = CIRCLE ( 'NONE', #202, 8.000000000000000000 ) ;
#166 = CIRCLE ( 'NONE', #178, 8.000000000000000000 ) ;
#167 = FACE_OUTER_BOUND ( 'NONE', #12, .T. ) ;
#168 = CARTESIAN_POINT ( 'NONE',  ( 0.000000000000000000, 0.000000000000000000, 755.0000000000000000 ) ) ;
#169 = CARTESIAN_POINT ( 'NONE',  ( 0.000000000000000000, 0.000000000000000000, 755.0000000000000000 ) ) ;
#170 = CARTESIAN_POINT ( 'NONE',  ( 2.500000000000000000, 3.061616997868383141E-16, 755.0000000000000000 ) ) ;
#171 = ORIENTED_EDGE ( 'NONE', *, *, #24, .F. ) ;
#172 = EDGE_CURVE ( 'NONE', #206, #243, #295, .T. ) ;
#173 = VECTOR ( 'NONE', #13, 1000.000000000000000 ) ;
#174 = CC_DESIGN_SECURITY_CLASSIFICATION ( #256, ( #379 ) ) ;
#175 = DIRECTION ( 'NONE',  ( 1.000000000000000000, 0.000000000000000000, 0.000000000000000000 ) ) ;
#176 = ADVANCED_FACE ( 'NONE', ( #10 ), #303, .F. ) ;
#177 = CIRCLE ( 'NONE', #326, 5.000000000000000000 ) ;
#178 = AXIS2_PLACEMENT_3D ( 'NONE', #7, #126, #5 ) ;
#179 = EDGE_LOOP ( 'NONE', ( #139, #369 ) ) ;
#180 = ORIENTED_EDGE ( 'NONE', *, *, #371, .T. ) ;
#181 = EDGE_CURVE ( 'NONE', #268, #31, #341, .T. ) ;
#182 = EDGE_LOOP ( 'NONE', ( #107, #47, #277, #241 ) ) ;
#183 = DIRECTION ( 'NONE',  ( 1.224646799147353207E-16, 1.000000000000000000, -0.000000000000000000 ) ) ;
#184 = EDGE_CURVE ( 'NONE', #52, #101, #333, .T. ) ;
#185 = AXIS2_PLACEMENT_3D ( 'NONE', #283, #194, #221 ) ;
#186 = VERTEX_POINT ( 'NONE', #189 ) ;
#187 = CARTESIAN_POINT ( 'NONE',  ( -2.500000000000000000, 0.000000000000000000, 755.0000000000000000 ) ) ;
#188 = EDGE_LOOP ( 'NONE', ( #171, #69, #238, #59 ) ) ;
#189 = CARTESIAN_POINT ( 'NONE',  ( 5.000000000000000000, 6.123233995736766282E-16, 5.499999999999949374 ) ) ;
#190 = APPROVAL_STATUS ( 'not_yet_approved' ) ;
#191 = CARTESIAN_POINT ( 'NONE',  ( 0.000000000000000000, 0.000000000000000000, 0.000000000000000000 ) ) ;
#192 = AXIS2_PLACEMENT_3D ( 'NONE', #26, #318, #218 ) ;
#193 = FACE_OUTER_BOUND ( 'NONE', #21, .T. ) ;
#194 = DIRECTION ( 'NONE',  ( -0.000000000000000000, -0.000000000000000000, -1.000000000000000000 ) ) ;
#195 = CIRCLE ( 'NONE', #262, 0.5000000000000004441 ) ;
#196 = DIRECTION ( 'NONE',  ( 1.000000000000000000, 0.000000000000000000, 0.000000000000000000 ) ) ;
#197 = ORIENTED_EDGE ( 'NONE', *, *, #172, .T. ) ;
#198 = DIRECTION ( 'NONE',  ( 0.000000000000000000, 0.000000000000000000, 1.000000000000000000 ) ) ;
#199 = APPROVAL ( #106, 'NEURÈENÝ' ) ;
#200 = FACE_OUTER_BOUND ( 'NONE', #337, .T. ) ;
#201 = APPLICATION_CONTEXT ( 'configuration controlled 3d designs of mechanical parts and assemblies' ) ;
#202 = AXIS2_PLACEMENT_3D ( 'NONE', #151, #300, #331 ) ;
#203 = VERTEX_POINT ( 'NONE', #374 ) ;
#204 = APPROVAL_PERSON_ORGANIZATION ( #215, #199, #343 ) ;
#205 = PLANE ( 'NONE',  #32 ) ;
#206 = VERTEX_POINT ( 'NONE', #56 ) ;
#207 = DIRECTION ( 'NONE',  ( 1.000000000000000000, 0.000000000000000000, 0.000000000000000000 ) ) ;
#208 = ORIENTED_EDGE ( 'NONE', *, *, #184, .F. ) ;
#209 = DIRECTION ( 'NONE',  ( 0.000000000000000000, 0.000000000000000000, 1.000000000000000000 ) ) ;
#210 = CIRCLE ( 'NONE', #129, 5.000000000000000000 ) ;
#211 = CIRCLE ( 'NONE', #356, 5.000000000000000000 ) ;
#212 = ORIENTED_EDGE ( 'NONE', *, *, #316, .F. ) ;
#213 = CARTESIAN_POINT ( 'NONE',  ( 0.000000000000000000, 0.000000000000000000, 755.0000000000000000 ) ) ;
#214 = ORIENTED_EDGE ( 'NONE', *, *, #4, .F. ) ;
#215 = PERSON_AND_ORGANIZATION ( #370, #269 ) ;
#216 =( GEOMETRIC_REPRESENTATION_CONTEXT ( 3 ) GLOBAL_UNCERTAINTY_ASSIGNED_CONTEXT ( ( #351 ) ) GLOBAL_UNIT_ASSIGNED_CONTEXT ( ( #122, #66, #110 ) ) REPRESENTATION_CONTEXT ( 'NONE', 'WORKASPACE' ) );
#217 = ORIENTED_EDGE ( 'NONE', *, *, #258, .F. ) ;
#218 = DIRECTION ( 'NONE',  ( 1.000000000000000000, 0.000000000000000000, -0.000000000000000000 ) ) ;
#219 = APPROVAL_ROLE ( '' ) ;
#220 = ADVANCED_FACE ( 'NONE', ( #378 ), #163, .T. ) ;
#221 = DIRECTION ( 'NONE',  ( -1.000000000000000000, 0.000000000000000000, 0.000000000000000000 ) ) ;
#222 = PERSON_AND_ORGANIZATION ( #370, #269 ) ;
#223 = CIRCLE ( 'NONE', #65, 8.000000000000000000 ) ;
#224 = CALENDAR_DATE ( 2022, 8, 7 ) ;
#225 = DIRECTION ( 'NONE',  ( 1.000000000000000000, 0.000000000000000000, 0.000000000000000000 ) ) ;
#226 = CARTESIAN_POINT ( 'NONE',  ( 5.500000000000000000, 0.000000000000000000, 5.499999999999949374 ) ) ;
#227 = DIRECTION ( 'NONE',  ( 0.000000000000000000, 0.000000000000000000, -1.000000000000000000 ) ) ;
#228 = ORIENTED_EDGE ( 'NONE', *, *, #366, .F. ) ;
#229 = APPROVAL_DATE_TIME ( #40, #143 ) ;
#230 = CC_DESIGN_PERSON_AND_ORGANIZATION_ASSIGNMENT ( #222, #68, ( #259 ) ) ;
#231 = DIRECTION ( 'NONE',  ( 1.000000000000000000, 0.000000000000000000, -0.000000000000000000 ) ) ;
#232 = DATE_TIME_ROLE ( 'classification_date' ) ;
#233 = DIRECTION ( 'NONE',  ( 1.000000000000000000, 0.000000000000000000, 0.000000000000000000 ) ) ;
#234 = DIRECTION ( 'NONE',  ( -1.000000000000000000, 0.000000000000000000, 0.000000000000000000 ) ) ;
#235 = CARTESIAN_POINT ( 'NONE',  ( 0.000000000000000000, 0.000000000000000000, 5.000000000000000000 ) ) ;
#236 = CARTESIAN_POINT ( 'NONE',  ( -8.000000000000000000, 0.000000000000000000, 5.000000000000000000 ) ) ;
#237 = EDGE_CURVE ( 'NONE', #157, #243, #82, .T. ) ;
#238 = ORIENTED_EDGE ( 'NONE', *, *, #181, .F. ) ;
#239 = DIRECTION ( 'NONE',  ( 0.000000000000000000, 0.000000000000000000, -1.000000000000000000 ) ) ;
#240 = PERSON_AND_ORGANIZATION ( #370, #269 ) ;
#241 = ORIENTED_EDGE ( 'NONE', *, *, #109, .F. ) ;
#242 = LINE ( 'NONE', #251, #103 ) ;
#243 = VERTEX_POINT ( 'NONE', #140 ) ;
#244 = APPLICATION_PROTOCOL_DEFINITION ( 'international standard', 'config_control_design', 1994, #201 ) ;
#245 = AXIS2_PLACEMENT_3D ( 'NONE', #88, #227, #58 ) ;
#246 = CC_DESIGN_PERSON_AND_ORGANIZATION_ASSIGNMENT ( #346, #252, ( #81 ) ) ;
#247 = EDGE_LOOP ( 'NONE', ( #217, #270 ) ) ;
#248 = DIRECTION ( 'NONE',  ( 0.000000000000000000, 0.000000000000000000, 1.000000000000000000 ) ) ;
#249 = DIRECTION ( 'NONE',  ( 0.000000000000000000, 0.000000000000000000, 1.000000000000000000 ) ) ;
#250 = ORIENTED_EDGE ( 'NONE', *, *, #109, .T. ) ;
#251 = CARTESIAN_POINT ( 'NONE',  ( -5.000000000000000000, 0.000000000000000000, 755.0000000000000000 ) ) ;
#252 = PERSON_AND_ORGANIZATION_ROLE ( 'design_owner' ) ;
#253 = ORIENTED_EDGE ( 'NONE', *, *, #20, .F. ) ;
#254 = ADVANCED_FACE ( 'NONE', ( #112, #193 ), #142, .F. ) ;
#255 = CIRCLE ( 'NONE', #98, 2.500000000000000000 ) ;
#256 = SECURITY_CLASSIFICATION ( '', '', #34 ) ;
#257 = CARTESIAN_POINT ( 'NONE',  ( -2.500000000000000000, 0.000000000000000000, 755.0000000000000000 ) ) ;
#258 = EDGE_CURVE ( 'NONE', #243, #206, #18, .T. ) ;
#259 = PRODUCT_DEFINITION ( 'NEZNÁMÝ', '', #379, #319 ) ;
#260 = ORIENTED_EDGE ( 'NONE', *, *, #297, .T. ) ;
#261 = PERSON_AND_ORGANIZATION_ROLE ( 'creator' ) ;
#262 = AXIS2_PLACEMENT_3D ( 'NONE', #226, #354, #67 ) ;
#263 = FACE_OUTER_BOUND ( 'NONE', #280, .T. ) ;
#264 = CIRCLE ( 'NONE', #342, 8.000000000000000000 ) ;
#265 = APPROVAL_ROLE ( '' ) ;
#266 = CARTESIAN_POINT ( 'NONE',  ( 2.500000000000000000, 3.061616997868383141E-16, 755.0000000000000000 ) ) ;
#267 = PERSON_AND_ORGANIZATION_ROLE ( 'design_supplier' ) ;
#268 = VERTEX_POINT ( 'NONE', #345 ) ;
#269 = ORGANIZATION ( 'NEURÈENÝ', 'NEURÈENÝ', '' ) ;
#270 = ORIENTED_EDGE ( 'NONE', *, *, #172, .F. ) ;
#271 = EDGE_LOOP ( 'NONE', ( #111, #260, #197, #336 ) ) ;
#272 = CC_DESIGN_DATE_AND_TIME_ASSIGNMENT ( #43, #273, ( #259 ) ) ;
#273 = DATE_TIME_ROLE ( 'creation_date' ) ;
#274 = ORIENTED_EDGE ( 'NONE', *, *, #237, .T. ) ;
#275 = APPROVAL_DATE_TIME ( #158, #305 ) ;
#276 = AXIS2_PLACEMENT_3D ( 'NONE', #168, #293, #324 ) ;
#277 = ORIENTED_EDGE ( 'NONE', *, *, #292, .T. ) ;
#278 = FACE_BOUND ( 'NONE', #128, .T. ) ;
#279 = COORDINATED_UNIVERSAL_TIME_OFFSET ( 1, 0, .AHEAD. ) ;
#280 = EDGE_LOOP ( 'NONE', ( #304, #38 ) ) ;
#281 = ADVANCED_FACE ( 'NONE', ( #349 ), #286, .T. ) ;
#282 = EDGE_LOOP ( 'NONE', ( #16, #135, #309, #208 ) ) ;
#283 = CARTESIAN_POINT ( 'NONE',  ( 0.000000000000000000, 0.000000000000000000, 5.000000000000000000 ) ) ;
#284 = AXIS2_PLACEMENT_3D ( 'NONE', #17, #248, #74 ) ;
#285 = VECTOR ( 'NONE', #119, 1000.000000000000000 ) ;
#286 = CYLINDRICAL_SURFACE ( 'NONE', #72, 8.000000000000000000 ) ;
#287 = ADVANCED_FACE ( 'NONE', ( #315 ), #55, .F. ) ;
#288 = CARTESIAN_POINT ( 'NONE',  ( 0.000000000000000000, 0.000000000000000000, 5.499999999999949374 ) ) ;
#289 = AXIS2_PLACEMENT_3D ( 'NONE', #327, #93, #125 ) ;
#290 = CARTESIAN_POINT ( 'NONE',  ( 5.000000000000000000, 6.123233995736766282E-16, 755.0000000000000000 ) ) ;
#291 = DIRECTION ( 'NONE',  ( 0.000000000000000000, 0.000000000000000000, 1.000000000000000000 ) ) ;
#292 = EDGE_CURVE ( 'NONE', #186, #121, #211, .T. ) ;
#293 = DIRECTION ( 'NONE',  ( -0.000000000000000000, -0.000000000000000000, -1.000000000000000000 ) ) ;
#294 = DIRECTION ( 'NONE',  ( 0.000000000000000000, 0.000000000000000000, 1.000000000000000000 ) ) ;
#295 = CIRCLE ( 'NONE', #28, 2.500000000000000000 ) ;
#296 = CARTESIAN_POINT ( 'NONE',  ( 0.000000000000000000, 0.000000000000000000, 5.499999999999949374 ) ) ;
#297 = EDGE_CURVE ( 'NONE', #78, #206, #377, .T. ) ;
#298 = DIRECTION ( 'NONE',  ( 0.000000000000000000, 0.000000000000000000, 1.000000000000000000 ) ) ;
#299 = COORDINATED_UNIVERSAL_TIME_OFFSET ( 1, 0, .AHEAD. ) ;
#300 = DIRECTION ( 'NONE',  ( 0.000000000000000000, 0.000000000000000000, 1.000000000000000000 ) ) ;
#301 = CALENDAR_DATE ( 2022, 8, 7 ) ;
#302 = ORIENTED_EDGE ( 'NONE', *, *, #258, .T. ) ;
#303 = CYLINDRICAL_SURFACE ( 'NONE', #134, 2.500000000000000000 ) ;
#304 = ORIENTED_EDGE ( 'NONE', *, *, #44, .T. ) ;
#305 = APPROVAL ( #190, 'NEURÈENÝ' ) ;
#306 = DIRECTION ( 'NONE',  ( 1.000000000000000000, 0.000000000000000000, 0.000000000000000000 ) ) ;
#307 = EDGE_LOOP ( 'NONE', ( #325, #76, #274, #302 ) ) ;
#308 = DIRECTION ( 'NONE',  ( -0.000000000000000000, -0.000000000000000000, -1.000000000000000000 ) ) ;
#309 = ORIENTED_EDGE ( 'NONE', *, *, #20, .T. ) ;
#310 = DIRECTION ( 'NONE',  ( 0.000000000000000000, 0.000000000000000000, 1.000000000000000000 ) ) ;
#311 = CALENDAR_DATE ( 2022, 8, 7 ) ;
#312 = LOCAL_TIME ( 17, 14, 34.00000000000000000, #338 ) ;
#313 = ORIENTED_EDGE ( 'NONE', *, *, #87, .F. ) ;
#314 = CARTESIAN_POINT ( 'NONE',  ( 0.000000000000000000, 0.000000000000000000, 0.000000000000000000 ) ) ;
#315 = FACE_OUTER_BOUND ( 'NONE', #188, .T. ) ;
#316 = EDGE_CURVE ( 'NONE', #101, #71, #264, .T. ) ;
#317 = CC_DESIGN_APPROVAL ( #199, ( #379 ) ) ;
#318 = DIRECTION ( 'NONE',  ( 0.000000000000000000, 0.000000000000000000, 1.000000000000000000 ) ) ;
#319 = DESIGN_CONTEXT ( 'detailed design', #201, 'design' ) ;
#320 = CIRCLE ( 'NONE', #46, 2.500000000000000000 ) ;
#321 = APPLICATION_CONTEXT ( 'configuration controlled 3d designs of mechanical parts and assemblies' ) ;
#322 = DIRECTION ( 'NONE',  ( -0.000000000000000000, -0.000000000000000000, -1.000000000000000000 ) ) ;
#323 = DIRECTION ( 'NONE',  ( 1.000000000000000000, 0.000000000000000000, 0.000000000000000000 ) ) ;
#324 = DIRECTION ( 'NONE',  ( -1.000000000000000000, 0.000000000000000000, 0.000000000000000000 ) ) ;
#325 = ORIENTED_EDGE ( 'NONE', *, *, #297, .F. ) ;
#326 = AXIS2_PLACEMENT_3D ( 'NONE', #150, #294, #37 ) ;
#327 = CARTESIAN_POINT ( 'NONE',  ( 0.000000000000000000, 0.000000000000000000, 5.000000000000000000 ) ) ;
#328 = APPROVAL_PERSON_ORGANIZATION ( #240, #143, #265 ) ;
#329 = EDGE_CURVE ( 'NONE', #52, #138, #166, .T. ) ;
#330 = DATE_AND_TIME ( #14, #85 ) ;
#331 = DIRECTION ( 'NONE',  ( 1.000000000000000000, 0.000000000000000000, 0.000000000000000000 ) ) ;
#332 = ORIENTED_EDGE ( 'NONE', *, *, #44, .F. ) ;
#333 = LINE ( 'NONE', #70, #173 ) ;
#334 = COORDINATED_UNIVERSAL_TIME_OFFSET ( 1, 0, .AHEAD. ) ;
#335 = ADVANCED_FACE ( 'NONE', ( #359 ), #352, .F. ) ;
#336 = ORIENTED_EDGE ( 'NONE', *, *, #237, .F. ) ;
#337 = EDGE_LOOP ( 'NONE', ( #228, #332, #250, #62 ) ) ;
#338 = COORDINATED_UNIVERSAL_TIME_OFFSET ( 1, 0, .AHEAD. ) ;
#339 = ORIENTED_EDGE ( 'NONE', *, *, #329, .F. ) ;
#340 = DIRECTION ( 'NONE',  ( 1.000000000000000000, 0.000000000000000000, -0.000000000000000000 ) ) ;
#341 = CIRCLE ( 'NONE', #348, 5.500000000000000000 ) ;
#342 = AXIS2_PLACEMENT_3D ( 'NONE', #63, #291, #233 ) ;
#343 = APPROVAL_ROLE ( '' ) ;
#344 = ORIENTED_EDGE ( 'NONE', *, *, #316, .T. ) ;
#345 = CARTESIAN_POINT ( 'NONE',  ( 5.500000000000000000, 0.000000000000000000, 4.999999999999975131 ) ) ;
#346 = PERSON_AND_ORGANIZATION ( #370, #269 ) ;
#347 = CC_DESIGN_PERSON_AND_ORGANIZATION_ASSIGNMENT ( #124, #11, ( #256 ) ) ;
#348 = AXIS2_PLACEMENT_3D ( 'NONE', #132, #102, #207 ) ;
#349 = FACE_OUTER_BOUND ( 'NONE', #282, .T. ) ;
#350 = APPROVAL_DATE_TIME ( #57, #199 ) ;
#351 = UNCERTAINTY_MEASURE_WITH_UNIT (LENGTH_MEASURE( 1.000000000000000082E-05 ), #122, 'distance_accuracy_value', 'NONE');
#352 = CYLINDRICAL_SURFACE ( 'NONE', #245, 2.500000000000000000 ) ;
#353 = ADVANCED_BREP_SHAPE_REPRESENTATION ( '4812', ( #133, #361 ), #216 ) ;
#354 = DIRECTION ( 'NONE',  ( 0.000000000000000000, -1.000000000000000000, 0.000000000000000000 ) ) ;
#355 = PERSON_AND_ORGANIZATION ( #370, #269 ) ;
#356 = AXIS2_PLACEMENT_3D ( 'NONE', #288, #380, #225 ) ;
#357 = DIRECTION ( 'NONE',  ( 0.000000000000000000, 0.000000000000000000, 1.000000000000000000 ) ) ;
#358 = DIRECTION ( 'NONE',  ( 1.000000000000000000, 0.000000000000000000, 0.000000000000000000 ) ) ;
#359 = FACE_OUTER_BOUND ( 'NONE', #271, .T. ) ;
#360 = ORIENTED_EDGE ( 'NONE', *, *, #184, .T. ) ;
#361 = AXIS2_PLACEMENT_3D ( 'NONE', #141, #249, #306 ) ;
#362 = CARTESIAN_POINT ( 'NONE',  ( 8.000000000000000000, 9.797174393178825657E-16, 5.000000000000000000 ) ) ;
#363 = CC_DESIGN_APPROVAL ( #143, ( #256 ) ) ;
#364 = DIRECTION ( 'NONE',  ( -1.000000000000000000, 0.000000000000000000, 0.000000000000000000 ) ) ;
#365 = APPROVAL_STATUS ( 'not_yet_approved' ) ;
#366 = EDGE_CURVE ( 'NONE', #203, #186, #30, .T. ) ;
#367 = ORIENTED_EDGE ( 'NONE', *, *, #329, .T. ) ;
#368 = DIRECTION ( 'NONE',  ( -1.000000000000000000, 1.224646799147351482E-16, 0.000000000000000000 ) ) ;
#369 = ORIENTED_EDGE ( 'NONE', *, *, #116, .F. ) ;
#370 = PERSON ( 'NEURÈENÝ', 'NEURÈENÝ', 'NEURÈENÝ', ('NEURÈENÝ'), ('NEURÈENÝ'), ('NEURÈENÝ') ) ;
#371 = EDGE_CURVE ( 'NONE', #138, #52, #223, .T. ) ;
#372 = APPLICATION_PROTOCOL_DEFINITION ( 'international standard', 'config_control_design', 1994, #321 ) ;
#373 = TOROIDAL_SURFACE ( 'NONE', #284, 5.500000000000000000, 0.5000000000000000000 ) ;
#374 = CARTESIAN_POINT ( 'NONE',  ( 5.000000000000000000, 6.123233995736766282E-16, 755.0000000000000000 ) ) ;
#375 = EDGE_CURVE ( 'NONE', #203, #148, #99, .T. ) ;
#376 = PRODUCT_DEFINITION_SHAPE ( 'NONE', 'NONE',  #259 ) ;
#377 = LINE ( 'NONE', #170, #285 ) ;
#378 = FACE_OUTER_BOUND ( 'NONE', #155, .T. ) ;
#379 = PRODUCT_DEFINITION_FORMATION_WITH_SPECIFIED_SOURCE ( 'LIBOVOLNÝ', '', #81, .NOT_KNOWN. ) ;
#380 = DIRECTION ( 'NONE',  ( 0.000000000000000000, 0.000000000000000000, 1.000000000000000000 ) ) ;
#381 = ADVANCED_FACE ( 'NONE', ( #95 ), #60, .T. ) ;
ENDSEC;
END-ISO-10303-21;
