ISO-10303-21;
HEADER;
FILE_DESCRIPTION (( 'STEP AP203' ),
    '1' );
FILE_NAME ('b480.STEP',
    '2022-07-08T15:30:14',
    ( '' ),
    ( '' ),
    'SwSTEP 2.0',
    'SolidWorks 2019',
    '' );
FILE_SCHEMA (( 'CONFIG_CONTROL_DESIGN' ));
ENDSEC;

DATA;
#1 = DIRECTION ( 'NONE',  ( -1.000000000000000000, 0.000000000000000000, 0.000000000000000000 ) ) ;
#2 = FACE_BOUND ( 'NONE', #326, .T. ) ;
#3 = TOROIDAL_SURFACE ( 'NONE', #353, 4.500000000000000888, 0.5000000000000000000 ) ;
#4 = CIRCLE ( 'NONE', #202, 4.000000000000000000 ) ;
#5 = DIRECTION ( 'NONE',  ( -0.000000000000000000, -0.000000000000000000, -1.000000000000000000 ) ) ;
#6 = SHAPE_DEFINITION_REPRESENTATION ( #117, #356 ) ;
#7 = DIRECTION ( 'NONE',  ( 1.000000000000000000, 0.000000000000000000, -0.000000000000000000 ) ) ;
#8 = DIRECTION ( 'NONE',  ( 0.000000000000000000, 0.000000000000000000, 1.000000000000000000 ) ) ;
#9 = LOCAL_TIME ( 17, 30, 14.00000000000000000, #25 ) ;
#10 = DIRECTION ( 'NONE',  ( 0.000000000000000000, 0.000000000000000000, 1.000000000000000000 ) ) ;
#11 = CARTESIAN_POINT ( 'NONE',  ( 0.000000000000000000, 0.000000000000000000, 5.000000000000000000 ) ) ;
#12 = CARTESIAN_POINT ( 'NONE',  ( 2.000000000000000000, 2.449293598294706414E-16, 555.0000000000000000 ) ) ;
#13 = AXIS2_PLACEMENT_3D ( 'NONE', #40, #68, #158 ) ;
#14 = LOCAL_TIME ( 17, 30, 14.00000000000000000, #73 ) ;
#15 = CYLINDRICAL_SURFACE ( 'NONE', #302, 7.000000000000000000 ) ;
#16 = DIRECTION ( 'NONE',  ( 1.000000000000000000, 0.000000000000000000, 0.000000000000000000 ) ) ;
#17 =( NAMED_UNIT ( * ) PLANE_ANGLE_UNIT ( ) SI_UNIT ( $, .RADIAN. ) );
#18 = EDGE_LOOP ( 'NONE', ( #283, #28 ) ) ;
#19 = PRODUCT_DEFINITION_FORMATION_WITH_SPECIFIED_SOURCE ( 'LIBOVOLNÝ', '', #176, .NOT_KNOWN. ) ;
#20 = CARTESIAN_POINT ( 'NONE',  ( 0.000000000000000000, 0.000000000000000000, 5.499999999999949374 ) ) ;
#21 = EDGE_LOOP ( 'NONE', ( #51, #311, #375, #47 ) ) ;
#22 = LINE ( 'NONE', #197, #209 ) ;
#23 = EDGE_CURVE ( 'NONE', #224, #57, #343, .T. ) ;
#24 = EDGE_LOOP ( 'NONE', ( #48, #206, #286, #220 ) ) ;
#25 = COORDINATED_UNIVERSAL_TIME_OFFSET ( 1, 0, .AHEAD. ) ;
#26 = ORIENTED_EDGE ( 'NONE', *, *, #41, .T. ) ;
#27 = EDGE_CURVE ( 'NONE', #194, #61, #219, .T. ) ;
#28 = ORIENTED_EDGE ( 'NONE', *, *, #58, .T. ) ;
#29 = DIRECTION ( 'NONE',  ( 1.000000000000000000, 0.000000000000000000, 0.000000000000000000 ) ) ;
#30 = CARTESIAN_POINT ( 'NONE',  ( 4.500000000000000888, 0.000000000000000000, 4.999999999999975131 ) ) ;
#31 = DIRECTION ( 'NONE',  ( -0.000000000000000000, -0.000000000000000000, -1.000000000000000000 ) ) ;
#32 = LOCAL_TIME ( 17, 30, 14.00000000000000000, #312 ) ;
#33 = FACE_OUTER_BOUND ( 'NONE', #144, .T. ) ;
#34 = DIRECTION ( 'NONE',  ( 1.224646799147353207E-16, 1.000000000000000000, -0.000000000000000000 ) ) ;
#35 = ADVANCED_FACE ( 'NONE', ( #2, #205 ), #151, .F. ) ;
#36 = DIRECTION ( 'NONE',  ( -1.000000000000000000, 0.000000000000000000, 0.000000000000000000 ) ) ;
#37 = VECTOR ( 'NONE', #31, 1000.000000000000000 ) ;
#38 = CC_DESIGN_SECURITY_CLASSIFICATION ( #189, ( #19 ) ) ;
#39 = DIRECTION ( 'NONE',  ( 1.000000000000000000, 0.000000000000000000, 0.000000000000000000 ) ) ;
#40 = CARTESIAN_POINT ( 'NONE',  ( 0.000000000000000000, 0.000000000000000000, 0.000000000000000000 ) ) ;
#41 = EDGE_CURVE ( 'NONE', #313, #191, #43, .T. ) ;
#42 = CARTESIAN_POINT ( 'NONE',  ( 2.000000000000000000, 2.449293598294706414E-16, 0.000000000000000000 ) ) ;
#43 = CIRCLE ( 'NONE', #148, 2.000000000000000000 ) ;
#44 = AXIS2_PLACEMENT_3D ( 'NONE', #80, #45, #341 ) ;
#45 = DIRECTION ( 'NONE',  ( 0.000000000000000000, 0.000000000000000000, 1.000000000000000000 ) ) ;
#46 = PERSON_AND_ORGANIZATION_ROLE ( 'creator' ) ;
#47 = ORIENTED_EDGE ( 'NONE', *, *, #358, .T. ) ;
#48 = ORIENTED_EDGE ( 'NONE', *, *, #58, .F. ) ;
#49 = APPROVAL_PERSON_ORGANIZATION ( #159, #216, #310 ) ;
#50 = DATE_AND_TIME ( #315, #14 ) ;
#51 = ORIENTED_EDGE ( 'NONE', *, *, #376, .F. ) ;
#52 = PERSON_AND_ORGANIZATION ( #379, #178 ) ;
#53 = ADVANCED_FACE ( 'NONE', ( #291, #327 ), #118, .T. ) ;
#54 = EDGE_LOOP ( 'NONE', ( #161, #223, #137, #74 ) ) ;
#55 = VERTEX_POINT ( 'NONE', #30 ) ;
#56 = CIRCLE ( 'NONE', #331, 4.500000000000000888 ) ;
#57 = VERTEX_POINT ( 'NONE', #260 ) ;
#58 = EDGE_CURVE ( 'NONE', #110, #373, #171, .T. ) ;
#59 = DIRECTION ( 'NONE',  ( 0.000000000000000000, 0.000000000000000000, 1.000000000000000000 ) ) ;
#60 = LINE ( 'NONE', #293, #37 ) ;
#61 = VERTEX_POINT ( 'NONE', #299 ) ;
#62 = AXIS2_PLACEMENT_3D ( 'NONE', #237, #34, #63 ) ;
#63 = DIRECTION ( 'NONE',  ( -1.000000000000000000, 1.224646799147351482E-16, 0.000000000000000000 ) ) ;
#64 = FACE_OUTER_BOUND ( 'NONE', #229, .T. ) ;
#65 = DIRECTION ( 'NONE',  ( 1.000000000000000000, 0.000000000000000000, 0.000000000000000000 ) ) ;
#66 = VECTOR ( 'NONE', #181, 1000.000000000000000 ) ;
#67 = DIRECTION ( 'NONE',  ( 0.000000000000000000, 0.000000000000000000, 1.000000000000000000 ) ) ;
#68 = DIRECTION ( 'NONE',  ( 0.000000000000000000, 0.000000000000000000, 1.000000000000000000 ) ) ;
#69 = DIRECTION ( 'NONE',  ( 0.000000000000000000, 0.000000000000000000, 1.000000000000000000 ) ) ;
#70 = AXIS2_PLACEMENT_3D ( 'NONE', #177, #5, #258 ) ;
#71 = AXIS2_PLACEMENT_3D ( 'NONE', #154, #269, #212 ) ;
#72 = ORIENTED_EDGE ( 'NONE', *, *, #346, .T. ) ;
#73 = COORDINATED_UNIVERSAL_TIME_OFFSET ( 1, 0, .AHEAD. ) ;
#74 = ORIENTED_EDGE ( 'NONE', *, *, #314, .F. ) ;
#75 = DIRECTION ( 'NONE',  ( 1.000000000000000000, 0.000000000000000000, 0.000000000000000000 ) ) ;
#76 = ORIENTED_EDGE ( 'NONE', *, *, #363, .T. ) ;
#77 = AXIS2_PLACEMENT_3D ( 'NONE', #335, #272, #93 ) ;
#78 = ORIENTED_EDGE ( 'NONE', *, *, #259, .F. ) ;
#79 = APPROVAL ( #173, 'NEURÈENÝ' ) ;
#80 = CARTESIAN_POINT ( 'NONE',  ( 0.000000000000000000, 0.000000000000000000, 0.000000000000000000 ) ) ;
#81 = EDGE_LOOP ( 'NONE', ( #112, #232 ) ) ;
#82 = PERSON_AND_ORGANIZATION ( #379, #178 ) ;
#83 = ADVANCED_FACE ( 'NONE', ( #235 ), #201, .T. ) ;
#84 = DIRECTION ( 'NONE',  ( 0.000000000000000000, 0.000000000000000000, 1.000000000000000000 ) ) ;
#85 = CARTESIAN_POINT ( 'NONE',  ( 0.000000000000000000, 0.000000000000000000, 5.000000000000000000 ) ) ;
#86 = CC_DESIGN_DATE_AND_TIME_ASSIGNMENT ( #169, #111, ( #189 ) ) ;
#87 = DIRECTION ( 'NONE',  ( 1.000000000000000000, 0.000000000000000000, 0.000000000000000000 ) ) ;
#88 = ADVANCED_FACE ( 'NONE', ( #381 ), #355, .T. ) ;
#89 = CARTESIAN_POINT ( 'NONE',  ( -2.000000000000000000, 0.000000000000000000, 555.0000000000000000 ) ) ;
#90 = CC_DESIGN_PERSON_AND_ORGANIZATION_ASSIGNMENT ( #52, #141, ( #176 ) ) ;
#91 = DIRECTION ( 'NONE',  ( -0.000000000000000000, -0.000000000000000000, -1.000000000000000000 ) ) ;
#92 = CARTESIAN_POINT ( 'NONE',  ( 0.000000000000000000, 0.000000000000000000, 555.0000000000000000 ) ) ;
#93 = DIRECTION ( 'NONE',  ( -1.000000000000000000, 0.000000000000000000, 0.000000000000000000 ) ) ;
#94 = ADVANCED_FACE ( 'NONE', ( #113 ), #239, .F. ) ;
#95 = CARTESIAN_POINT ( 'NONE',  ( 0.000000000000000000, 0.000000000000000000, 555.0000000000000000 ) ) ;
#96 = AXIS2_PLACEMENT_3D ( 'NONE', #330, #8, #217 ) ;
#97 = DIRECTION ( 'NONE',  ( -1.000000000000000000, 0.000000000000000000, 0.000000000000000000 ) ) ;
#98 = DIRECTION ( 'NONE',  ( 1.000000000000000000, 0.000000000000000000, 0.000000000000000000 ) ) ;
#99 = DIRECTION ( 'NONE',  ( 0.000000000000000000, 0.000000000000000000, -1.000000000000000000 ) ) ;
#100 = ORIENTED_EDGE ( 'NONE', *, *, #155, .T. ) ;
#101 = AXIS2_PLACEMENT_3D ( 'NONE', #116, #119, #87 ) ;
#102 = LINE ( 'NONE', #218, #244 ) ;
#103 = VERTEX_POINT ( 'NONE', #324 ) ;
#104 = DIRECTION ( 'NONE',  ( 1.000000000000000000, 0.000000000000000000, 0.000000000000000000 ) ) ;
#105 = ORIENTED_EDGE ( 'NONE', *, *, #27, .F. ) ;
#106 = DESIGN_CONTEXT ( 'detailed design', #198, 'design' ) ;
#107 = EDGE_LOOP ( 'NONE', ( #26, #317, #342, #170 ) ) ;
#108 = CIRCLE ( 'NONE', #274, 4.000000000000000000 ) ;
#109 = DIRECTION ( 'NONE',  ( 0.000000000000000000, 0.000000000000000000, 1.000000000000000000 ) ) ;
#110 = VERTEX_POINT ( 'NONE', #234 ) ;
#111 = DATE_TIME_ROLE ( 'classification_date' ) ;
#112 = ORIENTED_EDGE ( 'NONE', *, *, #297, .F. ) ;
#113 = FACE_OUTER_BOUND ( 'NONE', #193, .T. ) ;
#114 = CALENDAR_DATE ( 2022, 8, 7 ) ;
#115 = AXIS2_PLACEMENT_3D ( 'NONE', #92, #124, #36 ) ;
#116 = CARTESIAN_POINT ( 'NONE',  ( 0.000000000000000000, 0.000000000000000000, 555.0000000000000000 ) ) ;
#117 = PRODUCT_DEFINITION_SHAPE ( 'NONE', 'NONE',  #366 ) ;
#118 = PLANE ( 'NONE',  #207 ) ;
#119 = DIRECTION ( 'NONE',  ( 0.000000000000000000, 0.000000000000000000, 1.000000000000000000 ) ) ;
#120 = AXIS2_PLACEMENT_3D ( 'NONE', #175, #264, #325 ) ;
#121 = CYLINDRICAL_SURFACE ( 'NONE', #115, 2.000000000000000000 ) ;
#122 = CIRCLE ( 'NONE', #184, 4.000000000000000000 ) ;
#123 = EDGE_CURVE ( 'NONE', #55, #57, #56, .T. ) ;
#124 = DIRECTION ( 'NONE',  ( 0.000000000000000000, 0.000000000000000000, -1.000000000000000000 ) ) ;
#125 = LINE ( 'NONE', #12, #289 ) ;
#126 = CARTESIAN_POINT ( 'NONE',  ( -2.000000000000000000, 0.000000000000000000, 555.0000000000000000 ) ) ;
#127 = EDGE_CURVE ( 'NONE', #191, #313, #316, .T. ) ;
#128 = CIRCLE ( 'NONE', #345, 2.000000000000000000 ) ;
#129 = CARTESIAN_POINT ( 'NONE',  ( 0.000000000000000000, 0.000000000000000000, 5.499999999999949374 ) ) ;
#130 = ORIENTED_EDGE ( 'NONE', *, *, #23, .T. ) ;
#131 = DIRECTION ( 'NONE',  ( -0.000000000000000000, -0.000000000000000000, -1.000000000000000000 ) ) ;
#132 = APPROVAL_ROLE ( '' ) ;
#133 = EDGE_LOOP ( 'NONE', ( #163, #227, #76, #78 ) ) ;
#134 = CIRCLE ( 'NONE', #242, 7.000000000000000000 ) ;
#135 = LOCAL_TIME ( 17, 30, 14.00000000000000000, #203 ) ;
#136 = DIRECTION ( 'NONE',  ( 0.000000000000000000, 0.000000000000000000, 1.000000000000000000 ) ) ;
#137 = ORIENTED_EDGE ( 'NONE', *, *, #301, .T. ) ;
#138 =( NAMED_UNIT ( * ) SI_UNIT ( $, .STERADIAN. ) SOLID_ANGLE_UNIT ( ) );
#139 = EDGE_CURVE ( 'NONE', #373, #371, #60, .T. ) ;
#140 = ORIENTED_EDGE ( 'NONE', *, *, #358, .F. ) ;
#141 = PERSON_AND_ORGANIZATION_ROLE ( 'design_owner' ) ;
#142 = ORIENTED_EDGE ( 'NONE', *, *, #372, .F. ) ;
#143 = SECURITY_CLASSIFICATION_LEVEL ( 'unclassified' ) ;
#144 = EDGE_LOOP ( 'NONE', ( #142, #278, #255, #318 ) ) ;
#145 = CC_DESIGN_PERSON_AND_ORGANIZATION_ASSIGNMENT ( #284, #46, ( #366 ) ) ;
#146 = DIRECTION ( 'NONE',  ( -0.000000000000000000, -0.000000000000000000, -1.000000000000000000 ) ) ;
#147 = CARTESIAN_POINT ( 'NONE',  ( 0.000000000000000000, 0.000000000000000000, 5.000000000000000000 ) ) ;
#148 = AXIS2_PLACEMENT_3D ( 'NONE', #359, #59, #262 ) ;
#149 = LINE ( 'NONE', #89, #249 ) ;
#150 = APPROVAL_DATE_TIME ( #251, #152 ) ;
#151 = PLANE ( 'NONE',  #308 ) ;
#152 = APPROVAL ( #277, 'NEURÈENÝ' ) ;
#153 = DIRECTION ( 'NONE',  ( 0.000000000000000000, 0.000000000000000000, 1.000000000000000000 ) ) ;
#154 = CARTESIAN_POINT ( 'NONE',  ( 4.500000000000000888, 0.000000000000000000, 5.499999999999949374 ) ) ;
#155 = EDGE_CURVE ( 'NONE', #313, #61, #149, .T. ) ;
#156 = CARTESIAN_POINT ( 'NONE',  ( 0.000000000000000000, 0.000000000000000000, 5.000000000000000000 ) ) ;
#157 = CARTESIAN_POINT ( 'NONE',  ( 0.000000000000000000, 0.000000000000000000, 0.000000000000000000 ) ) ;
#158 = DIRECTION ( 'NONE',  ( 1.000000000000000000, 0.000000000000000000, 0.000000000000000000 ) ) ;
#159 = PERSON_AND_ORGANIZATION ( #379, #178 ) ;
#160 = DATE_AND_TIME ( #192, #9 ) ;
#161 = ORIENTED_EDGE ( 'NONE', *, *, #23, .F. ) ;
#162 = DIRECTION ( 'NONE',  ( -0.000000000000000000, -0.000000000000000000, -1.000000000000000000 ) ) ;
#163 = ORIENTED_EDGE ( 'NONE', *, *, #346, .F. ) ;
#164 = CC_DESIGN_PERSON_AND_ORGANIZATION_ASSIGNMENT ( #82, #292, ( #19 ) ) ;
#165 = APPROVAL_DATE_TIME ( #50, #216 ) ;
#166 = ORIENTED_EDGE ( 'NONE', *, *, #123, .T. ) ;
#167 = APPROVAL_STATUS ( 'not_yet_approved' ) ;
#168 = EDGE_LOOP ( 'NONE', ( #166, #344 ) ) ;
#169 = DATE_AND_TIME ( #228, #233 ) ;
#170 = ORIENTED_EDGE ( 'NONE', *, *, #155, .F. ) ;
#171 = CIRCLE ( 'NONE', #288, 7.000000000000000000 ) ;
#172 = APPROVAL_PERSON_ORGANIZATION ( #275, #152, #132 ) ;
#173 = APPROVAL_STATUS ( 'not_yet_approved' ) ;
#174 = DIRECTION ( 'NONE',  ( 0.000000000000000000, 0.000000000000000000, 1.000000000000000000 ) ) ;
#175 = CARTESIAN_POINT ( 'NONE',  ( 0.000000000000000000, 0.000000000000000000, 5.499999999999949374 ) ) ;
#176 = PRODUCT ( 'b480', 'b480', '', ( #338 ) ) ;
#177 = CARTESIAN_POINT ( 'NONE',  ( 0.000000000000000000, 0.000000000000000000, 5.000000000000000000 ) ) ;
#178 = ORGANIZATION ( 'NEURÈENÝ', 'NEURÈENÝ', '' ) ;
#179 = DIRECTION ( 'NONE',  ( -0.000000000000000000, -0.000000000000000000, -1.000000000000000000 ) ) ;
#180 = CARTESIAN_POINT ( 'NONE',  ( 0.000000000000000000, 0.000000000000000000, 5.000000000000000000 ) ) ;
#181 = DIRECTION ( 'NONE',  ( -0.000000000000000000, -0.000000000000000000, -1.000000000000000000 ) ) ;
#182 = ADVANCED_FACE ( 'NONE', ( #33 ), #15, .T. ) ;
#183 = FACE_OUTER_BOUND ( 'NONE', #54, .T. ) ;
#184 = AXIS2_PLACEMENT_3D ( 'NONE', #20, #136, #104 ) ;
#185 = CARTESIAN_POINT ( 'NONE',  ( 0.000000000000000000, 0.000000000000000000, 555.0000000000000000 ) ) ;
#186 = DIRECTION ( 'NONE',  ( -0.000000000000000000, -0.000000000000000000, -1.000000000000000000 ) ) ;
#187 = CARTESIAN_POINT ( 'NONE',  ( 0.000000000000000000, 0.000000000000000000, 555.0000000000000000 ) ) ;
#188 = CLOSED_SHELL ( 'NONE', ( #238, #94, #230, #83, #182, #53, #35, #88, #270, #208, #285 ) ) ;
#189 = SECURITY_CLASSIFICATION ( '', '', #143 ) ;
#190 = CARTESIAN_POINT ( 'NONE',  ( 0.000000000000000000, 0.000000000000000000, 5.499999999999949374 ) ) ;
#191 = VERTEX_POINT ( 'NONE', #273 ) ;
#192 = CALENDAR_DATE ( 2022, 8, 7 ) ;
#193 = EDGE_LOOP ( 'NONE', ( #140, #130, #378, #348 ) ) ;
#194 = VERTEX_POINT ( 'NONE', #42 ) ;
#195 = AXIS2_PLACEMENT_3D ( 'NONE', #290, #146, #1 ) ;
#196 = ORIENTED_EDGE ( 'NONE', *, *, #41, .F. ) ;
#197 = CARTESIAN_POINT ( 'NONE',  ( 4.000000000000000000, 4.898587196589412829E-16, 555.0000000000000000 ) ) ;
#198 = APPLICATION_CONTEXT ( 'configuration controlled 3d designs of mechanical parts and assemblies' ) ;
#199 = EDGE_LOOP ( 'NONE', ( #225, #250, #100, #339 ) ) ;
#200 = PERSON_AND_ORGANIZATION_ROLE ( 'classification_officer' ) ;
#201 = CYLINDRICAL_SURFACE ( 'NONE', #70, 7.000000000000000000 ) ;
#202 = AXIS2_PLACEMENT_3D ( 'NONE', #187, #153, #65 ) ;
#203 = COORDINATED_UNIVERSAL_TIME_OFFSET ( 1, 0, .AHEAD. ) ;
#204 = EDGE_CURVE ( 'NONE', #373, #110, #134, .T. ) ;
#205 = FACE_OUTER_BOUND ( 'NONE', #81, .T. ) ;
#206 = ORIENTED_EDGE ( 'NONE', *, *, #372, .T. ) ;
#207 = AXIS2_PLACEMENT_3D ( 'NONE', #180, #84, #7 ) ;
#208 = ADVANCED_FACE ( 'NONE', ( #183 ), #3, .F. ) ;
#209 = VECTOR ( 'NONE', #131, 1000.000000000000000 ) ;
#210 = DIRECTION ( 'NONE',  ( 1.000000000000000000, 0.000000000000000000, 0.000000000000000000 ) ) ;
#211 = DIRECTION ( 'NONE',  ( 1.000000000000000000, 0.000000000000000000, 0.000000000000000000 ) ) ;
#212 = DIRECTION ( 'NONE',  ( 0.000000000000000000, 0.000000000000000000, -1.000000000000000000 ) ) ;
#213 = AXIS2_PLACEMENT_3D ( 'NONE', #185, #69, #367 ) ;
#214 = DIRECTION ( 'NONE',  ( -0.000000000000000000, -0.000000000000000000, -1.000000000000000000 ) ) ;
#215 = DIRECTION ( 'NONE',  ( -1.000000000000000000, 0.000000000000000000, 0.000000000000000000 ) ) ;
#216 = APPROVAL ( #167, 'NEURÈENÝ' ) ;
#217 = DIRECTION ( 'NONE',  ( 1.000000000000000000, 0.000000000000000000, 0.000000000000000000 ) ) ;
#218 = CARTESIAN_POINT ( 'NONE',  ( 7.000000000000000000, 8.572527594031473190E-16, 5.000000000000000000 ) ) ;
#219 = CIRCLE ( 'NONE', #364, 2.000000000000000000 ) ;
#220 = ORIENTED_EDGE ( 'NONE', *, *, #139, .F. ) ;
#221 = AXIS2_PLACEMENT_3D ( 'NONE', #190, #374, #75 ) ;
#222 = APPLICATION_PROTOCOL_DEFINITION ( 'international standard', 'config_control_design', 1994, #263 ) ;
#223 = ORIENTED_EDGE ( 'NONE', *, *, #363, .F. ) ;
#224 = VERTEX_POINT ( 'NONE', #360 ) ;
#225 = ORIENTED_EDGE ( 'NONE', *, *, #340, .F. ) ;
#226 = CC_DESIGN_APPROVAL ( #216, ( #366 ) ) ;
#227 = ORIENTED_EDGE ( 'NONE', *, *, #376, .T. ) ;
#228 = CALENDAR_DATE ( 2022, 8, 7 ) ;
#229 = EDGE_LOOP ( 'NONE', ( #369, #72 ) ) ;
#230 = ADVANCED_FACE ( 'NONE', ( #328 ), #245, .T. ) ;
#231 = UNCERTAINTY_MEASURE_WITH_UNIT (LENGTH_MEASURE( 1.000000000000000082E-05 ), #254, 'distance_accuracy_value', 'NONE');
#232 = ORIENTED_EDGE ( 'NONE', *, *, #305, .F. ) ;
#233 = LOCAL_TIME ( 17, 30, 14.00000000000000000, #296 ) ;
#234 = CARTESIAN_POINT ( 'NONE',  ( 7.000000000000000000, 8.572527594031473190E-16, 5.000000000000000000 ) ) ;
#235 = FACE_OUTER_BOUND ( 'NONE', #24, .T. ) ;
#236 = APPROVAL_DATE_TIME ( #323, #79 ) ;
#237 = CARTESIAN_POINT ( 'NONE',  ( -4.500000000000000888, 5.510910596163089556E-16, 5.499999999999949374 ) ) ;
#238 = ADVANCED_FACE ( 'NONE', ( #309 ), #121, .F. ) ;
#239 = TOROIDAL_SURFACE ( 'NONE', #120, 4.500000000000000888, 0.5000000000000000000 ) ;
#240 =( GEOMETRIC_REPRESENTATION_CONTEXT ( 3 ) GLOBAL_UNCERTAINTY_ASSIGNED_CONTEXT ( ( #231 ) ) GLOBAL_UNIT_ASSIGNED_CONTEXT ( ( #254, #17, #138 ) ) REPRESENTATION_CONTEXT ( 'NONE', 'WORKASPACE' ) );
#241 = DIRECTION ( 'NONE',  ( -0.000000000000000000, -0.000000000000000000, -1.000000000000000000 ) ) ;
#242 = AXIS2_PLACEMENT_3D ( 'NONE', #156, #67, #211 ) ;
#243 = FACE_OUTER_BOUND ( 'NONE', #199, .T. ) ;
#244 = VECTOR ( 'NONE', #162, 1000.000000000000000 ) ;
#245 = CYLINDRICAL_SURFACE ( 'NONE', #280, 4.000000000000000000 ) ;
#246 = CARTESIAN_POINT ( 'NONE',  ( -7.000000000000000000, 0.000000000000000000, 5.000000000000000000 ) ) ;
#247 = MANIFOLD_SOLID_BREP ( 'Odebrat vysunutím3', #188 ) ;
#248 = CC_DESIGN_PERSON_AND_ORGANIZATION_ASSIGNMENT ( #380, #200, ( #189 ) ) ;
#249 = VECTOR ( 'NONE', #298, 1000.000000000000000 ) ;
#250 = ORIENTED_EDGE ( 'NONE', *, *, #127, .T. ) ;
#251 = DATE_AND_TIME ( #279, #32 ) ;
#252 = ORIENTED_EDGE ( 'NONE', *, *, #127, .F. ) ;
#253 = ORIENTED_EDGE ( 'NONE', *, *, #334, .F. ) ;
#254 =( LENGTH_UNIT ( ) NAMED_UNIT ( * ) SI_UNIT ( .MILLI., .METRE. ) );
#255 = ORIENTED_EDGE ( 'NONE', *, *, #139, .T. ) ;
#256 = APPROVAL_PERSON_ORGANIZATION ( #265, #79, #320 ) ;
#257 = CIRCLE ( 'NONE', #221, 4.000000000000000000 ) ;
#258 = DIRECTION ( 'NONE',  ( -1.000000000000000000, 0.000000000000000000, 0.000000000000000000 ) ) ;
#259 = EDGE_CURVE ( 'NONE', #287, #224, #271, .T. ) ;
#260 = CARTESIAN_POINT ( 'NONE',  ( -4.500000000000000888, 5.510910596163088569E-16, 4.999999999999975131 ) ) ;
#261 = PERSON_AND_ORGANIZATION_ROLE ( 'creator' ) ;
#262 = DIRECTION ( 'NONE',  ( 1.000000000000000000, 0.000000000000000000, 0.000000000000000000 ) ) ;
#263 = APPLICATION_CONTEXT ( 'configuration controlled 3d designs of mechanical parts and assemblies' ) ;
#264 = DIRECTION ( 'NONE',  ( 0.000000000000000000, 0.000000000000000000, 1.000000000000000000 ) ) ;
#265 = PERSON_AND_ORGANIZATION ( #379, #178 ) ;
#266 = DIRECTION ( 'NONE',  ( 0.000000000000000000, 0.000000000000000000, 1.000000000000000000 ) ) ;
#267 = DIRECTION ( 'NONE',  ( 1.000000000000000000, 0.000000000000000000, 0.000000000000000000 ) ) ;
#268 = CC_DESIGN_APPROVAL ( #152, ( #19 ) ) ;
#269 = DIRECTION ( 'NONE',  ( 0.000000000000000000, -1.000000000000000000, 0.000000000000000000 ) ) ;
#270 = ADVANCED_FACE ( 'NONE', ( #300, #64 ), #361, .T. ) ;
#271 = LINE ( 'NONE', #304, #66 ) ;
#272 = DIRECTION ( 'NONE',  ( 0.000000000000000000, 0.000000000000000000, -1.000000000000000000 ) ) ;
#273 = CARTESIAN_POINT ( 'NONE',  ( 2.000000000000000000, 2.449293598294706414E-16, 555.0000000000000000 ) ) ;
#274 = AXIS2_PLACEMENT_3D ( 'NONE', #282, #109, #16 ) ;
#275 = PERSON_AND_ORGANIZATION ( #379, #178 ) ;
#276 = PRODUCT_RELATED_PRODUCT_CATEGORY ( 'detail', '', ( #176 ) ) ;
#277 = APPROVAL_STATUS ( 'not_yet_approved' ) ;
#278 = ORIENTED_EDGE ( 'NONE', *, *, #204, .F. ) ;
#279 = CALENDAR_DATE ( 2022, 8, 7 ) ;
#280 = AXIS2_PLACEMENT_3D ( 'NONE', #95, #214, #215 ) ;
#281 = VERTEX_POINT ( 'NONE', #307 ) ;
#282 = CARTESIAN_POINT ( 'NONE',  ( 0.000000000000000000, 0.000000000000000000, 555.0000000000000000 ) ) ;
#283 = ORIENTED_EDGE ( 'NONE', *, *, #204, .T. ) ;
#284 = PERSON_AND_ORGANIZATION ( #379, #178 ) ;
#285 = ADVANCED_FACE ( 'NONE', ( #243 ), #333, .F. ) ;
#286 = ORIENTED_EDGE ( 'NONE', *, *, #305, .T. ) ;
#287 = VERTEX_POINT ( 'NONE', #306 ) ;
#288 = AXIS2_PLACEMENT_3D ( 'NONE', #85, #174, #210 ) ;
#289 = VECTOR ( 'NONE', #99, 1000.000000000000000 ) ;
#290 = CARTESIAN_POINT ( 'NONE',  ( 0.000000000000000000, 0.000000000000000000, 555.0000000000000000 ) ) ;
#291 = FACE_BOUND ( 'NONE', #168, .T. ) ;
#292 = PERSON_AND_ORGANIZATION_ROLE ( 'design_supplier' ) ;
#293 = CARTESIAN_POINT ( 'NONE',  ( -7.000000000000000000, 0.000000000000000000, 5.000000000000000000 ) ) ;
#294 = CIRCLE ( 'NONE', #13, 7.000000000000000000 ) ;
#295 = CC_DESIGN_APPROVAL ( #79, ( #189 ) ) ;
#296 = COORDINATED_UNIVERSAL_TIME_OFFSET ( 1, 0, .AHEAD. ) ;
#297 = EDGE_CURVE ( 'NONE', #371, #281, #294, .T. ) ;
#298 = DIRECTION ( 'NONE',  ( 0.000000000000000000, 0.000000000000000000, -1.000000000000000000 ) ) ;
#299 = CARTESIAN_POINT ( 'NONE',  ( -2.000000000000000000, 0.000000000000000000, 0.000000000000000000 ) ) ;
#300 = FACE_BOUND ( 'NONE', #337, .T. ) ;
#301 = EDGE_CURVE ( 'NONE', #103, #55, #370, .T. ) ;
#302 = AXIS2_PLACEMENT_3D ( 'NONE', #362, #241, #97 ) ;
#303 = CIRCLE ( 'NONE', #332, 4.500000000000000888 ) ;
#304 = CARTESIAN_POINT ( 'NONE',  ( -4.000000000000000000, 0.000000000000000000, 555.0000000000000000 ) ) ;
#305 = EDGE_CURVE ( 'NONE', #281, #371, #354, .T. ) ;
#306 = CARTESIAN_POINT ( 'NONE',  ( -4.000000000000000000, 0.000000000000000000, 555.0000000000000000 ) ) ;
#307 = CARTESIAN_POINT ( 'NONE',  ( 7.000000000000000000, 8.572527594031473190E-16, 0.000000000000000000 ) ) ;
#308 = AXIS2_PLACEMENT_3D ( 'NONE', #352, #266, #351 ) ;
#309 = FACE_OUTER_BOUND ( 'NONE', #107, .T. ) ;
#310 = APPROVAL_ROLE ( '' ) ;
#311 = ORIENTED_EDGE ( 'NONE', *, *, #329, .F. ) ;
#312 = COORDINATED_UNIVERSAL_TIME_OFFSET ( 1, 0, .AHEAD. ) ;
#313 = VERTEX_POINT ( 'NONE', #126 ) ;
#314 = EDGE_CURVE ( 'NONE', #57, #55, #303, .T. ) ;
#315 = CALENDAR_DATE ( 2022, 8, 7 ) ;
#316 = CIRCLE ( 'NONE', #101, 2.000000000000000000 ) ;
#317 = ORIENTED_EDGE ( 'NONE', *, *, #340, .T. ) ;
#318 = ORIENTED_EDGE ( 'NONE', *, *, #297, .T. ) ;
#319 = VERTEX_POINT ( 'NONE', #336 ) ;
#320 = APPROVAL_ROLE ( '' ) ;
#321 = CARTESIAN_POINT ( 'NONE',  ( 0.000000000000000000, 0.000000000000000000, 0.000000000000000000 ) ) ;
#322 = CC_DESIGN_PERSON_AND_ORGANIZATION_ASSIGNMENT ( #349, #261, ( #19 ) ) ;
#323 = DATE_AND_TIME ( #114, #135 ) ;
#324 = CARTESIAN_POINT ( 'NONE',  ( 4.000000000000000000, 4.898587196589412829E-16, 5.499999999999949374 ) ) ;
#325 = DIRECTION ( 'NONE',  ( 1.000000000000000000, 0.000000000000000000, 0.000000000000000000 ) ) ;
#326 = EDGE_LOOP ( 'NONE', ( #253, #105 ) ) ;
#327 = FACE_OUTER_BOUND ( 'NONE', #18, .T. ) ;
#328 = FACE_OUTER_BOUND ( 'NONE', #133, .T. ) ;
#329 = EDGE_CURVE ( 'NONE', #287, #319, #4, .T. ) ;
#330 = CARTESIAN_POINT ( 'NONE',  ( 0.000000000000000000, 0.000000000000000000, 0.000000000000000000 ) ) ;
#331 = AXIS2_PLACEMENT_3D ( 'NONE', #147, #179, #357 ) ;
#332 = AXIS2_PLACEMENT_3D ( 'NONE', #11, #186, #98 ) ;
#333 = CYLINDRICAL_SURFACE ( 'NONE', #77, 2.000000000000000000 ) ;
#334 = EDGE_CURVE ( 'NONE', #61, #194, #128, .T. ) ;
#335 = CARTESIAN_POINT ( 'NONE',  ( 0.000000000000000000, 0.000000000000000000, 555.0000000000000000 ) ) ;
#336 = CARTESIAN_POINT ( 'NONE',  ( 4.000000000000000000, 4.898587196589412829E-16, 555.0000000000000000 ) ) ;
#337 = EDGE_LOOP ( 'NONE', ( #196, #252 ) ) ;
#338 = MECHANICAL_CONTEXT ( 'NONE', #263, 'mechanical' ) ;
#339 = ORIENTED_EDGE ( 'NONE', *, *, #334, .T. ) ;
#340 = EDGE_CURVE ( 'NONE', #191, #194, #125, .T. ) ;
#341 = DIRECTION ( 'NONE',  ( 1.000000000000000000, 0.000000000000000000, 0.000000000000000000 ) ) ;
#342 = ORIENTED_EDGE ( 'NONE', *, *, #27, .T. ) ;
#343 = CIRCLE ( 'NONE', #62, 0.5000000000000004441 ) ;
#344 = ORIENTED_EDGE ( 'NONE', *, *, #314, .T. ) ;
#345 = AXIS2_PLACEMENT_3D ( 'NONE', #157, #365, #39 ) ;
#346 = EDGE_CURVE ( 'NONE', #319, #287, #108, .T. ) ;
#347 = APPLICATION_PROTOCOL_DEFINITION ( 'international standard', 'config_control_design', 1994, #198 ) ;
#348 = ORIENTED_EDGE ( 'NONE', *, *, #301, .F. ) ;
#349 = PERSON_AND_ORGANIZATION ( #379, #178 ) ;
#350 = CC_DESIGN_DATE_AND_TIME_ASSIGNMENT ( #160, #368, ( #366 ) ) ;
#351 = DIRECTION ( 'NONE',  ( 1.000000000000000000, 0.000000000000000000, -0.000000000000000000 ) ) ;
#352 = CARTESIAN_POINT ( 'NONE',  ( 0.000000000000000000, 0.000000000000000000, 0.000000000000000000 ) ) ;
#353 = AXIS2_PLACEMENT_3D ( 'NONE', #129, #10, #267 ) ;
#354 = CIRCLE ( 'NONE', #96, 7.000000000000000000 ) ;
#355 = CYLINDRICAL_SURFACE ( 'NONE', #195, 4.000000000000000000 ) ;
#356 = ADVANCED_BREP_SHAPE_REPRESENTATION ( 'b480', ( #247, #44 ), #240 ) ;
#357 = DIRECTION ( 'NONE',  ( 1.000000000000000000, 0.000000000000000000, 0.000000000000000000 ) ) ;
#358 = EDGE_CURVE ( 'NONE', #224, #103, #257, .T. ) ;
#359 = CARTESIAN_POINT ( 'NONE',  ( 0.000000000000000000, 0.000000000000000000, 555.0000000000000000 ) ) ;
#360 = CARTESIAN_POINT ( 'NONE',  ( -4.000000000000000000, 0.000000000000000000, 5.499999999999949374 ) ) ;
#361 = PLANE ( 'NONE',  #213 ) ;
#362 = CARTESIAN_POINT ( 'NONE',  ( 0.000000000000000000, 0.000000000000000000, 5.000000000000000000 ) ) ;
#363 = EDGE_CURVE ( 'NONE', #103, #224, #122, .T. ) ;
#364 = AXIS2_PLACEMENT_3D ( 'NONE', #321, #91, #29 ) ;
#365 = DIRECTION ( 'NONE',  ( -0.000000000000000000, -0.000000000000000000, -1.000000000000000000 ) ) ;
#366 = PRODUCT_DEFINITION ( 'NEZNÁMÝ', '', #19, #106 ) ;
#367 = DIRECTION ( 'NONE',  ( 1.000000000000000000, 0.000000000000000000, -0.000000000000000000 ) ) ;
#368 = DATE_TIME_ROLE ( 'creation_date' ) ;
#369 = ORIENTED_EDGE ( 'NONE', *, *, #329, .T. ) ;
#370 = CIRCLE ( 'NONE', #71, 0.5000000000000004441 ) ;
#371 = VERTEX_POINT ( 'NONE', #377 ) ;
#372 = EDGE_CURVE ( 'NONE', #110, #281, #102, .T. ) ;
#373 = VERTEX_POINT ( 'NONE', #246 ) ;
#374 = DIRECTION ( 'NONE',  ( 0.000000000000000000, 0.000000000000000000, 1.000000000000000000 ) ) ;
#375 = ORIENTED_EDGE ( 'NONE', *, *, #259, .T. ) ;
#376 = EDGE_CURVE ( 'NONE', #319, #103, #22, .T. ) ;
#377 = CARTESIAN_POINT ( 'NONE',  ( -7.000000000000000000, 0.000000000000000000, 0.000000000000000000 ) ) ;
#378 = ORIENTED_EDGE ( 'NONE', *, *, #123, .F. ) ;
#379 = PERSON ( 'NEURÈENÝ', 'NEURÈENÝ', 'NEURÈENÝ', ('NEURÈENÝ'), ('NEURÈENÝ'), ('NEURÈENÝ') ) ;
#380 = PERSON_AND_ORGANIZATION ( #379, #178 ) ;
#381 = FACE_OUTER_BOUND ( 'NONE', #21, .T. ) ;
ENDSEC;
END-ISO-10303-21;
