ISO-10303-21;
HEADER;
FILE_DESCRIPTION (( 'STEP AP203' ),
    '1' );
FILE_NAME ('808d.STEP',
    '2022-07-08T14:39:43',
    ( '' ),
    ( '' ),
    'SwSTEP 2.0',
    'SolidWorks 2019',
    '' );
FILE_SCHEMA (( 'CONFIG_CONTROL_DESIGN' ));
ENDSEC;

DATA;
#1 = EDGE_LOOP ( 'NONE', ( #57, #263 ) ) ;
#2 = PERSON_AND_ORGANIZATION ( #277, #145 ) ;
#3 = VERTEX_POINT ( 'NONE', #74 ) ;
#4 = COORDINATED_UNIVERSAL_TIME_OFFSET ( 1, 0, .AHEAD. ) ;
#5 = EDGE_LOOP ( 'NONE', ( #302, #29 ) ) ;
#6 = COORDINATED_UNIVERSAL_TIME_OFFSET ( 1, 0, .AHEAD. ) ;
#7 = CARTESIAN_POINT ( 'NONE',  ( 6.700000000000001066, 0.000000000000000000, 7.699999999999998401 ) ) ;
#8 = SECURITY_CLASSIFICATION ( '', '', #278 ) ;
#9 = APPROVAL_DATE_TIME ( #246, #72 ) ;
#10 = CIRCLE ( 'NONE', #31, 6.000000000000000888 ) ;
#11 = DIRECTION ( 'NONE',  ( 1.000000000000000000, 0.000000000000000000, -0.000000000000000000 ) ) ;
#12 = ORIENTED_EDGE ( 'NONE', *, *, #97, .F. ) ;
#13 = DIRECTION ( 'NONE',  ( -0.000000000000000000, -0.000000000000000000, -1.000000000000000000 ) ) ;
#14 = CC_DESIGN_APPROVAL ( #330, ( #365 ) ) ;
#15 = DIRECTION ( 'NONE',  ( 0.000000000000000000, 0.000000000000000000, 1.000000000000000000 ) ) ;
#16 = PRODUCT ( '808d', '808d', '', ( #208 ) ) ;
#17 = CARTESIAN_POINT ( 'NONE',  ( 4.000000000000000000, 4.898587196589411843E-16, 0.000000000000000000 ) ) ;
#18 = ORIENTED_EDGE ( 'NONE', *, *, #59, .F. ) ;
#19 = FACE_OUTER_BOUND ( 'NONE', #209, .T. ) ;
#20 = CARTESIAN_POINT ( 'NONE',  ( 0.000000000000000000, 0.000000000000000000, 7.000000000000000000 ) ) ;
#21 = ADVANCED_FACE ( 'NONE', ( #67 ), #159, .F. ) ;
#22 = DIRECTION ( 'NONE',  ( 1.000000000000000000, 0.000000000000000000, 0.000000000000000000 ) ) ;
#23 = DIRECTION ( 'NONE',  ( -0.000000000000000000, -0.000000000000000000, -1.000000000000000000 ) ) ;
#24 = EDGE_LOOP ( 'NONE', ( #178, #62, #350, #378 ) ) ;
#25 = CC_DESIGN_SECURITY_CLASSIFICATION ( #8, ( #365 ) ) ;
#26 = DIRECTION ( 'NONE',  ( -1.000000000000000000, 1.224646799147353454E-16, 0.000000000000000000 ) ) ;
#27 = VERTEX_POINT ( 'NONE', #251 ) ;
#28 = ORIENTED_EDGE ( 'NONE', *, *, #368, .F. ) ;
#29 = ORIENTED_EDGE ( 'NONE', *, *, #286, .T. ) ;
#30 = ADVANCED_FACE ( 'NONE', ( #65 ), #367, .T. ) ;
#31 = AXIS2_PLACEMENT_3D ( 'NONE', #110, #45, #294 ) ;
#32 = DIRECTION ( 'NONE',  ( 1.000000000000000000, 0.000000000000000000, 0.000000000000000000 ) ) ;
#33 = ORIENTED_EDGE ( 'NONE', *, *, #173, .T. ) ;
#34 = PERSON_AND_ORGANIZATION ( #277, #145 ) ;
#35 = DIRECTION ( 'NONE',  ( -1.000000000000000000, 0.000000000000000000, 0.000000000000000000 ) ) ;
#36 = DIRECTION ( 'NONE',  ( 0.000000000000000000, 0.000000000000000000, 1.000000000000000000 ) ) ;
#37 = DIRECTION ( 'NONE',  ( -0.000000000000000000, -0.000000000000000000, -1.000000000000000000 ) ) ;
#38 = PERSON_AND_ORGANIZATION ( #277, #145 ) ;
#39 = CARTESIAN_POINT ( 'NONE',  ( 0.000000000000000000, 0.000000000000000000, 107.0000000000000142 ) ) ;
#40 = AXIS2_PLACEMENT_3D ( 'NONE', #357, #37, #243 ) ;
#41 = CC_DESIGN_PERSON_AND_ORGANIZATION_ASSIGNMENT ( #129, #248, ( #8 ) ) ;
#42 = FACE_OUTER_BOUND ( 'NONE', #5, .T. ) ;
#43 = AXIS2_PLACEMENT_3D ( 'NONE', #259, #174, #81 ) ;
#44 = DIRECTION ( 'NONE',  ( 0.000000000000000000, 0.000000000000000000, 1.000000000000000000 ) ) ;
#45 = DIRECTION ( 'NONE',  ( 0.000000000000000000, 0.000000000000000000, 1.000000000000000000 ) ) ;
#46 = VECTOR ( 'NONE', #13, 1000.000000000000000 ) ;
#47 = DIRECTION ( 'NONE',  ( -0.000000000000000000, -0.000000000000000000, -1.000000000000000000 ) ) ;
#48 = DIRECTION ( 'NONE',  ( 0.000000000000000000, 0.000000000000000000, 1.000000000000000000 ) ) ;
#49 = LOCAL_TIME ( 16, 39, 43.00000000000000000, #162 ) ;
#50 = AXIS2_PLACEMENT_3D ( 'NONE', #172, #318, #292 ) ;
#51 = CARTESIAN_POINT ( 'NONE',  ( 0.000000000000000000, 0.000000000000000000, 7.699999999999998401 ) ) ;
#52 = CARTESIAN_POINT ( 'NONE',  ( 0.000000000000000000, 0.000000000000000000, 0.000000000000000000 ) ) ;
#53 = ORIENTED_EDGE ( 'NONE', *, *, #59, .T. ) ;
#54 = DIRECTION ( 'NONE',  ( 1.000000000000000000, 0.000000000000000000, 0.000000000000000000 ) ) ;
#55 = VERTEX_POINT ( 'NONE', #304 ) ;
#56 = CC_DESIGN_APPROVAL ( #72, ( #83 ) ) ;
#57 = ORIENTED_EDGE ( 'NONE', *, *, #347, .F. ) ;
#58 = ORIENTED_EDGE ( 'NONE', *, *, #210, .F. ) ;
#59 = EDGE_CURVE ( 'NONE', #201, #266, #281, .T. ) ;
#60 = CIRCLE ( 'NONE', #163, 10.00000000000000000 ) ;
#61 = CALENDAR_DATE ( 2022, 8, 7 ) ;
#62 = ORIENTED_EDGE ( 'NONE', *, *, #141, .T. ) ;
#63 = MANIFOLD_SOLID_BREP ( 'Odebrat vysunutím3', #272 ) ;
#64 =( GEOMETRIC_REPRESENTATION_CONTEXT ( 3 ) GLOBAL_UNCERTAINTY_ASSIGNED_CONTEXT ( ( #190 ) ) GLOBAL_UNIT_ASSIGNED_CONTEXT ( ( #351, #377, #323 ) ) REPRESENTATION_CONTEXT ( 'NONE', 'WORKASPACE' ) );
#65 = FACE_OUTER_BOUND ( 'NONE', #120, .T. ) ;
#66 = COORDINATED_UNIVERSAL_TIME_OFFSET ( 1, 0, .AHEAD. ) ;
#67 = FACE_OUTER_BOUND ( 'NONE', #24, .T. ) ;
#68 = DIRECTION ( 'NONE',  ( -0.000000000000000000, -0.000000000000000000, -1.000000000000000000 ) ) ;
#69 = DATE_AND_TIME ( #274, #49 ) ;
#70 = DIRECTION ( 'NONE',  ( 0.000000000000000000, 0.000000000000000000, 1.000000000000000000 ) ) ;
#71 = ADVANCED_FACE ( 'NONE', ( #249, #42 ), #107, .T. ) ;
#72 = APPROVAL ( #270, 'NEURÈENÝ' ) ;
#73 = PERSON_AND_ORGANIZATION_ROLE ( 'creator' ) ;
#74 = CARTESIAN_POINT ( 'NONE',  ( 6.000000000000000888, 7.347880794884120722E-16, 7.699999999999998401 ) ) ;
#75 = EDGE_CURVE ( 'NONE', #3, #96, #315, .T. ) ;
#76 = DIRECTION ( 'NONE',  ( 1.000000000000000000, 0.000000000000000000, 0.000000000000000000 ) ) ;
#77 = DIRECTION ( 'NONE',  ( 0.000000000000000000, 0.000000000000000000, 1.000000000000000000 ) ) ;
#78 = AXIS2_PLACEMENT_3D ( 'NONE', #200, #23, #375 ) ;
#79 = DIRECTION ( 'NONE',  ( -0.000000000000000000, -0.000000000000000000, -1.000000000000000000 ) ) ;
#80 = ADVANCED_FACE ( 'NONE', ( #161 ), #305, .T. ) ;
#81 = DIRECTION ( 'NONE',  ( -1.000000000000000000, 0.000000000000000000, 0.000000000000000000 ) ) ;
#82 = CARTESIAN_POINT ( 'NONE',  ( 0.000000000000000000, 0.000000000000000000, 7.000000000000000000 ) ) ;
#83 = PRODUCT_DEFINITION ( 'NEZNÁMÝ', '', #365, #103 ) ;
#84 = CARTESIAN_POINT ( 'NONE',  ( 0.000000000000000000, 0.000000000000000000, 107.0000000000000142 ) ) ;
#85 = ORIENTED_EDGE ( 'NONE', *, *, #267, .T. ) ;
#86 = DIRECTION ( 'NONE',  ( -0.000000000000000000, -0.000000000000000000, -1.000000000000000000 ) ) ;
#87 = ORIENTED_EDGE ( 'NONE', *, *, #379, .T. ) ;
#88 = APPROVAL ( #331, 'NEURÈENÝ' ) ;
#89 = VECTOR ( 'NONE', #47, 1000.000000000000000 ) ;
#90 = EDGE_LOOP ( 'NONE', ( #28, #144, #176, #125 ) ) ;
#91 = APPROVAL_ROLE ( '' ) ;
#92 = VECTOR ( 'NONE', #102, 1000.000000000000000 ) ;
#93 = ORIENTED_EDGE ( 'NONE', *, *, #183, .F. ) ;
#94 = APPLICATION_CONTEXT ( 'configuration controlled 3d designs of mechanical parts and assemblies' ) ;
#95 = PERSON_AND_ORGANIZATION ( #277, #145 ) ;
#96 = VERTEX_POINT ( 'NONE', #127 ) ;
#97 = EDGE_CURVE ( 'NONE', #123, #3, #128, .T. ) ;
#98 = DATE_TIME_ROLE ( 'creation_date' ) ;
#99 = FACE_OUTER_BOUND ( 'NONE', #204, .T. ) ;
#100 = DATE_AND_TIME ( #358, #181 ) ;
#101 = LINE ( 'NONE', #363, #92 ) ;
#102 = DIRECTION ( 'NONE',  ( 0.000000000000000000, 0.000000000000000000, -1.000000000000000000 ) ) ;
#103 = DESIGN_CONTEXT ( 'detailed design', #94, 'design' ) ;
#104 = DATE_AND_TIME ( #364, #252 ) ;
#105 = DIRECTION ( 'NONE',  ( 1.000000000000000000, 0.000000000000000000, 0.000000000000000000 ) ) ;
#106 = ADVANCED_FACE ( 'NONE', ( #187, #273 ), #216, .T. ) ;
#107 = PLANE ( 'NONE',  #326 ) ;
#108 = CARTESIAN_POINT ( 'NONE',  ( 0.000000000000000000, 0.000000000000000000, 7.699999999999998401 ) ) ;
#109 = ORIENTED_EDGE ( 'NONE', *, *, #130, .F. ) ;
#110 = CARTESIAN_POINT ( 'NONE',  ( 0.000000000000000000, 0.000000000000000000, 7.699999999999998401 ) ) ;
#111 = CIRCLE ( 'NONE', #78, 4.000000000000000000 ) ;
#112 = FACE_OUTER_BOUND ( 'NONE', #147, .T. ) ;
#113 = AXIS2_PLACEMENT_3D ( 'NONE', #219, #217, #185 ) ;
#114 = LINE ( 'NONE', #170, #182 ) ;
#115 = CC_DESIGN_PERSON_AND_ORGANIZATION_ASSIGNMENT ( #34, #186, ( #365 ) ) ;
#116 = ADVANCED_FACE ( 'NONE', ( #99 ), #126, .T. ) ;
#117 = VERTEX_POINT ( 'NONE', #247 ) ;
#118 = EDGE_LOOP ( 'NONE', ( #18, #296 ) ) ;
#119 = AXIS2_PLACEMENT_3D ( 'NONE', #164, #15, #133 ) ;
#120 = EDGE_LOOP ( 'NONE', ( #238, #322, #175, #235 ) ) ;
#121 = CIRCLE ( 'NONE', #342, 6.700000000000001066 ) ;
#122 = PERSON_AND_ORGANIZATION_ROLE ( 'design_owner' ) ;
#123 = VERTEX_POINT ( 'NONE', #279 ) ;
#124 = PERSON_AND_ORGANIZATION_ROLE ( 'creator' ) ;
#125 = ORIENTED_EDGE ( 'NONE', *, *, #267, .F. ) ;
#126 = CYLINDRICAL_SURFACE ( 'NONE', #40, 10.00000000000000000 ) ;
#127 = CARTESIAN_POINT ( 'NONE',  ( 6.700000000000001066, 0.000000000000000000, 6.999999999999999112 ) ) ;
#128 = LINE ( 'NONE', #153, #46 ) ;
#129 = PERSON_AND_ORGANIZATION ( #277, #145 ) ;
#130 = EDGE_CURVE ( 'NONE', #269, #213, #207, .T. ) ;
#131 = AXIS2_PLACEMENT_3D ( 'NONE', #366, #70, #105 ) ;
#132 = DIRECTION ( 'NONE',  ( 0.000000000000000000, 0.000000000000000000, 1.000000000000000000 ) ) ;
#133 = DIRECTION ( 'NONE',  ( 1.000000000000000000, 0.000000000000000000, -0.000000000000000000 ) ) ;
#134 = CARTESIAN_POINT ( 'NONE',  ( 4.000000000000000000, 4.898587196589411843E-16, 107.0000000000000142 ) ) ;
#135 = ORIENTED_EDGE ( 'NONE', *, *, #344, .T. ) ;
#136 = EDGE_CURVE ( 'NONE', #201, #320, #101, .T. ) ;
#137 = DIRECTION ( 'NONE',  ( -0.000000000000000000, -0.000000000000000000, -1.000000000000000000 ) ) ;
#138 = DIRECTION ( 'NONE',  ( 1.000000000000000000, 0.000000000000000000, 0.000000000000000000 ) ) ;
#139 = DIRECTION ( 'NONE',  ( 1.000000000000000000, 0.000000000000000000, 0.000000000000000000 ) ) ;
#140 = CC_DESIGN_PERSON_AND_ORGANIZATION_ASSIGNMENT ( #282, #73, ( #83 ) ) ;
#141 = EDGE_CURVE ( 'NONE', #266, #201, #310, .T. ) ;
#142 = DIRECTION ( 'NONE',  ( 0.000000000000000000, 0.000000000000000000, 1.000000000000000000 ) ) ;
#143 = APPROVAL_PERSON_ORGANIZATION ( #38, #330, #191 ) ;
#144 = ORIENTED_EDGE ( 'NONE', *, *, #97, .T. ) ;
#145 = ORGANIZATION ( 'NEURÈENÝ', 'NEURÈENÝ', '' ) ;
#146 = DIRECTION ( 'NONE',  ( 0.000000000000000000, 0.000000000000000000, 1.000000000000000000 ) ) ;
#147 = EDGE_LOOP ( 'NONE', ( #53, #177, #87, #289 ) ) ;
#148 = DIRECTION ( 'NONE',  ( -0.000000000000000000, -0.000000000000000000, -1.000000000000000000 ) ) ;
#149 = EDGE_LOOP ( 'NONE', ( #12, #93, #85, #135 ) ) ;
#150 = ORIENTED_EDGE ( 'NONE', *, *, #293, .F. ) ;
#151 = ORIENTED_EDGE ( 'NONE', *, *, #286, .F. ) ;
#152 = PRODUCT_RELATED_PRODUCT_CATEGORY ( 'detail', '', ( #16 ) ) ;
#153 = CARTESIAN_POINT ( 'NONE',  ( 6.000000000000000888, 7.347880794884120722E-16, 107.0000000000000142 ) ) ;
#154 = AXIS2_PLACEMENT_3D ( 'NONE', #254, #314, #139 ) ;
#155 = ADVANCED_BREP_SHAPE_REPRESENTATION ( '808d', ( #63, #307 ), #64 ) ;
#156 = APPROVAL_STATUS ( 'not_yet_approved' ) ;
#157 = DIRECTION ( 'NONE',  ( 0.000000000000000000, 0.000000000000000000, 1.000000000000000000 ) ) ;
#158 = APPROVAL_DATE_TIME ( #100, #330 ) ;
#159 = CYLINDRICAL_SURFACE ( 'NONE', #380, 4.000000000000000000 ) ;
#160 = AXIS2_PLACEMENT_3D ( 'NONE', #7, #333, #337 ) ;
#161 = FACE_OUTER_BOUND ( 'NONE', #149, .T. ) ;
#162 = COORDINATED_UNIVERSAL_TIME_OFFSET ( 1, 0, .AHEAD. ) ;
#163 = AXIS2_PLACEMENT_3D ( 'NONE', #258, #225, #22 ) ;
#164 = CARTESIAN_POINT ( 'NONE',  ( 0.000000000000000000, 0.000000000000000000, 0.000000000000000000 ) ) ;
#165 = LOCAL_TIME ( 16, 39, 43.00000000000000000, #66 ) ;
#166 = CYLINDRICAL_SURFACE ( 'NONE', #188, 6.000000000000000888 ) ;
#167 = ORIENTED_EDGE ( 'NONE', *, *, #373, .T. ) ;
#168 = LINE ( 'NONE', #371, #89 ) ;
#169 = AXIS2_PLACEMENT_3D ( 'NONE', #275, #157, #334 ) ;
#170 = CARTESIAN_POINT ( 'NONE',  ( -10.00000000000000000, 0.000000000000000000, 7.000000000000000000 ) ) ;
#171 = ADVANCED_FACE ( 'NONE', ( #287, #221 ), #311, .F. ) ;
#172 = CARTESIAN_POINT ( 'NONE',  ( 0.000000000000000000, 0.000000000000000000, 7.699999999999998401 ) ) ;
#173 = EDGE_CURVE ( 'NONE', #96, #202, #321, .T. ) ;
#174 = DIRECTION ( 'NONE',  ( 0.000000000000000000, 0.000000000000000000, -1.000000000000000000 ) ) ;
#175 = ORIENTED_EDGE ( 'NONE', *, *, #309, .T. ) ;
#176 = ORIENTED_EDGE ( 'NONE', *, *, #293, .T. ) ;
#177 = ORIENTED_EDGE ( 'NONE', *, *, #329, .T. ) ;
#178 = ORIENTED_EDGE ( 'NONE', *, *, #329, .F. ) ;
#179 = CC_DESIGN_PERSON_AND_ORGANIZATION_ASSIGNMENT ( #360, #124, ( #365 ) ) ;
#180 = EDGE_LOOP ( 'NONE', ( #109, #58 ) ) ;
#181 = LOCAL_TIME ( 16, 39, 43.00000000000000000, #4 ) ;
#182 = VECTOR ( 'NONE', #257, 1000.000000000000000 ) ;
#183 = EDGE_CURVE ( 'NONE', #55, #123, #285, .T. ) ;
#184 = DIRECTION ( 'NONE',  ( 0.000000000000000000, 0.000000000000000000, -1.000000000000000000 ) ) ;
#185 = DIRECTION ( 'NONE',  ( -1.000000000000000000, 0.000000000000000000, 0.000000000000000000 ) ) ;
#186 = PERSON_AND_ORGANIZATION_ROLE ( 'design_supplier' ) ;
#187 = FACE_BOUND ( 'NONE', #118, .T. ) ;
#188 = AXIS2_PLACEMENT_3D ( 'NONE', #193, #79, #196 ) ;
#189 = CARTESIAN_POINT ( 'NONE',  ( 0.000000000000000000, 0.000000000000000000, 107.0000000000000142 ) ) ;
#190 = UNCERTAINTY_MEASURE_WITH_UNIT (LENGTH_MEASURE( 1.000000000000000082E-05 ), #351, 'distance_accuracy_value', 'NONE');
#191 = APPROVAL_ROLE ( '' ) ;
#192 = CARTESIAN_POINT ( 'NONE',  ( 0.000000000000000000, 0.000000000000000000, 0.000000000000000000 ) ) ;
#193 = CARTESIAN_POINT ( 'NONE',  ( 0.000000000000000000, 0.000000000000000000, 107.0000000000000142 ) ) ;
#194 = APPROVAL_PERSON_ORGANIZATION ( #353, #72, #91 ) ;
#195 = CARTESIAN_POINT ( 'NONE',  ( -10.00000000000000000, 0.000000000000000000, 0.000000000000000000 ) ) ;
#196 = DIRECTION ( 'NONE',  ( -1.000000000000000000, 0.000000000000000000, 0.000000000000000000 ) ) ;
#197 = ADVANCED_FACE ( 'NONE', ( #19 ), #203, .F. ) ;
#198 = AXIS2_PLACEMENT_3D ( 'NONE', #189, #68, #35 ) ;
#199 = CARTESIAN_POINT ( 'NONE',  ( 4.000000000000000000, 4.898587196589411843E-16, 107.0000000000000142 ) ) ;
#200 = CARTESIAN_POINT ( 'NONE',  ( 0.000000000000000000, 0.000000000000000000, 0.000000000000000000 ) ) ;
#201 = VERTEX_POINT ( 'NONE', #316 ) ;
#202 = VERTEX_POINT ( 'NONE', #346 ) ;
#203 = TOROIDAL_SURFACE ( 'NONE', #211, 6.700000000000001066, 0.6999999999999999556 ) ;
#204 = EDGE_LOOP ( 'NONE', ( #151, #355, #234, #354 ) ) ;
#205 = APPLICATION_PROTOCOL_DEFINITION ( 'international standard', 'config_control_design', 1994, #362 ) ;
#206 = ORIENTED_EDGE ( 'NONE', *, *, #361, .F. ) ;
#207 = CIRCLE ( 'NONE', #260, 10.00000000000000000 ) ;
#208 = MECHANICAL_CONTEXT ( 'NONE', #362, 'mechanical' ) ;
#209 = EDGE_LOOP ( 'NONE', ( #206, #150, #381, #299 ) ) ;
#210 = EDGE_CURVE ( 'NONE', #213, #269, #60, .T. ) ;
#211 = AXIS2_PLACEMENT_3D ( 'NONE', #108, #44, #138 ) ;
#212 = CALENDAR_DATE ( 2022, 8, 7 ) ;
#213 = VERTEX_POINT ( 'NONE', #341 ) ;
#214 = CIRCLE ( 'NONE', #236, 0.7000000000000000666 ) ;
#215 = SHAPE_DEFINITION_REPRESENTATION ( #220, #155 ) ;
#216 = PLANE ( 'NONE',  #372 ) ;
#217 = DIRECTION ( 'NONE',  ( -0.000000000000000000, -0.000000000000000000, -1.000000000000000000 ) ) ;
#218 = DATE_TIME_ROLE ( 'classification_date' ) ;
#219 = CARTESIAN_POINT ( 'NONE',  ( 0.000000000000000000, 0.000000000000000000, 7.000000000000000000 ) ) ;
#220 = PRODUCT_DEFINITION_SHAPE ( 'NONE', 'NONE',  #83 ) ;
#221 = FACE_OUTER_BOUND ( 'NONE', #180, .T. ) ;
#222 = CARTESIAN_POINT ( 'NONE',  ( 0.000000000000000000, 0.000000000000000000, 107.0000000000000142 ) ) ;
#223 = CARTESIAN_POINT ( 'NONE',  ( -10.00000000000000000, 0.000000000000000000, 7.000000000000000000 ) ) ;
#224 = LOCAL_TIME ( 16, 39, 43.00000000000000000, #327 ) ;
#225 = DIRECTION ( 'NONE',  ( 0.000000000000000000, 0.000000000000000000, 1.000000000000000000 ) ) ;
#226 = ADVANCED_FACE ( 'NONE', ( #112 ), #228, .F. ) ;
#227 = CARTESIAN_POINT ( 'NONE',  ( -4.000000000000000000, 0.000000000000000000, 0.000000000000000000 ) ) ;
#228 = CYLINDRICAL_SURFACE ( 'NONE', #43, 4.000000000000000000 ) ;
#229 = CC_DESIGN_APPROVAL ( #88, ( #8 ) ) ;
#230 = DIRECTION ( 'NONE',  ( 1.224646799147353207E-16, 1.000000000000000000, -0.000000000000000000 ) ) ;
#231 = DIRECTION ( 'NONE',  ( 1.000000000000000000, 0.000000000000000000, 0.000000000000000000 ) ) ;
#232 = EDGE_LOOP ( 'NONE', ( #325, #300, #271, #298 ) ) ;
#233 = CARTESIAN_POINT ( 'NONE',  ( 0.000000000000000000, 0.000000000000000000, 0.000000000000000000 ) ) ;
#234 = ORIENTED_EDGE ( 'NONE', *, *, #210, .T. ) ;
#235 = ORIENTED_EDGE ( 'NONE', *, *, #130, .T. ) ;
#236 = AXIS2_PLACEMENT_3D ( 'NONE', #369, #230, #26 ) ;
#237 = APPLICATION_PROTOCOL_DEFINITION ( 'international standard', 'config_control_design', 1994, #94 ) ;
#238 = ORIENTED_EDGE ( 'NONE', *, *, #303, .F. ) ;
#239 = DATE_AND_TIME ( #212, #165 ) ;
#240 = EDGE_LOOP ( 'NONE', ( #352, #328 ) ) ;
#241 = AXIS2_PLACEMENT_3D ( 'NONE', #20, #374, #343 ) ;
#242 = APPROVAL_DATE_TIME ( #104, #88 ) ;
#243 = DIRECTION ( 'NONE',  ( -1.000000000000000000, 0.000000000000000000, 0.000000000000000000 ) ) ;
#244 = AXIS2_PLACEMENT_3D ( 'NONE', #233, #86, #54 ) ;
#245 = CC_DESIGN_PERSON_AND_ORGANIZATION_ASSIGNMENT ( #2, #122, ( #16 ) ) ;
#246 = DATE_AND_TIME ( #61, #224 ) ;
#247 = CARTESIAN_POINT ( 'NONE',  ( -6.000000000000000888, 0.000000000000000000, 7.699999999999998401 ) ) ;
#248 = PERSON_AND_ORGANIZATION_ROLE ( 'classification_officer' ) ;
#249 = FACE_BOUND ( 'NONE', #324, .T. ) ;
#250 = APPROVAL_ROLE ( '' ) ;
#251 = CARTESIAN_POINT ( 'NONE',  ( 10.00000000000000000, 1.224646799147353256E-15, 7.000000000000000000 ) ) ;
#252 = LOCAL_TIME ( 16, 39, 43.00000000000000000, #6 ) ;
#253 = AXIS2_PLACEMENT_3D ( 'NONE', #51, #48, #290 ) ;
#254 = CARTESIAN_POINT ( 'NONE',  ( 0.000000000000000000, 0.000000000000000000, 7.000000000000000000 ) ) ;
#255 = DIRECTION ( 'NONE',  ( 0.000000000000000000, 0.000000000000000000, 1.000000000000000000 ) ) ;
#256 = CIRCLE ( 'NONE', #241, 10.00000000000000000 ) ;
#257 = DIRECTION ( 'NONE',  ( -0.000000000000000000, -0.000000000000000000, -1.000000000000000000 ) ) ;
#258 = CARTESIAN_POINT ( 'NONE',  ( 0.000000000000000000, 0.000000000000000000, 0.000000000000000000 ) ) ;
#259 = CARTESIAN_POINT ( 'NONE',  ( 0.000000000000000000, 0.000000000000000000, 107.0000000000000142 ) ) ;
#260 = AXIS2_PLACEMENT_3D ( 'NONE', #192, #132, #359 ) ;
#261 = LINE ( 'NONE', #199, #262 ) ;
#262 = VECTOR ( 'NONE', #291, 1000.000000000000000 ) ;
#263 = ORIENTED_EDGE ( 'NONE', *, *, #379, .F. ) ;
#264 = CARTESIAN_POINT ( 'NONE',  ( 0.000000000000000000, 0.000000000000000000, 7.000000000000000000 ) ) ;
#265 = VERTEX_POINT ( 'NONE', #223 ) ;
#266 = VERTEX_POINT ( 'NONE', #134 ) ;
#267 = EDGE_CURVE ( 'NONE', #55, #117, #340, .T. ) ;
#268 = CIRCLE ( 'NONE', #253, 6.000000000000000888 ) ;
#269 = VERTEX_POINT ( 'NONE', #195 ) ;
#270 = APPROVAL_STATUS ( 'not_yet_approved' ) ;
#271 = ORIENTED_EDGE ( 'NONE', *, *, #173, .F. ) ;
#272 = CLOSED_SHELL ( 'NONE', ( #226, #338, #283, #116, #30, #71, #171, #80, #106, #197, #21 ) ) ;
#273 = FACE_OUTER_BOUND ( 'NONE', #240, .T. ) ;
#274 = CALENDAR_DATE ( 2022, 8, 7 ) ;
#275 = CARTESIAN_POINT ( 'NONE',  ( 0.000000000000000000, 0.000000000000000000, 107.0000000000000142 ) ) ;
#276 = AXIS2_PLACEMENT_3D ( 'NONE', #82, #255, #370 ) ;
#277 = PERSON ( 'NEURÈENÝ', 'NEURÈENÝ', 'NEURÈENÝ', ('NEURÈENÝ'), ('NEURÈENÝ'), ('NEURÈENÝ') ) ;
#278 = SECURITY_CLASSIFICATION_LEVEL ( 'unclassified' ) ;
#279 = CARTESIAN_POINT ( 'NONE',  ( 6.000000000000000888, 7.347880794884120722E-16, 107.0000000000000142 ) ) ;
#280 = EDGE_CURVE ( 'NONE', #265, #27, #256, .T. ) ;
#281 = CIRCLE ( 'NONE', #169, 4.000000000000000000 ) ;
#282 = PERSON_AND_ORGANIZATION ( #277, #145 ) ;
#283 = ADVANCED_FACE ( 'NONE', ( #312 ), #166, .T. ) ;
#284 = DIRECTION ( 'NONE',  ( -1.000000000000000000, 0.000000000000000000, 0.000000000000000000 ) ) ;
#285 = CIRCLE ( 'NONE', #345, 6.000000000000000888 ) ;
#286 = EDGE_CURVE ( 'NONE', #27, #265, #332, .T. ) ;
#287 = FACE_BOUND ( 'NONE', #1, .T. ) ;
#288 = FACE_OUTER_BOUND ( 'NONE', #232, .T. ) ;
#289 = ORIENTED_EDGE ( 'NONE', *, *, #136, .F. ) ;
#290 = DIRECTION ( 'NONE',  ( 1.000000000000000000, 0.000000000000000000, 0.000000000000000000 ) ) ;
#291 = DIRECTION ( 'NONE',  ( 0.000000000000000000, 0.000000000000000000, -1.000000000000000000 ) ) ;
#292 = DIRECTION ( 'NONE',  ( 1.000000000000000000, 0.000000000000000000, 0.000000000000000000 ) ) ;
#293 = EDGE_CURVE ( 'NONE', #3, #117, #10, .T. ) ;
#294 = DIRECTION ( 'NONE',  ( 1.000000000000000000, 0.000000000000000000, 0.000000000000000000 ) ) ;
#295 = VECTOR ( 'NONE', #137, 1000.000000000000000 ) ;
#296 = ORIENTED_EDGE ( 'NONE', *, *, #141, .F. ) ;
#297 = CIRCLE ( 'NONE', #244, 4.000000000000000000 ) ;
#298 = ORIENTED_EDGE ( 'NONE', *, *, #75, .F. ) ;
#299 = ORIENTED_EDGE ( 'NONE', *, *, #373, .F. ) ;
#300 = ORIENTED_EDGE ( 'NONE', *, *, #361, .T. ) ;
#301 = CIRCLE ( 'NONE', #313, 6.000000000000000888 ) ;
#302 = ORIENTED_EDGE ( 'NONE', *, *, #280, .T. ) ;
#303 = EDGE_CURVE ( 'NONE', #27, #213, #168, .T. ) ;
#304 = CARTESIAN_POINT ( 'NONE',  ( -6.000000000000000888, 0.000000000000000000, 107.0000000000000142 ) ) ;
#305 = CYLINDRICAL_SURFACE ( 'NONE', #198, 6.000000000000000888 ) ;
#306 = DIRECTION ( 'NONE',  ( 0.000000000000000000, 0.000000000000000000, 1.000000000000000000 ) ) ;
#307 = AXIS2_PLACEMENT_3D ( 'NONE', #52, #142, #319 ) ;
#308 = CARTESIAN_POINT ( 'NONE',  ( 0.000000000000000000, 0.000000000000000000, 107.0000000000000142 ) ) ;
#309 = EDGE_CURVE ( 'NONE', #265, #269, #114, .T. ) ;
#310 = CIRCLE ( 'NONE', #131, 4.000000000000000000 ) ;
#311 = PLANE ( 'NONE',  #119 ) ;
#312 = FACE_OUTER_BOUND ( 'NONE', #90, .T. ) ;
#313 = AXIS2_PLACEMENT_3D ( 'NONE', #84, #146, #32 ) ;
#314 = DIRECTION ( 'NONE',  ( -0.000000000000000000, -0.000000000000000000, -1.000000000000000000 ) ) ;
#315 = CIRCLE ( 'NONE', #160, 0.7000000000000000666 ) ;
#316 = CARTESIAN_POINT ( 'NONE',  ( -4.000000000000000000, 0.000000000000000000, 107.0000000000000142 ) ) ;
#317 = CARTESIAN_POINT ( 'NONE',  ( -6.000000000000000888, 0.000000000000000000, 107.0000000000000142 ) ) ;
#318 = DIRECTION ( 'NONE',  ( 0.000000000000000000, 0.000000000000000000, 1.000000000000000000 ) ) ;
#319 = DIRECTION ( 'NONE',  ( 1.000000000000000000, 0.000000000000000000, 0.000000000000000000 ) ) ;
#320 = VERTEX_POINT ( 'NONE', #227 ) ;
#321 = CIRCLE ( 'NONE', #154, 6.700000000000001066 ) ;
#322 = ORIENTED_EDGE ( 'NONE', *, *, #280, .F. ) ;
#323 =( NAMED_UNIT ( * ) SI_UNIT ( $, .STERADIAN. ) SOLID_ANGLE_UNIT ( ) );
#324 = EDGE_LOOP ( 'NONE', ( #33, #167 ) ) ;
#325 = ORIENTED_EDGE ( 'NONE', *, *, #344, .F. ) ;
#326 = AXIS2_PLACEMENT_3D ( 'NONE', #335, #36, #11 ) ;
#327 = COORDINATED_UNIVERSAL_TIME_OFFSET ( 1, 0, .AHEAD. ) ;
#328 = ORIENTED_EDGE ( 'NONE', *, *, #368, .T. ) ;
#329 = EDGE_CURVE ( 'NONE', #266, #348, #261, .T. ) ;
#330 = APPROVAL ( #156, 'NEURÈENÝ' ) ;
#331 = APPROVAL_STATUS ( 'not_yet_approved' ) ;
#332 = CIRCLE ( 'NONE', #276, 10.00000000000000000 ) ;
#333 = DIRECTION ( 'NONE',  ( 0.000000000000000000, -1.000000000000000000, 0.000000000000000000 ) ) ;
#334 = DIRECTION ( 'NONE',  ( 1.000000000000000000, 0.000000000000000000, 0.000000000000000000 ) ) ;
#335 = CARTESIAN_POINT ( 'NONE',  ( 0.000000000000000000, 0.000000000000000000, 7.000000000000000000 ) ) ;
#336 = APPROVAL_PERSON_ORGANIZATION ( #95, #88, #250 ) ;
#337 = DIRECTION ( 'NONE',  ( 0.000000000000000000, 0.000000000000000000, -1.000000000000000000 ) ) ;
#338 = ADVANCED_FACE ( 'NONE', ( #288 ), #376, .F. ) ;
#339 = DIRECTION ( 'NONE',  ( 1.000000000000000000, 0.000000000000000000, -0.000000000000000000 ) ) ;
#340 = LINE ( 'NONE', #317, #295 ) ;
#341 = CARTESIAN_POINT ( 'NONE',  ( 10.00000000000000000, 1.224646799147353256E-15, 0.000000000000000000 ) ) ;
#342 = AXIS2_PLACEMENT_3D ( 'NONE', #264, #148, #231 ) ;
#343 = DIRECTION ( 'NONE',  ( 1.000000000000000000, 0.000000000000000000, 0.000000000000000000 ) ) ;
#344 = EDGE_CURVE ( 'NONE', #117, #3, #268, .T. ) ;
#345 = AXIS2_PLACEMENT_3D ( 'NONE', #222, #77, #76 ) ;
#346 = CARTESIAN_POINT ( 'NONE',  ( -6.700000000000001066, 8.205133554287267548E-16, 6.999999999999999112 ) ) ;
#347 = EDGE_CURVE ( 'NONE', #320, #348, #111, .T. ) ;
#348 = VERTEX_POINT ( 'NONE', #17 ) ;
#349 = CC_DESIGN_DATE_AND_TIME_ASSIGNMENT ( #69, #98, ( #83 ) ) ;
#350 = ORIENTED_EDGE ( 'NONE', *, *, #136, .T. ) ;
#351 =( LENGTH_UNIT ( ) NAMED_UNIT ( * ) SI_UNIT ( .MILLI., .METRE. ) );
#352 = ORIENTED_EDGE ( 'NONE', *, *, #183, .T. ) ;
#353 = PERSON_AND_ORGANIZATION ( #277, #145 ) ;
#354 = ORIENTED_EDGE ( 'NONE', *, *, #309, .F. ) ;
#355 = ORIENTED_EDGE ( 'NONE', *, *, #303, .T. ) ;
#356 = CC_DESIGN_DATE_AND_TIME_ASSIGNMENT ( #239, #218, ( #8 ) ) ;
#357 = CARTESIAN_POINT ( 'NONE',  ( 0.000000000000000000, 0.000000000000000000, 7.000000000000000000 ) ) ;
#358 = CALENDAR_DATE ( 2022, 8, 7 ) ;
#359 = DIRECTION ( 'NONE',  ( 1.000000000000000000, 0.000000000000000000, 0.000000000000000000 ) ) ;
#360 = PERSON_AND_ORGANIZATION ( #277, #145 ) ;
#361 = EDGE_CURVE ( 'NONE', #117, #202, #214, .T. ) ;
#362 = APPLICATION_CONTEXT ( 'configuration controlled 3d designs of mechanical parts and assemblies' ) ;
#363 = CARTESIAN_POINT ( 'NONE',  ( -4.000000000000000000, 0.000000000000000000, 107.0000000000000142 ) ) ;
#364 = CALENDAR_DATE ( 2022, 8, 7 ) ;
#365 = PRODUCT_DEFINITION_FORMATION_WITH_SPECIFIED_SOURCE ( 'LIBOVOLNÝ', '', #16, .NOT_KNOWN. ) ;
#366 = CARTESIAN_POINT ( 'NONE',  ( 0.000000000000000000, 0.000000000000000000, 107.0000000000000142 ) ) ;
#367 = CYLINDRICAL_SURFACE ( 'NONE', #113, 10.00000000000000000 ) ;
#368 = EDGE_CURVE ( 'NONE', #123, #55, #301, .T. ) ;
#369 = CARTESIAN_POINT ( 'NONE',  ( -6.700000000000001066, 8.205133554287267548E-16, 7.699999999999998401 ) ) ;
#370 = DIRECTION ( 'NONE',  ( 1.000000000000000000, 0.000000000000000000, 0.000000000000000000 ) ) ;
#371 = CARTESIAN_POINT ( 'NONE',  ( 10.00000000000000000, 1.224646799147353256E-15, 7.000000000000000000 ) ) ;
#372 = AXIS2_PLACEMENT_3D ( 'NONE', #308, #306, #339 ) ;
#373 = EDGE_CURVE ( 'NONE', #202, #96, #121, .T. ) ;
#374 = DIRECTION ( 'NONE',  ( 0.000000000000000000, 0.000000000000000000, 1.000000000000000000 ) ) ;
#375 = DIRECTION ( 'NONE',  ( 1.000000000000000000, 0.000000000000000000, 0.000000000000000000 ) ) ;
#376 = TOROIDAL_SURFACE ( 'NONE', #50, 6.700000000000001066, 0.6999999999999999556 ) ;
#377 =( NAMED_UNIT ( * ) PLANE_ANGLE_UNIT ( ) SI_UNIT ( $, .RADIAN. ) );
#378 = ORIENTED_EDGE ( 'NONE', *, *, #347, .T. ) ;
#379 = EDGE_CURVE ( 'NONE', #348, #320, #297, .T. ) ;
#380 = AXIS2_PLACEMENT_3D ( 'NONE', #39, #184, #284 ) ;
#381 = ORIENTED_EDGE ( 'NONE', *, *, #75, .T. ) ;
ENDSEC;
END-ISO-10303-21;
