ISO-10303-21;
HEADER;
FILE_DESCRIPTION (( 'STEP AP203' ),
    '1' );
FILE_NAME ('b653.STEP',
    '2022-07-08T15:11:10',
    ( '' ),
    ( '' ),
    'SwSTEP 2.0',
    'SolidWorks 2019',
    '' );
FILE_SCHEMA (( 'CONFIG_CONTROL_DESIGN' ));
ENDSEC;

DATA;
#1 = CARTESIAN_POINT ( 'NONE',  ( 0.000000000000000000, 0.000000000000000000, 7.499999999999951150 ) ) ;
#2 = AXIS2_PLACEMENT_3D ( 'NONE', #242, #273, #125 ) ;
#3 = CARTESIAN_POINT ( 'NONE',  ( 10.00000000000000000, 1.224646799147353256E-15, 7.000000000000000000 ) ) ;
#4 = CARTESIAN_POINT ( 'NONE',  ( 6.500000000000000888, 0.000000000000000000, 6.999999999999975131 ) ) ;
#5 = VERTEX_POINT ( 'NONE', #317 ) ;
#6 = SECURITY_CLASSIFICATION_LEVEL ( 'unclassified' ) ;
#7 = CIRCLE ( 'NONE', #255, 6.500000000000000888 ) ;
#8 = CARTESIAN_POINT ( 'NONE',  ( 0.000000000000000000, 0.000000000000000000, 657.0000000000000000 ) ) ;
#9 = EDGE_CURVE ( 'NONE', #106, #203, #207, .T. ) ;
#10 = CC_DESIGN_APPROVAL ( #191, ( #151 ) ) ;
#11 = LINE ( 'NONE', #155, #265 ) ;
#12 = DIRECTION ( 'NONE',  ( -1.000000000000000000, 0.000000000000000000, 0.000000000000000000 ) ) ;
#13 = EDGE_CURVE ( 'NONE', #54, #102, #27, .T. ) ;
#14 = ORIENTED_EDGE ( 'NONE', *, *, #374, .F. ) ;
#15 = ORGANIZATION ( 'NEURÈENÝ', 'NEURÈENÝ', '' ) ;
#16 = EDGE_CURVE ( 'NONE', #109, #200, #149, .T. ) ;
#17 = COORDINATED_UNIVERSAL_TIME_OFFSET ( 1, 0, .AHEAD. ) ;
#18 = VERTEX_POINT ( 'NONE', #117 ) ;
#19 = CARTESIAN_POINT ( 'NONE',  ( -10.00000000000000000, 0.000000000000000000, 7.000000000000000000 ) ) ;
#20 = ORIENTED_EDGE ( 'NONE', *, *, #142, .F. ) ;
#21 = PERSON_AND_ORGANIZATION ( #375, #15 ) ;
#22 = ORIENTED_EDGE ( 'NONE', *, *, #9, .F. ) ;
#23 = AXIS2_PLACEMENT_3D ( 'NONE', #73, #157, #100 ) ;
#24 = EDGE_CURVE ( 'NONE', #172, #200, #135, .T. ) ;
#25 = AXIS2_PLACEMENT_3D ( 'NONE', #372, #364, #281 ) ;
#26 = ORIENTED_EDGE ( 'NONE', *, *, #237, .T. ) ;
#27 = LINE ( 'NONE', #29, #285 ) ;
#28 = CARTESIAN_POINT ( 'NONE',  ( 0.000000000000000000, 0.000000000000000000, 7.000000000000000000 ) ) ;
#29 = CARTESIAN_POINT ( 'NONE',  ( -6.000000000000000888, 0.000000000000000000, 657.0000000000000000 ) ) ;
#30 = PRODUCT ( 'b653', 'b653', '', ( #304 ) ) ;
#31 = CARTESIAN_POINT ( 'NONE',  ( -2.500000000000000000, 0.000000000000000000, 657.0000000000000000 ) ) ;
#32 = CARTESIAN_POINT ( 'NONE',  ( -10.00000000000000000, 0.000000000000000000, 7.000000000000000000 ) ) ;
#33 = EDGE_CURVE ( 'NONE', #109, #140, #313, .T. ) ;
#34 = AXIS2_PLACEMENT_3D ( 'NONE', #182, #116, #354 ) ;
#35 = CARTESIAN_POINT ( 'NONE',  ( 0.000000000000000000, 0.000000000000000000, 7.000000000000000000 ) ) ;
#36 = CIRCLE ( 'NONE', #2, 0.5000000000000004441 ) ;
#37 = CARTESIAN_POINT ( 'NONE',  ( 0.000000000000000000, 0.000000000000000000, 7.000000000000000000 ) ) ;
#38 = AXIS2_PLACEMENT_3D ( 'NONE', #289, #233, #153 ) ;
#39 = DIRECTION ( 'NONE',  ( -1.000000000000000000, 0.000000000000000000, 0.000000000000000000 ) ) ;
#40 = CIRCLE ( 'NONE', #249, 10.00000000000000000 ) ;
#41 = EDGE_CURVE ( 'NONE', #373, #54, #119, .T. ) ;
#42 = DIRECTION ( 'NONE',  ( 0.000000000000000000, 0.000000000000000000, 1.000000000000000000 ) ) ;
#43 = APPROVAL_PERSON_ORGANIZATION ( #21, #262, #131 ) ;
#44 = PERSON_AND_ORGANIZATION_ROLE ( 'design_supplier' ) ;
#45 = DIRECTION ( 'NONE',  ( 1.000000000000000000, 0.000000000000000000, -0.000000000000000000 ) ) ;
#46 = EDGE_CURVE ( 'NONE', #200, #172, #152, .T. ) ;
#47 = AXIS2_PLACEMENT_3D ( 'NONE', #269, #180, #318 ) ;
#48 = ORIENTED_EDGE ( 'NONE', *, *, #33, .T. ) ;
#49 = AXIS2_PLACEMENT_3D ( 'NONE', #28, #238, #148 ) ;
#50 = CARTESIAN_POINT ( 'NONE',  ( 6.000000000000000888, 7.347880794884120722E-16, 657.0000000000000000 ) ) ;
#51 = ORIENTED_EDGE ( 'NONE', *, *, #13, .F. ) ;
#52 = APPROVAL_PERSON_ORGANIZATION ( #227, #191, #196 ) ;
#53 = DIRECTION ( 'NONE',  ( 0.000000000000000000, 0.000000000000000000, 1.000000000000000000 ) ) ;
#54 = VERTEX_POINT ( 'NONE', #267 ) ;
#55 = COORDINATED_UNIVERSAL_TIME_OFFSET ( 1, 0, .AHEAD. ) ;
#56 = EDGE_LOOP ( 'NONE', ( #231, #174, #144, #51 ) ) ;
#57 = EDGE_CURVE ( 'NONE', #102, #219, #306, .T. ) ;
#58 = ORIENTED_EDGE ( 'NONE', *, *, #115, .T. ) ;
#59 = LOCAL_TIME ( 17, 11, 10.00000000000000000, #311 ) ;
#60 = PLANE ( 'NONE',  #177 ) ;
#61 = DIRECTION ( 'NONE',  ( 0.000000000000000000, 0.000000000000000000, -1.000000000000000000 ) ) ;
#62 = DIRECTION ( 'NONE',  ( 0.000000000000000000, 0.000000000000000000, 1.000000000000000000 ) ) ;
#63 = CIRCLE ( 'NONE', #363, 6.000000000000000888 ) ;
#64 = SECURITY_CLASSIFICATION ( '', '', #6 ) ;
#65 = DIRECTION ( 'NONE',  ( -1.000000000000000000, 1.224646799147351482E-16, 0.000000000000000000 ) ) ;
#66 = DIRECTION ( 'NONE',  ( 1.000000000000000000, 0.000000000000000000, 0.000000000000000000 ) ) ;
#67 = DIRECTION ( 'NONE',  ( 0.000000000000000000, 0.000000000000000000, 1.000000000000000000 ) ) ;
#68 = DIRECTION ( 'NONE',  ( -0.000000000000000000, -0.000000000000000000, -1.000000000000000000 ) ) ;
#69 = EDGE_CURVE ( 'NONE', #373, #168, #89, .T. ) ;
#70 = UNCERTAINTY_MEASURE_WITH_UNIT (LENGTH_MEASURE( 1.000000000000000082E-05 ), #105, 'distance_accuracy_value', 'NONE');
#71 = DIRECTION ( 'NONE',  ( -0.000000000000000000, -0.000000000000000000, -1.000000000000000000 ) ) ;
#72 = ADVANCED_FACE ( 'NONE', ( #87 ), #381, .F. ) ;
#73 = CARTESIAN_POINT ( 'NONE',  ( 0.000000000000000000, 0.000000000000000000, 657.0000000000000000 ) ) ;
#74 = FACE_OUTER_BOUND ( 'NONE', #170, .T. ) ;
#75 = ADVANCED_BREP_SHAPE_REPRESENTATION ( 'b653', ( #283, #25 ), #342 ) ;
#76 = EDGE_LOOP ( 'NONE', ( #79, #339 ) ) ;
#77 = DATE_AND_TIME ( #314, #112 ) ;
#78 = APPLICATION_PROTOCOL_DEFINITION ( 'international standard', 'config_control_design', 1994, #353 ) ;
#79 = ORIENTED_EDGE ( 'NONE', *, *, #33, .F. ) ;
#80 = APPROVAL_ROLE ( '' ) ;
#81 = EDGE_LOOP ( 'NONE', ( #194, #22, #85, #223 ) ) ;
#82 = PERSON_AND_ORGANIZATION_ROLE ( 'creator' ) ;
#83 = EDGE_LOOP ( 'NONE', ( #228, #166 ) ) ;
#84 = EDGE_CURVE ( 'NONE', #102, #168, #146, .T. ) ;
#85 = ORIENTED_EDGE ( 'NONE', *, *, #374, .T. ) ;
#86 = SHAPE_DEFINITION_REPRESENTATION ( #327, #75 ) ;
#87 = FACE_OUTER_BOUND ( 'NONE', #344, .T. ) ;
#88 = CIRCLE ( 'NONE', #94, 10.00000000000000000 ) ;
#89 = LINE ( 'NONE', #91, #164 ) ;
#90 = DIRECTION ( 'NONE',  ( -0.000000000000000000, -0.000000000000000000, -1.000000000000000000 ) ) ;
#91 = CARTESIAN_POINT ( 'NONE',  ( 6.000000000000000888, 7.347880794884120722E-16, 657.0000000000000000 ) ) ;
#92 = CIRCLE ( 'NONE', #239, 2.500000000000000000 ) ;
#93 = ADVANCED_FACE ( 'NONE', ( #120 ), #240, .T. ) ;
#94 = AXIS2_PLACEMENT_3D ( 'NONE', #326, #67, #184 ) ;
#95 = DIRECTION ( 'NONE',  ( 0.000000000000000000, 0.000000000000000000, 1.000000000000000000 ) ) ;
#96 = CC_DESIGN_DATE_AND_TIME_ASSIGNMENT ( #279, #286, ( #151 ) ) ;
#97 = DIRECTION ( 'NONE',  ( 0.000000000000000000, 0.000000000000000000, -1.000000000000000000 ) ) ;
#98 = FACE_OUTER_BOUND ( 'NONE', #56, .T. ) ;
#99 = ORIENTED_EDGE ( 'NONE', *, *, #137, .F. ) ;
#100 = DIRECTION ( 'NONE',  ( 1.000000000000000000, 0.000000000000000000, -0.000000000000000000 ) ) ;
#101 = DIRECTION ( 'NONE',  ( 0.000000000000000000, 0.000000000000000000, 1.000000000000000000 ) ) ;
#102 = VERTEX_POINT ( 'NONE', #292 ) ;
#103 = CIRCLE ( 'NONE', #49, 6.500000000000000888 ) ;
#104 = PRODUCT_DEFINITION_FORMATION_WITH_SPECIFIED_SOURCE ( 'LIBOVOLNÝ', '', #30, .NOT_KNOWN. ) ;
#105 =( LENGTH_UNIT ( ) NAMED_UNIT ( * ) SI_UNIT ( .MILLI., .METRE. ) );
#106 = VERTEX_POINT ( 'NONE', #32 ) ;
#107 = COORDINATED_UNIVERSAL_TIME_OFFSET ( 1, 0, .AHEAD. ) ;
#108 = LINE ( 'NONE', #19, #186 ) ;
#109 = VERTEX_POINT ( 'NONE', #324 ) ;
#110 = CALENDAR_DATE ( 2022, 8, 7 ) ;
#111 = ORIENTED_EDGE ( 'NONE', *, *, #248, .T. ) ;
#112 = LOCAL_TIME ( 17, 11, 10.00000000000000000, #226 ) ;
#113 = ORIENTED_EDGE ( 'NONE', *, *, #24, .T. ) ;
#114 = EDGE_LOOP ( 'NONE', ( #361, #358, #287, #376 ) ) ;
#115 = EDGE_CURVE ( 'NONE', #203, #106, #40, .T. ) ;
#116 = DIRECTION ( 'NONE',  ( -0.000000000000000000, -0.000000000000000000, -1.000000000000000000 ) ) ;
#117 = CARTESIAN_POINT ( 'NONE',  ( 10.00000000000000000, 1.224646799147353256E-15, 0.000000000000000000 ) ) ;
#118 = DIRECTION ( 'NONE',  ( 0.000000000000000000, 0.000000000000000000, 1.000000000000000000 ) ) ;
#119 = CIRCLE ( 'NONE', #296, 6.000000000000000888 ) ;
#120 = FACE_OUTER_BOUND ( 'NONE', #341, .T. ) ;
#121 = AXIS2_PLACEMENT_3D ( 'NONE', #37, #101, #45 ) ;
#122 = FACE_OUTER_BOUND ( 'NONE', #225, .T. ) ;
#123 = DIRECTION ( 'NONE',  ( 1.000000000000000000, 0.000000000000000000, 0.000000000000000000 ) ) ;
#124 = EDGE_CURVE ( 'NONE', #168, #102, #63, .T. ) ;
#125 = DIRECTION ( 'NONE',  ( 0.000000000000000000, 0.000000000000000000, -1.000000000000000000 ) ) ;
#126 = DIRECTION ( 'NONE',  ( 0.000000000000000000, 0.000000000000000000, -1.000000000000000000 ) ) ;
#127 = DIRECTION ( 'NONE',  ( 0.000000000000000000, 0.000000000000000000, 1.000000000000000000 ) ) ;
#128 = ADVANCED_FACE ( 'NONE', ( #206, #122 ), #60, .F. ) ;
#129 = AXIS2_PLACEMENT_3D ( 'NONE', #268, #210, #65 ) ;
#130 = LINE ( 'NONE', #355, #229 ) ;
#131 = APPROVAL_ROLE ( '' ) ;
#132 = ORIENTED_EDGE ( 'NONE', *, *, #9, .T. ) ;
#133 = CALENDAR_DATE ( 2022, 8, 7 ) ;
#134 = ORIENTED_EDGE ( 'NONE', *, *, #115, .F. ) ;
#135 = CIRCLE ( 'NONE', #47, 2.500000000000000000 ) ;
#136 = DIRECTION ( 'NONE',  ( 1.000000000000000000, 0.000000000000000000, 0.000000000000000000 ) ) ;
#137 = EDGE_CURVE ( 'NONE', #219, #345, #103, .T. ) ;
#138 = ORIENTED_EDGE ( 'NONE', *, *, #41, .T. ) ;
#139 = APPROVAL_STATUS ( 'not_yet_approved' ) ;
#140 = VERTEX_POINT ( 'NONE', #266 ) ;
#141 = APPROVAL ( #340, 'NEURÈENÝ' ) ;
#142 = EDGE_CURVE ( 'NONE', #345, #219, #7, .T. ) ;
#143 = CIRCLE ( 'NONE', #270, 6.000000000000000888 ) ;
#144 = ORIENTED_EDGE ( 'NONE', *, *, #124, .T. ) ;
#145 = ADVANCED_FACE ( 'NONE', ( #208, #322 ), #302, .T. ) ;
#146 = CIRCLE ( 'NONE', #190, 6.000000000000000888 ) ;
#147 = CARTESIAN_POINT ( 'NONE',  ( 0.000000000000000000, 0.000000000000000000, 7.499999999999951150 ) ) ;
#148 = DIRECTION ( 'NONE',  ( 1.000000000000000000, 0.000000000000000000, 0.000000000000000000 ) ) ;
#149 = LINE ( 'NONE', #31, #346 ) ;
#150 = DIRECTION ( 'NONE',  ( -0.000000000000000000, -0.000000000000000000, -1.000000000000000000 ) ) ;
#151 = PRODUCT_DEFINITION ( 'NEZNÁMÝ', '', #104, #253 ) ;
#152 = CIRCLE ( 'NONE', #201, 2.500000000000000000 ) ;
#153 = DIRECTION ( 'NONE',  ( 1.000000000000000000, 0.000000000000000000, 0.000000000000000000 ) ) ;
#154 = EDGE_CURVE ( 'NONE', #203, #18, #11, .T. ) ;
#155 = CARTESIAN_POINT ( 'NONE',  ( 10.00000000000000000, 1.224646799147353256E-15, 7.000000000000000000 ) ) ;
#156 = APPROVAL_DATE_TIME ( #278, #262 ) ;
#157 = DIRECTION ( 'NONE',  ( 0.000000000000000000, 0.000000000000000000, 1.000000000000000000 ) ) ;
#158 = FACE_OUTER_BOUND ( 'NONE', #282, .T. ) ;
#159 = AXIS2_PLACEMENT_3D ( 'NONE', #333, #68, #12 ) ;
#160 = FACE_OUTER_BOUND ( 'NONE', #114, .T. ) ;
#161 = ADVANCED_FACE ( 'NONE', ( #74 ), #309, .F. ) ;
#162 = PERSON_AND_ORGANIZATION_ROLE ( 'creator' ) ;
#163 = CARTESIAN_POINT ( 'NONE',  ( 0.000000000000000000, 0.000000000000000000, 657.0000000000000000 ) ) ;
#164 = VECTOR ( 'NONE', #234, 1000.000000000000000 ) ;
#165 = PERSON_AND_ORGANIZATION_ROLE ( 'design_owner' ) ;
#166 = ORIENTED_EDGE ( 'NONE', *, *, #137, .T. ) ;
#167 = PERSON_AND_ORGANIZATION ( #375, #15 ) ;
#168 = VERTEX_POINT ( 'NONE', #300 ) ;
#169 = DATE_AND_TIME ( #171, #179 ) ;
#170 = EDGE_LOOP ( 'NONE', ( #261, #222, #371, #99 ) ) ;
#171 = CALENDAR_DATE ( 2022, 8, 7 ) ;
#172 = VERTEX_POINT ( 'NONE', #360 ) ;
#173 = AXIS2_PLACEMENT_3D ( 'NONE', #328, #42, #359 ) ;
#174 = ORIENTED_EDGE ( 'NONE', *, *, #69, .T. ) ;
#175 = DIRECTION ( 'NONE',  ( 0.000000000000000000, 0.000000000000000000, 1.000000000000000000 ) ) ;
#176 = DIRECTION ( 'NONE',  ( -0.000000000000000000, -0.000000000000000000, -1.000000000000000000 ) ) ;
#177 = AXIS2_PLACEMENT_3D ( 'NONE', #379, #118, #291 ) ;
#178 = CARTESIAN_POINT ( 'NONE',  ( 0.000000000000000000, 0.000000000000000000, 657.0000000000000000 ) ) ;
#179 = LOCAL_TIME ( 17, 11, 10.00000000000000000, #55 ) ;
#180 = DIRECTION ( 'NONE',  ( -0.000000000000000000, -0.000000000000000000, -1.000000000000000000 ) ) ;
#181 = CLOSED_SHELL ( 'NONE', ( #369, #316, #352, #93, #185, #230, #128, #202, #145, #161, #72 ) ) ;
#182 = CARTESIAN_POINT ( 'NONE',  ( 0.000000000000000000, 0.000000000000000000, 7.000000000000000000 ) ) ;
#183 = EDGE_CURVE ( 'NONE', #140, #109, #92, .T. ) ;
#184 = DIRECTION ( 'NONE',  ( 1.000000000000000000, 0.000000000000000000, 0.000000000000000000 ) ) ;
#185 = ADVANCED_FACE ( 'NONE', ( #216 ), #303, .T. ) ;
#186 = VECTOR ( 'NONE', #366, 1000.000000000000000 ) ;
#187 = DIRECTION ( 'NONE',  ( -0.000000000000000000, -0.000000000000000000, -1.000000000000000000 ) ) ;
#188 = CARTESIAN_POINT ( 'NONE',  ( -6.500000000000000888, 7.960204194457796463E-16, 6.999999999999975131 ) ) ;
#189 = CARTESIAN_POINT ( 'NONE',  ( 0.000000000000000000, 0.000000000000000000, 657.0000000000000000 ) ) ;
#190 = AXIS2_PLACEMENT_3D ( 'NONE', #147, #377, #349 ) ;
#191 = APPROVAL ( #199, 'NEURÈENÝ' ) ;
#192 = PERSON_AND_ORGANIZATION ( #375, #15 ) ;
#193 =( NAMED_UNIT ( * ) PLANE_ANGLE_UNIT ( ) SI_UNIT ( $, .RADIAN. ) );
#194 = ORIENTED_EDGE ( 'NONE', *, *, #154, .F. ) ;
#195 = APPROVAL_DATE_TIME ( #77, #141 ) ;
#196 = APPROVAL_ROLE ( '' ) ;
#197 = ORIENTED_EDGE ( 'NONE', *, *, #183, .T. ) ;
#198 = ORIENTED_EDGE ( 'NONE', *, *, #248, .F. ) ;
#199 = APPROVAL_STATUS ( 'not_yet_approved' ) ;
#200 = VERTEX_POINT ( 'NONE', #271 ) ;
#201 = AXIS2_PLACEMENT_3D ( 'NONE', #241, #150, #295 ) ;
#202 = ADVANCED_FACE ( 'NONE', ( #160 ), #332, .T. ) ;
#203 = VERTEX_POINT ( 'NONE', #3 ) ;
#204 = DIRECTION ( 'NONE',  ( 1.000000000000000000, 0.000000000000000000, 0.000000000000000000 ) ) ;
#205 = AXIS2_PLACEMENT_3D ( 'NONE', #301, #71, #39 ) ;
#206 = FACE_BOUND ( 'NONE', #215, .T. ) ;
#207 = CIRCLE ( 'NONE', #38, 10.00000000000000000 ) ;
#208 = FACE_BOUND ( 'NONE', #76, .T. ) ;
#209 = DIRECTION ( 'NONE',  ( 0.000000000000000000, 0.000000000000000000, -1.000000000000000000 ) ) ;
#210 = DIRECTION ( 'NONE',  ( 1.224646799147353207E-16, 1.000000000000000000, -0.000000000000000000 ) ) ;
#211 = FACE_OUTER_BOUND ( 'NONE', #254, .T. ) ;
#212 = CARTESIAN_POINT ( 'NONE',  ( 0.000000000000000000, 0.000000000000000000, 7.499999999999951150 ) ) ;
#213 = TOROIDAL_SURFACE ( 'NONE', #294, 6.500000000000000888, 0.5000000000000000000 ) ;
#214 = DIRECTION ( 'NONE',  ( 0.000000000000000000, 0.000000000000000000, 1.000000000000000000 ) ) ;
#215 = EDGE_LOOP ( 'NONE', ( #280, #257 ) ) ;
#216 = FACE_OUTER_BOUND ( 'NONE', #81, .T. ) ;
#217 = AXIS2_PLACEMENT_3D ( 'NONE', #178, #61, #293 ) ;
#218 = FACE_BOUND ( 'NONE', #83, .T. ) ;
#219 = VERTEX_POINT ( 'NONE', #188 ) ;
#220 = APPLICATION_PROTOCOL_DEFINITION ( 'international standard', 'config_control_design', 1994, #348 ) ;
#221 = AXIS2_PLACEMENT_3D ( 'NONE', #335, #53, #136 ) ;
#222 = ORIENTED_EDGE ( 'NONE', *, *, #124, .F. ) ;
#223 = ORIENTED_EDGE ( 'NONE', *, *, #380, .T. ) ;
#224 = DATE_TIME_ROLE ( 'classification_date' ) ;
#225 = EDGE_LOOP ( 'NONE', ( #336, #310 ) ) ;
#226 = COORDINATED_UNIVERSAL_TIME_OFFSET ( 1, 0, .AHEAD. ) ;
#227 = PERSON_AND_ORGANIZATION ( #375, #15 ) ;
#228 = ORIENTED_EDGE ( 'NONE', *, *, #142, .T. ) ;
#229 = VECTOR ( 'NONE', #97, 1000.000000000000000 ) ;
#230 = ADVANCED_FACE ( 'NONE', ( #218, #211 ), #246, .T. ) ;
#231 = ORIENTED_EDGE ( 'NONE', *, *, #41, .F. ) ;
#232 = CC_DESIGN_PERSON_AND_ORGANIZATION_ASSIGNMENT ( #343, #82, ( #151 ) ) ;
#233 = DIRECTION ( 'NONE',  ( 0.000000000000000000, 0.000000000000000000, 1.000000000000000000 ) ) ;
#234 = DIRECTION ( 'NONE',  ( -0.000000000000000000, -0.000000000000000000, -1.000000000000000000 ) ) ;
#235 = CC_DESIGN_APPROVAL ( #262, ( #104 ) ) ;
#236 = CARTESIAN_POINT ( 'NONE',  ( 0.000000000000000000, 0.000000000000000000, 657.0000000000000000 ) ) ;
#237 = EDGE_CURVE ( 'NONE', #54, #373, #143, .T. ) ;
#238 = DIRECTION ( 'NONE',  ( -0.000000000000000000, -0.000000000000000000, -1.000000000000000000 ) ) ;
#239 = AXIS2_PLACEMENT_3D ( 'NONE', #189, #127, #245 ) ;
#240 = CYLINDRICAL_SURFACE ( 'NONE', #34, 10.00000000000000000 ) ;
#241 = CARTESIAN_POINT ( 'NONE',  ( 0.000000000000000000, 0.000000000000000000, 0.000000000000000000 ) ) ;
#242 = CARTESIAN_POINT ( 'NONE',  ( 6.500000000000000888, 0.000000000000000000, 7.499999999999951150 ) ) ;
#243 = DIRECTION ( 'NONE',  ( 0.000000000000000000, 0.000000000000000000, 1.000000000000000000 ) ) ;
#244 = PERSON_AND_ORGANIZATION ( #375, #15 ) ;
#245 = DIRECTION ( 'NONE',  ( 1.000000000000000000, 0.000000000000000000, 0.000000000000000000 ) ) ;
#246 = PLANE ( 'NONE',  #121 ) ;
#247 = AXIS2_PLACEMENT_3D ( 'NONE', #236, #323, #297 ) ;
#248 = EDGE_CURVE ( 'NONE', #140, #172, #130, .T. ) ;
#249 = AXIS2_PLACEMENT_3D ( 'NONE', #264, #95, #66 ) ;
#250 = ORIENTED_EDGE ( 'NONE', *, *, #263, .T. ) ;
#251 = APPROVAL_DATE_TIME ( #169, #191 ) ;
#252 = ORIENTED_EDGE ( 'NONE', *, *, #259, .F. ) ;
#253 = DESIGN_CONTEXT ( 'detailed design', #353, 'design' ) ;
#254 = EDGE_LOOP ( 'NONE', ( #132, #58 ) ) ;
#255 = AXIS2_PLACEMENT_3D ( 'NONE', #378, #90, #350 ) ;
#256 =( NAMED_UNIT ( * ) SI_UNIT ( $, .STERADIAN. ) SOLID_ANGLE_UNIT ( ) );
#257 = ORIENTED_EDGE ( 'NONE', *, *, #24, .F. ) ;
#258 = CC_DESIGN_APPROVAL ( #141, ( #64 ) ) ;
#259 = EDGE_CURVE ( 'NONE', #168, #345, #36, .T. ) ;
#260 = PERSON_AND_ORGANIZATION ( #375, #15 ) ;
#261 = ORIENTED_EDGE ( 'NONE', *, *, #57, .F. ) ;
#262 = APPROVAL ( #139, 'NEURÈENÝ' ) ;
#263 = EDGE_CURVE ( 'NONE', #18, #5, #88, .T. ) ;
#264 = CARTESIAN_POINT ( 'NONE',  ( 0.000000000000000000, 0.000000000000000000, 7.000000000000000000 ) ) ;
#265 = VECTOR ( 'NONE', #187, 1000.000000000000000 ) ;
#266 = CARTESIAN_POINT ( 'NONE',  ( 2.500000000000000000, 3.061616997868383141E-16, 657.0000000000000000 ) ) ;
#267 = CARTESIAN_POINT ( 'NONE',  ( -6.000000000000000888, 0.000000000000000000, 657.0000000000000000 ) ) ;
#268 = CARTESIAN_POINT ( 'NONE',  ( -6.500000000000000888, 7.960204194457796463E-16, 7.499999999999951150 ) ) ;
#269 = CARTESIAN_POINT ( 'NONE',  ( 0.000000000000000000, 0.000000000000000000, 0.000000000000000000 ) ) ;
#270 = AXIS2_PLACEMENT_3D ( 'NONE', #163, #214, #123 ) ;
#271 = CARTESIAN_POINT ( 'NONE',  ( -2.500000000000000000, 0.000000000000000000, 0.000000000000000000 ) ) ;
#272 = PERSON_AND_ORGANIZATION ( #375, #15 ) ;
#273 = DIRECTION ( 'NONE',  ( 0.000000000000000000, -1.000000000000000000, 0.000000000000000000 ) ) ;
#274 = CYLINDRICAL_SURFACE ( 'NONE', #319, 2.500000000000000000 ) ;
#275 = APPROVAL_PERSON_ORGANIZATION ( #260, #141, #80 ) ;
#276 = DIRECTION ( 'NONE',  ( -0.000000000000000000, -0.000000000000000000, -1.000000000000000000 ) ) ;
#277 = DIRECTION ( 'NONE',  ( -1.000000000000000000, 0.000000000000000000, 0.000000000000000000 ) ) ;
#278 = DATE_AND_TIME ( #133, #299 ) ;
#279 = DATE_AND_TIME ( #307, #59 ) ;
#280 = ORIENTED_EDGE ( 'NONE', *, *, #46, .F. ) ;
#281 = DIRECTION ( 'NONE',  ( 1.000000000000000000, 0.000000000000000000, 0.000000000000000000 ) ) ;
#282 = EDGE_LOOP ( 'NONE', ( #48, #111, #113, #370 ) ) ;
#283 = MANIFOLD_SOLID_BREP ( 'Odebrat vysunutím3', #181 ) ;
#284 = ORIENTED_EDGE ( 'NONE', *, *, #57, .T. ) ;
#285 = VECTOR ( 'NONE', #176, 1000.000000000000000 ) ;
#286 = DATE_TIME_ROLE ( 'creation_date' ) ;
#287 = ORIENTED_EDGE ( 'NONE', *, *, #13, .T. ) ;
#288 = AXIS2_PLACEMENT_3D ( 'NONE', #35, #276, #277 ) ;
#289 = CARTESIAN_POINT ( 'NONE',  ( 0.000000000000000000, 0.000000000000000000, 7.000000000000000000 ) ) ;
#290 = CIRCLE ( 'NONE', #221, 10.00000000000000000 ) ;
#291 = DIRECTION ( 'NONE',  ( 1.000000000000000000, 0.000000000000000000, -0.000000000000000000 ) ) ;
#292 = CARTESIAN_POINT ( 'NONE',  ( -6.000000000000000888, 0.000000000000000000, 7.499999999999951150 ) ) ;
#293 = DIRECTION ( 'NONE',  ( -1.000000000000000000, 0.000000000000000000, 0.000000000000000000 ) ) ;
#294 = AXIS2_PLACEMENT_3D ( 'NONE', #212, #243, #357 ) ;
#295 = DIRECTION ( 'NONE',  ( 1.000000000000000000, 0.000000000000000000, 0.000000000000000000 ) ) ;
#296 = AXIS2_PLACEMENT_3D ( 'NONE', #351, #175, #204 ) ;
#297 = DIRECTION ( 'NONE',  ( 1.000000000000000000, 0.000000000000000000, 0.000000000000000000 ) ) ;
#298 = PRODUCT_RELATED_PRODUCT_CATEGORY ( 'detail', '', ( #30 ) ) ;
#299 = LOCAL_TIME ( 17, 11, 10.00000000000000000, #17 ) ;
#300 = CARTESIAN_POINT ( 'NONE',  ( 6.000000000000000888, 7.347880794884120722E-16, 7.499999999999951150 ) ) ;
#301 = CARTESIAN_POINT ( 'NONE',  ( 0.000000000000000000, 0.000000000000000000, 657.0000000000000000 ) ) ;
#302 = PLANE ( 'NONE',  #23 ) ;
#303 = CYLINDRICAL_SURFACE ( 'NONE', #288, 10.00000000000000000 ) ;
#304 = MECHANICAL_CONTEXT ( 'NONE', #348, 'mechanical' ) ;
#305 = ORIENTED_EDGE ( 'NONE', *, *, #46, .T. ) ;
#306 = CIRCLE ( 'NONE', #129, 0.5000000000000004441 ) ;
#307 = CALENDAR_DATE ( 2022, 8, 7 ) ;
#308 = EDGE_LOOP ( 'NONE', ( #26, #138 ) ) ;
#309 = TOROIDAL_SURFACE ( 'NONE', #173, 6.500000000000000888, 0.5000000000000000000 ) ;
#310 = ORIENTED_EDGE ( 'NONE', *, *, #263, .F. ) ;
#311 = COORDINATED_UNIVERSAL_TIME_OFFSET ( 1, 0, .AHEAD. ) ;
#312 = ORIENTED_EDGE ( 'NONE', *, *, #84, .F. ) ;
#313 = CIRCLE ( 'NONE', #247, 2.500000000000000000 ) ;
#314 = CALENDAR_DATE ( 2022, 8, 7 ) ;
#315 = CC_DESIGN_PERSON_AND_ORGANIZATION_ASSIGNMENT ( #192, #331, ( #64 ) ) ;
#316 = ADVANCED_FACE ( 'NONE', ( #356 ), #213, .F. ) ;
#317 = CARTESIAN_POINT ( 'NONE',  ( -10.00000000000000000, 0.000000000000000000, 0.000000000000000000 ) ) ;
#318 = DIRECTION ( 'NONE',  ( 1.000000000000000000, 0.000000000000000000, 0.000000000000000000 ) ) ;
#319 = AXIS2_PLACEMENT_3D ( 'NONE', #8, #126, #368 ) ;
#320 = DIRECTION ( 'NONE',  ( 1.000000000000000000, 0.000000000000000000, 0.000000000000000000 ) ) ;
#321 = CC_DESIGN_DATE_AND_TIME_ASSIGNMENT ( #337, #224, ( #64 ) ) ;
#322 = FACE_OUTER_BOUND ( 'NONE', #308, .T. ) ;
#323 = DIRECTION ( 'NONE',  ( 0.000000000000000000, 0.000000000000000000, 1.000000000000000000 ) ) ;
#324 = CARTESIAN_POINT ( 'NONE',  ( -2.500000000000000000, 0.000000000000000000, 657.0000000000000000 ) ) ;
#325 = CC_DESIGN_PERSON_AND_ORGANIZATION_ASSIGNMENT ( #272, #162, ( #104 ) ) ;
#326 = CARTESIAN_POINT ( 'NONE',  ( 0.000000000000000000, 0.000000000000000000, 0.000000000000000000 ) ) ;
#327 = PRODUCT_DEFINITION_SHAPE ( 'NONE', 'NONE',  #151 ) ;
#328 = CARTESIAN_POINT ( 'NONE',  ( 0.000000000000000000, 0.000000000000000000, 7.499999999999951150 ) ) ;
#329 = CYLINDRICAL_SURFACE ( 'NONE', #205, 6.000000000000000888 ) ;
#330 = ORIENTED_EDGE ( 'NONE', *, *, #154, .T. ) ;
#331 = PERSON_AND_ORGANIZATION_ROLE ( 'classification_officer' ) ;
#332 = CYLINDRICAL_SURFACE ( 'NONE', #159, 6.000000000000000888 ) ;
#333 = CARTESIAN_POINT ( 'NONE',  ( 0.000000000000000000, 0.000000000000000000, 657.0000000000000000 ) ) ;
#334 = CC_DESIGN_SECURITY_CLASSIFICATION ( #64, ( #104 ) ) ;
#335 = CARTESIAN_POINT ( 'NONE',  ( 0.000000000000000000, 0.000000000000000000, 0.000000000000000000 ) ) ;
#336 = ORIENTED_EDGE ( 'NONE', *, *, #380, .F. ) ;
#337 = DATE_AND_TIME ( #110, #365 ) ;
#338 = CC_DESIGN_PERSON_AND_ORGANIZATION_ASSIGNMENT ( #244, #44, ( #104 ) ) ;
#339 = ORIENTED_EDGE ( 'NONE', *, *, #183, .F. ) ;
#340 = APPROVAL_STATUS ( 'not_yet_approved' ) ;
#341 = EDGE_LOOP ( 'NONE', ( #134, #330, #250, #14 ) ) ;
#342 =( GEOMETRIC_REPRESENTATION_CONTEXT ( 3 ) GLOBAL_UNCERTAINTY_ASSIGNED_CONTEXT ( ( #70 ) ) GLOBAL_UNIT_ASSIGNED_CONTEXT ( ( #105, #193, #256 ) ) REPRESENTATION_CONTEXT ( 'NONE', 'WORKASPACE' ) );
#343 = PERSON_AND_ORGANIZATION ( #375, #15 ) ;
#344 = EDGE_LOOP ( 'NONE', ( #198, #197, #367, #305 ) ) ;
#345 = VERTEX_POINT ( 'NONE', #4 ) ;
#346 = VECTOR ( 'NONE', #209, 1000.000000000000000 ) ;
#347 = EDGE_LOOP ( 'NONE', ( #312, #284, #20, #252 ) ) ;
#348 = APPLICATION_CONTEXT ( 'configuration controlled 3d designs of mechanical parts and assemblies' ) ;
#349 = DIRECTION ( 'NONE',  ( 1.000000000000000000, 0.000000000000000000, 0.000000000000000000 ) ) ;
#350 = DIRECTION ( 'NONE',  ( 1.000000000000000000, 0.000000000000000000, 0.000000000000000000 ) ) ;
#351 = CARTESIAN_POINT ( 'NONE',  ( 0.000000000000000000, 0.000000000000000000, 657.0000000000000000 ) ) ;
#352 = ADVANCED_FACE ( 'NONE', ( #98 ), #329, .T. ) ;
#353 = APPLICATION_CONTEXT ( 'configuration controlled 3d designs of mechanical parts and assemblies' ) ;
#354 = DIRECTION ( 'NONE',  ( -1.000000000000000000, 0.000000000000000000, 0.000000000000000000 ) ) ;
#355 = CARTESIAN_POINT ( 'NONE',  ( 2.500000000000000000, 3.061616997868383141E-16, 657.0000000000000000 ) ) ;
#356 = FACE_OUTER_BOUND ( 'NONE', #347, .T. ) ;
#357 = DIRECTION ( 'NONE',  ( 1.000000000000000000, 0.000000000000000000, 0.000000000000000000 ) ) ;
#358 = ORIENTED_EDGE ( 'NONE', *, *, #237, .F. ) ;
#359 = DIRECTION ( 'NONE',  ( 1.000000000000000000, 0.000000000000000000, 0.000000000000000000 ) ) ;
#360 = CARTESIAN_POINT ( 'NONE',  ( 2.500000000000000000, 3.061616997868383141E-16, 0.000000000000000000 ) ) ;
#361 = ORIENTED_EDGE ( 'NONE', *, *, #69, .F. ) ;
#362 = CC_DESIGN_PERSON_AND_ORGANIZATION_ASSIGNMENT ( #167, #165, ( #30 ) ) ;
#363 = AXIS2_PLACEMENT_3D ( 'NONE', #1, #62, #320 ) ;
#364 = DIRECTION ( 'NONE',  ( 0.000000000000000000, 0.000000000000000000, 1.000000000000000000 ) ) ;
#365 = LOCAL_TIME ( 17, 11, 10.00000000000000000, #107 ) ;
#366 = DIRECTION ( 'NONE',  ( -0.000000000000000000, -0.000000000000000000, -1.000000000000000000 ) ) ;
#367 = ORIENTED_EDGE ( 'NONE', *, *, #16, .T. ) ;
#368 = DIRECTION ( 'NONE',  ( -1.000000000000000000, 0.000000000000000000, 0.000000000000000000 ) ) ;
#369 = ADVANCED_FACE ( 'NONE', ( #158 ), #274, .F. ) ;
#370 = ORIENTED_EDGE ( 'NONE', *, *, #16, .F. ) ;
#371 = ORIENTED_EDGE ( 'NONE', *, *, #259, .T. ) ;
#372 = CARTESIAN_POINT ( 'NONE',  ( 0.000000000000000000, 0.000000000000000000, 0.000000000000000000 ) ) ;
#373 = VERTEX_POINT ( 'NONE', #50 ) ;
#374 = EDGE_CURVE ( 'NONE', #106, #5, #108, .T. ) ;
#375 = PERSON ( 'NEURÈENÝ', 'NEURÈENÝ', 'NEURÈENÝ', ('NEURÈENÝ'), ('NEURÈENÝ'), ('NEURÈENÝ') ) ;
#376 = ORIENTED_EDGE ( 'NONE', *, *, #84, .T. ) ;
#377 = DIRECTION ( 'NONE',  ( 0.000000000000000000, 0.000000000000000000, 1.000000000000000000 ) ) ;
#378 = CARTESIAN_POINT ( 'NONE',  ( 0.000000000000000000, 0.000000000000000000, 7.000000000000000000 ) ) ;
#379 = CARTESIAN_POINT ( 'NONE',  ( 0.000000000000000000, 0.000000000000000000, 0.000000000000000000 ) ) ;
#380 = EDGE_CURVE ( 'NONE', #5, #18, #290, .T. ) ;
#381 = CYLINDRICAL_SURFACE ( 'NONE', #217, 2.500000000000000000 ) ;
ENDSEC;
END-ISO-10303-21;
