ISO-10303-21;
HEADER;
FILE_DESCRIPTION (( 'STEP AP203' ),
    '1' );
FILE_NAME ('32e8.STEP',
    '2022-07-08T15:49:30',
    ( '' ),
    ( '' ),
    'SwSTEP 2.0',
    'SolidWorks 2019',
    '' );
FILE_SCHEMA (( 'CONFIG_CONTROL_DESIGN' ));
ENDSEC;

DATA;
#1 = DATE_AND_TIME ( #266, #79 ) ;
#2 = PERSON_AND_ORGANIZATION_ROLE ( 'design_owner' ) ;
#3 = CARTESIAN_POINT ( 'NONE',  ( 0.000000000000000000, 0.000000000000000000, 0.000000000000000000 ) ) ;
#4 = APPROVAL_DATE_TIME ( #1, #20 ) ;
#5 = CARTESIAN_POINT ( 'NONE',  ( 0.000000000000000000, 0.000000000000000000, 303.0000000000000000 ) ) ;
#6 = ADVANCED_FACE ( 'NONE', ( #146, #352 ), #207, .T. ) ;
#7 = CARTESIAN_POINT ( 'NONE',  ( 0.000000000000000000, 0.000000000000000000, 3.300000000000025135 ) ) ;
#8 = ORIENTED_EDGE ( 'NONE', *, *, #246, .T. ) ;
#9 = AXIS2_PLACEMENT_3D ( 'NONE', #286, #288, #23 ) ;
#10 = VERTEX_POINT ( 'NONE', #176 ) ;
#11 = EDGE_CURVE ( 'NONE', #339, #104, #321, .T. ) ;
#12 = UNCERTAINTY_MEASURE_WITH_UNIT (LENGTH_MEASURE( 1.000000000000000082E-05 ), #347, 'distance_accuracy_value', 'NONE');
#13 = DIRECTION ( 'NONE',  ( 1.000000000000000000, 0.000000000000000000, 0.000000000000000000 ) ) ;
#14 = ORIENTED_EDGE ( 'NONE', *, *, #264, .F. ) ;
#15 = CARTESIAN_POINT ( 'NONE',  ( -2.000000000000000000, 0.000000000000000000, 303.0000000000000000 ) ) ;
#16 = AXIS2_PLACEMENT_3D ( 'NONE', #261, #144, #86 ) ;
#17 = DIRECTION ( 'NONE',  ( 0.000000000000000000, 0.000000000000000000, 1.000000000000000000 ) ) ;
#18 = CIRCLE ( 'NONE', #30, 2.000000000000000000 ) ;
#19 = VERTEX_POINT ( 'NONE', #289 ) ;
#20 = APPROVAL ( #215, 'NEURÈENÝ' ) ;
#21 = DIRECTION ( 'NONE',  ( 1.000000000000000000, 0.000000000000000000, 0.000000000000000000 ) ) ;
#22 = DIRECTION ( 'NONE',  ( 0.000000000000000000, 0.000000000000000000, 1.000000000000000000 ) ) ;
#23 = DIRECTION ( 'NONE',  ( 1.000000000000000000, 0.000000000000000000, 0.000000000000000000 ) ) ;
#24 = ORIENTED_EDGE ( 'NONE', *, *, #93, .T. ) ;
#25 = ADVANCED_FACE ( 'NONE', ( #379 ), #142, .F. ) ;
#26 = PRODUCT ( '32e8', '32e8', '', ( #175 ) ) ;
#27 = DIRECTION ( 'NONE',  ( 1.000000000000000000, 0.000000000000000000, -0.000000000000000000 ) ) ;
#28 = DIRECTION ( 'NONE',  ( -1.000000000000000000, 0.000000000000000000, 0.000000000000000000 ) ) ;
#29 = CIRCLE ( 'NONE', #78, 4.000000000000000000 ) ;
#30 = AXIS2_PLACEMENT_3D ( 'NONE', #311, #335, #13 ) ;
#31 = PERSON_AND_ORGANIZATION ( #341, #380 ) ;
#32 = CC_DESIGN_DATE_AND_TIME_ASSIGNMENT ( #153, #301, ( #304 ) ) ;
#33 = DATE_AND_TIME ( #292, #252 ) ;
#34 = CARTESIAN_POINT ( 'NONE',  ( -2.299999999999999822, 2.816687638038912056E-16, 3.300000000000025135 ) ) ;
#35 = DATE_AND_TIME ( #298, #148 ) ;
#36 = FACE_OUTER_BOUND ( 'NONE', #187, .T. ) ;
#37 = CC_DESIGN_DATE_AND_TIME_ASSIGNMENT ( #35, #150, ( #315 ) ) ;
#38 = CIRCLE ( 'NONE', #348, 4.000000000000000000 ) ;
#39 = APPROVAL_DATE_TIME ( #89, #66 ) ;
#40 = DIRECTION ( 'NONE',  ( 0.000000000000000000, 0.000000000000000000, 1.000000000000000000 ) ) ;
#41 = VERTEX_POINT ( 'NONE', #260 ) ;
#42 = PRODUCT_DEFINITION_SHAPE ( 'NONE', 'NONE',  #304 ) ;
#43 = DIRECTION ( 'NONE',  ( 1.000000000000000000, 0.000000000000000000, 0.000000000000000000 ) ) ;
#44 = ORIENTED_EDGE ( 'NONE', *, *, #253, .F. ) ;
#45 = AXIS2_PLACEMENT_3D ( 'NONE', #350, #317, #378 ) ;
#46 = ORIENTED_EDGE ( 'NONE', *, *, #246, .F. ) ;
#47 = EDGE_LOOP ( 'NONE', ( #258, #137, #106, #133 ) ) ;
#48 = ORIENTED_EDGE ( 'NONE', *, *, #108, .T. ) ;
#49 = EDGE_CURVE ( 'NONE', #104, #339, #232, .T. ) ;
#50 = AXIS2_PLACEMENT_3D ( 'NONE', #272, #185, #254 ) ;
#51 = ORIENTED_EDGE ( 'NONE', *, *, #100, .T. ) ;
#52 = ORIENTED_EDGE ( 'NONE', *, *, #100, .F. ) ;
#53 = ORIENTED_EDGE ( 'NONE', *, *, #134, .F. ) ;
#54 = AXIS2_PLACEMENT_3D ( 'NONE', #73, #17, #43 ) ;
#55 = DIRECTION ( 'NONE',  ( 1.000000000000000000, 0.000000000000000000, 0.000000000000000000 ) ) ;
#56 = APPROVAL_DATE_TIME ( #33, #188 ) ;
#57 = CARTESIAN_POINT ( 'NONE',  ( 1.100000000000000089, 1.347111479062088503E-16, 0.000000000000000000 ) ) ;
#58 = EDGE_CURVE ( 'NONE', #284, #104, #191, .T. ) ;
#59 = PERSON_AND_ORGANIZATION ( #341, #380 ) ;
#60 = CARTESIAN_POINT ( 'NONE',  ( -1.100000000000000089, 0.000000000000000000, 0.000000000000000000 ) ) ;
#61 = CIRCLE ( 'NONE', #368, 2.000000000000000000 ) ;
#62 = ADVANCED_BREP_SHAPE_REPRESENTATION ( '32e8', ( #143, #9 ), #91 ) ;
#63 = DIRECTION ( 'NONE',  ( 1.000000000000000000, 0.000000000000000000, 0.000000000000000000 ) ) ;
#64 = PERSON_AND_ORGANIZATION ( #341, #380 ) ;
#65 = DIRECTION ( 'NONE',  ( -1.000000000000000000, 0.000000000000000000, 0.000000000000000000 ) ) ;
#66 = APPROVAL ( #212, 'NEURÈENÝ' ) ;
#67 = LINE ( 'NONE', #90, #85 ) ;
#68 = ORIENTED_EDGE ( 'NONE', *, *, #49, .F. ) ;
#69 = AXIS2_PLACEMENT_3D ( 'NONE', #243, #280, #305 ) ;
#70 = CARTESIAN_POINT ( 'NONE',  ( 1.100000000000000089, 1.347111479062088503E-16, 303.0000000000000000 ) ) ;
#71 = ORIENTED_EDGE ( 'NONE', *, *, #330, .T. ) ;
#72 = ORIENTED_EDGE ( 'NONE', *, *, #268, .F. ) ;
#73 = CARTESIAN_POINT ( 'NONE',  ( 0.000000000000000000, 0.000000000000000000, 303.0000000000000000 ) ) ;
#74 = ORIENTED_EDGE ( 'NONE', *, *, #87, .T. ) ;
#75 = ORIENTED_EDGE ( 'NONE', *, *, #117, .F. ) ;
#76 = DIRECTION ( 'NONE',  ( 0.000000000000000000, 0.000000000000000000, -1.000000000000000000 ) ) ;
#77 = ORIENTED_EDGE ( 'NONE', *, *, #160, .T. ) ;
#78 = AXIS2_PLACEMENT_3D ( 'NONE', #233, #182, #209 ) ;
#79 = LOCAL_TIME ( 17, 49, 30.00000000000000000, #155 ) ;
#80 = CARTESIAN_POINT ( 'NONE',  ( -2.299999999999999822, 2.816687638038912056E-16, 3.000000000000012434 ) ) ;
#81 = ORIENTED_EDGE ( 'NONE', *, *, #205, .T. ) ;
#82 = EDGE_LOOP ( 'NONE', ( #53, #52, #48, #198 ) ) ;
#83 =( NAMED_UNIT ( * ) PLANE_ANGLE_UNIT ( ) SI_UNIT ( $, .RADIAN. ) );
#84 = DIRECTION ( 'NONE',  ( 1.000000000000000000, 0.000000000000000000, 0.000000000000000000 ) ) ;
#85 = VECTOR ( 'NONE', #241, 1000.000000000000000 ) ;
#86 = DIRECTION ( 'NONE',  ( 0.000000000000000000, 0.000000000000000000, -1.000000000000000000 ) ) ;
#87 = EDGE_CURVE ( 'NONE', #10, #284, #61, .T. ) ;
#88 = DIRECTION ( 'NONE',  ( 0.000000000000000000, 0.000000000000000000, 1.000000000000000000 ) ) ;
#89 = DATE_AND_TIME ( #95, #244 ) ;
#90 = CARTESIAN_POINT ( 'NONE',  ( 4.000000000000000000, 4.898587196589412829E-16, 3.000000000000000000 ) ) ;
#91 =( GEOMETRIC_REPRESENTATION_CONTEXT ( 3 ) GLOBAL_UNCERTAINTY_ASSIGNED_CONTEXT ( ( #12 ) ) GLOBAL_UNIT_ASSIGNED_CONTEXT ( ( #347, #83, #139 ) ) REPRESENTATION_CONTEXT ( 'NONE', 'WORKASPACE' ) );
#92 = SECURITY_CLASSIFICATION_LEVEL ( 'unclassified' ) ;
#93 = EDGE_CURVE ( 'NONE', #19, #371, #251, .T. ) ;
#94 = FACE_OUTER_BOUND ( 'NONE', #118, .T. ) ;
#95 = CALENDAR_DATE ( 2022, 8, 7 ) ;
#96 = DIRECTION ( 'NONE',  ( -1.000000000000000000, 0.000000000000000000, 0.000000000000000000 ) ) ;
#97 = FACE_OUTER_BOUND ( 'NONE', #194, .T. ) ;
#98 = APPROVAL_PERSON_ORGANIZATION ( #356, #66, #326 ) ;
#99 = ORIENTED_EDGE ( 'NONE', *, *, #87, .F. ) ;
#100 = EDGE_CURVE ( 'NONE', #312, #323, #237, .T. ) ;
#101 = DIRECTION ( 'NONE',  ( -0.000000000000000000, -0.000000000000000000, -1.000000000000000000 ) ) ;
#102 = EDGE_LOOP ( 'NONE', ( #14, #24, #190, #365 ) ) ;
#103 = FACE_OUTER_BOUND ( 'NONE', #114, .T. ) ;
#104 = VERTEX_POINT ( 'NONE', #173 ) ;
#105 = DIRECTION ( 'NONE',  ( -1.000000000000000000, 0.000000000000000000, 0.000000000000000000 ) ) ;
#106 = ORIENTED_EDGE ( 'NONE', *, *, #117, .T. ) ;
#107 = DIRECTION ( 'NONE',  ( 0.000000000000000000, 0.000000000000000000, 1.000000000000000000 ) ) ;
#108 = EDGE_CURVE ( 'NONE', #312, #41, #140, .T. ) ;
#109 = AXIS2_PLACEMENT_3D ( 'NONE', #295, #88, #214 ) ;
#110 = VECTOR ( 'NONE', #256, 1000.000000000000000 ) ;
#111 = CARTESIAN_POINT ( 'NONE',  ( 0.000000000000000000, 0.000000000000000000, 3.000000000000000000 ) ) ;
#112 = DIRECTION ( 'NONE',  ( -0.000000000000000000, -0.000000000000000000, -1.000000000000000000 ) ) ;
#113 = CARTESIAN_POINT ( 'NONE',  ( -1.100000000000000089, 0.000000000000000000, 303.0000000000000000 ) ) ;
#114 = EDGE_LOOP ( 'NONE', ( #363, #163, #8, #44 ) ) ;
#115 = APPROVAL_STATUS ( 'not_yet_approved' ) ;
#116 = CIRCLE ( 'NONE', #334, 1.100000000000000089 ) ;
#117 = EDGE_CURVE ( 'NONE', #128, #41, #29, .T. ) ;
#118 = EDGE_LOOP ( 'NONE', ( #310, #247, #320, #74 ) ) ;
#119 = VECTOR ( 'NONE', #316, 1000.000000000000000 ) ;
#120 = CYLINDRICAL_SURFACE ( 'NONE', #183, 1.100000000000000089 ) ;
#121 = CARTESIAN_POINT ( 'NONE',  ( 0.000000000000000000, 0.000000000000000000, 0.000000000000000000 ) ) ;
#122 = EDGE_CURVE ( 'NONE', #10, #339, #199, .T. ) ;
#123 = COORDINATED_UNIVERSAL_TIME_OFFSET ( 1, 0, .AHEAD. ) ;
#124 = VECTOR ( 'NONE', #130, 1000.000000000000000 ) ;
#125 = COORDINATED_UNIVERSAL_TIME_OFFSET ( 1, 0, .AHEAD. ) ;
#126 = CARTESIAN_POINT ( 'NONE',  ( 0.000000000000000000, 0.000000000000000000, 303.0000000000000000 ) ) ;
#127 = LINE ( 'NONE', #70, #124 ) ;
#128 = VERTEX_POINT ( 'NONE', #357 ) ;
#129 = CC_DESIGN_SECURITY_CLASSIFICATION ( #315, ( #262 ) ) ;
#130 = DIRECTION ( 'NONE',  ( 0.000000000000000000, 0.000000000000000000, -1.000000000000000000 ) ) ;
#131 = ORIENTED_EDGE ( 'NONE', *, *, #122, .F. ) ;
#132 = CYLINDRICAL_SURFACE ( 'NONE', #206, 4.000000000000000000 ) ;
#133 = ORIENTED_EDGE ( 'NONE', *, *, #108, .F. ) ;
#134 = EDGE_CURVE ( 'NONE', #323, #128, #67, .T. ) ;
#135 = EDGE_LOOP ( 'NONE', ( #99, #279, #68, #168 ) ) ;
#136 = AXIS2_PLACEMENT_3D ( 'NONE', #372, #107, #84 ) ;
#137 = ORIENTED_EDGE ( 'NONE', *, *, #134, .T. ) ;
#138 = DIRECTION ( 'NONE',  ( 0.000000000000000000, 0.000000000000000000, -1.000000000000000000 ) ) ;
#139 =( NAMED_UNIT ( * ) SI_UNIT ( $, .STERADIAN. ) SOLID_ANGLE_UNIT ( ) );
#140 = LINE ( 'NONE', #319, #110 ) ;
#141 = TOROIDAL_SURFACE ( 'NONE', #50, 2.299999999999999822, 0.2999999999999999889 ) ;
#142 = CYLINDRICAL_SURFACE ( 'NONE', #361, 1.100000000000000089 ) ;
#143 = MANIFOLD_SOLID_BREP ( 'Odebrat vysunutím3', #269 ) ;
#144 = DIRECTION ( 'NONE',  ( 0.000000000000000000, -1.000000000000000000, 0.000000000000000000 ) ) ;
#145 = LINE ( 'NONE', #204, #119 ) ;
#146 = FACE_BOUND ( 'NONE', #278, .T. ) ;
#147 = PERSON_AND_ORGANIZATION_ROLE ( 'creator' ) ;
#148 = LOCAL_TIME ( 17, 49, 30.00000000000000000, #123 ) ;
#149 = DIRECTION ( 'NONE',  ( -1.000000000000000000, 0.000000000000000000, 0.000000000000000000 ) ) ;
#150 = DATE_TIME_ROLE ( 'classification_date' ) ;
#151 = FACE_OUTER_BOUND ( 'NONE', #47, .T. ) ;
#152 = EDGE_CURVE ( 'NONE', #323, #312, #38, .T. ) ;
#153 = DATE_AND_TIME ( #213, #375 ) ;
#154 = DIRECTION ( 'NONE',  ( 1.000000000000000000, 0.000000000000000000, 0.000000000000000000 ) ) ;
#155 = COORDINATED_UNIVERSAL_TIME_OFFSET ( 1, 0, .AHEAD. ) ;
#156 = DIRECTION ( 'NONE',  ( 0.000000000000000000, 0.000000000000000000, 1.000000000000000000 ) ) ;
#157 = AXIS2_PLACEMENT_3D ( 'NONE', #351, #235, #55 ) ;
#158 = CC_DESIGN_APPROVAL ( #66, ( #262 ) ) ;
#159 = DIRECTION ( 'NONE',  ( -0.000000000000000000, -0.000000000000000000, -1.000000000000000000 ) ) ;
#160 = EDGE_CURVE ( 'NONE', #223, #281, #226, .T. ) ;
#161 = EDGE_LOOP ( 'NONE', ( #228, #346 ) ) ;
#162 = DIRECTION ( 'NONE',  ( -0.000000000000000000, -0.000000000000000000, -1.000000000000000000 ) ) ;
#163 = ORIENTED_EDGE ( 'NONE', *, *, #336, .T. ) ;
#164 = CIRCLE ( 'NONE', #54, 2.000000000000000000 ) ;
#165 = APPLICATION_CONTEXT ( 'configuration controlled 3d designs of mechanical parts and assemblies' ) ;
#166 = VERTEX_POINT ( 'NONE', #57 ) ;
#167 = CARTESIAN_POINT ( 'NONE',  ( 0.000000000000000000, 0.000000000000000000, 303.0000000000000000 ) ) ;
#168 = ORIENTED_EDGE ( 'NONE', *, *, #58, .F. ) ;
#169 = EDGE_LOOP ( 'NONE', ( #308, #77 ) ) ;
#170 = DIRECTION ( 'NONE',  ( 1.000000000000000000, 0.000000000000000000, -0.000000000000000000 ) ) ;
#171 = DIRECTION ( 'NONE',  ( 0.000000000000000000, 0.000000000000000000, 1.000000000000000000 ) ) ;
#172 = CC_DESIGN_PERSON_AND_ORGANIZATION_ASSIGNMENT ( #59, #147, ( #304 ) ) ;
#173 = CARTESIAN_POINT ( 'NONE',  ( 2.299999999999999822, 0.000000000000000000, 3.000000000000012434 ) ) ;
#174 = AXIS2_PLACEMENT_3D ( 'NONE', #313, #22, #170 ) ;
#175 = MECHANICAL_CONTEXT ( 'NONE', #165, 'mechanical' ) ;
#176 = CARTESIAN_POINT ( 'NONE',  ( -2.000000000000000000, 0.000000000000000000, 3.300000000000025135 ) ) ;
#177 = DIRECTION ( 'NONE',  ( 0.000000000000000000, 0.000000000000000000, -1.000000000000000000 ) ) ;
#178 = PRODUCT_RELATED_PRODUCT_CATEGORY ( 'detail', '', ( #26 ) ) ;
#179 = AXIS2_PLACEMENT_3D ( 'NONE', #3, #156, #359 ) ;
#180 = PERSON_AND_ORGANIZATION ( #341, #380 ) ;
#181 = PERSON_AND_ORGANIZATION_ROLE ( 'classification_officer' ) ;
#182 = DIRECTION ( 'NONE',  ( 0.000000000000000000, 0.000000000000000000, 1.000000000000000000 ) ) ;
#183 = AXIS2_PLACEMENT_3D ( 'NONE', #5, #177, #149 ) ;
#184 = ADVANCED_FACE ( 'NONE', ( #211 ), #120, .F. ) ;
#185 = DIRECTION ( 'NONE',  ( 0.000000000000000000, 0.000000000000000000, 1.000000000000000000 ) ) ;
#186 = CARTESIAN_POINT ( 'NONE',  ( 2.000000000000000000, 2.449293598294706414E-16, 3.300000000000025135 ) ) ;
#187 = EDGE_LOOP ( 'NONE', ( #72, #75 ) ) ;
#188 = APPROVAL ( #115, 'NEURÈENÝ' ) ;
#189 = DIRECTION ( 'NONE',  ( 0.000000000000000000, 0.000000000000000000, 1.000000000000000000 ) ) ;
#190 = ORIENTED_EDGE ( 'NONE', *, *, #366, .T. ) ;
#191 = CIRCLE ( 'NONE', #16, 0.2999999999999999334 ) ;
#192 = VECTOR ( 'NONE', #76, 1000.000000000000000 ) ;
#193 = CARTESIAN_POINT ( 'NONE',  ( 0.000000000000000000, 0.000000000000000000, 3.000000000000000000 ) ) ;
#194 = EDGE_LOOP ( 'NONE', ( #131, #46, #345, #369 ) ) ;
#195 = DIRECTION ( 'NONE',  ( 1.000000000000000000, 0.000000000000000000, 0.000000000000000000 ) ) ;
#196 = VERTEX_POINT ( 'NONE', #60 ) ;
#197 = PLANE ( 'NONE',  #174 ) ;
#198 = ORIENTED_EDGE ( 'NONE', *, *, #268, .T. ) ;
#199 = CIRCLE ( 'NONE', #353, 0.2999999999999999334 ) ;
#200 = ADVANCED_FACE ( 'NONE', ( #151 ), #327, .T. ) ;
#201 = DIRECTION ( 'NONE',  ( 1.000000000000000000, 0.000000000000000000, 0.000000000000000000 ) ) ;
#202 = LINE ( 'NONE', #374, #192 ) ;
#203 = CARTESIAN_POINT ( 'NONE',  ( 0.000000000000000000, 0.000000000000000000, 303.0000000000000000 ) ) ;
#204 = CARTESIAN_POINT ( 'NONE',  ( 2.000000000000000000, 2.449293598294706414E-16, 303.0000000000000000 ) ) ;
#205 = EDGE_CURVE ( 'NONE', #166, #196, #302, .T. ) ;
#206 = AXIS2_PLACEMENT_3D ( 'NONE', #193, #101, #105 ) ;
#207 = PLANE ( 'NONE',  #300 ) ;
#208 = APPROVAL_ROLE ( '' ) ;
#209 = DIRECTION ( 'NONE',  ( 1.000000000000000000, 0.000000000000000000, 0.000000000000000000 ) ) ;
#210 = APPROVAL_ROLE ( '' ) ;
#211 = FACE_OUTER_BOUND ( 'NONE', #102, .T. ) ;
#212 = APPROVAL_STATUS ( 'not_yet_approved' ) ;
#213 = CALENDAR_DATE ( 2022, 8, 7 ) ;
#214 = DIRECTION ( 'NONE',  ( 1.000000000000000000, 0.000000000000000000, 0.000000000000000000 ) ) ;
#215 = APPROVAL_STATUS ( 'not_yet_approved' ) ;
#216 = ADVANCED_FACE ( 'NONE', ( #299, #36 ), #267, .F. ) ;
#217 = FACE_OUTER_BOUND ( 'NONE', #135, .T. ) ;
#218 = AXIS2_PLACEMENT_3D ( 'NONE', #265, #159, #65 ) ;
#219 = DIRECTION ( 'NONE',  ( -1.000000000000000000, 0.000000000000000000, 0.000000000000000000 ) ) ;
#220 = ORIENTED_EDGE ( 'NONE', *, *, #152, .T. ) ;
#221 = ADVANCED_FACE ( 'NONE', ( #94 ), #271, .T. ) ;
#222 = CARTESIAN_POINT ( 'NONE',  ( -4.000000000000000000, 0.000000000000000000, 3.000000000000000000 ) ) ;
#223 = VERTEX_POINT ( 'NONE', #333 ) ;
#224 = CYLINDRICAL_SURFACE ( 'NONE', #344, 2.000000000000000000 ) ;
#225 = ORIENTED_EDGE ( 'NONE', *, *, #366, .F. ) ;
#226 = CIRCLE ( 'NONE', #109, 2.000000000000000000 ) ;
#227 = DIRECTION ( 'NONE',  ( 1.000000000000000000, 0.000000000000000000, 0.000000000000000000 ) ) ;
#228 = ORIENTED_EDGE ( 'NONE', *, *, #342, .F. ) ;
#229 = ORIENTED_EDGE ( 'NONE', *, *, #11, .T. ) ;
#230 = ADVANCED_FACE ( 'NONE', ( #217 ), #141, .F. ) ;
#231 = DIRECTION ( 'NONE',  ( 0.000000000000000000, 0.000000000000000000, 1.000000000000000000 ) ) ;
#232 = CIRCLE ( 'NONE', #45, 2.299999999999999822 ) ;
#233 = CARTESIAN_POINT ( 'NONE',  ( 0.000000000000000000, 0.000000000000000000, 0.000000000000000000 ) ) ;
#234 = CC_DESIGN_PERSON_AND_ORGANIZATION_ASSIGNMENT ( #31, #181, ( #315 ) ) ;
#235 = DIRECTION ( 'NONE',  ( -0.000000000000000000, -0.000000000000000000, -1.000000000000000000 ) ) ;
#236 = CARTESIAN_POINT ( 'NONE',  ( 0.000000000000000000, 0.000000000000000000, 3.300000000000025135 ) ) ;
#237 = CIRCLE ( 'NONE', #276, 4.000000000000000000 ) ;
#238 = AXIS2_PLACEMENT_3D ( 'NONE', #167, #189, #227 ) ;
#239 = ADVANCED_FACE ( 'NONE', ( #97 ), #273, .F. ) ;
#240 = AXIS2_PLACEMENT_3D ( 'NONE', #126, #360, #96 ) ;
#241 = DIRECTION ( 'NONE',  ( -0.000000000000000000, -0.000000000000000000, -1.000000000000000000 ) ) ;
#242 = DIRECTION ( 'NONE',  ( 1.224646799147353207E-16, 1.000000000000000000, -0.000000000000000000 ) ) ;
#243 = CARTESIAN_POINT ( 'NONE',  ( 0.000000000000000000, 0.000000000000000000, 0.000000000000000000 ) ) ;
#244 = LOCAL_TIME ( 17, 49, 30.00000000000000000, #125 ) ;
#245 = EDGE_LOOP ( 'NONE', ( #306, #250 ) ) ;
#246 = EDGE_CURVE ( 'NONE', #284, #10, #18, .T. ) ;
#247 = ORIENTED_EDGE ( 'NONE', *, *, #290, .F. ) ;
#248 = ORIENTED_EDGE ( 'NONE', *, *, #264, .T. ) ;
#249 = DIRECTION ( 'NONE',  ( -0.000000000000000000, -0.000000000000000000, -1.000000000000000000 ) ) ;
#250 = ORIENTED_EDGE ( 'NONE', *, *, #93, .F. ) ;
#251 = CIRCLE ( 'NONE', #136, 1.100000000000000089 ) ;
#252 = LOCAL_TIME ( 17, 49, 30.00000000000000000, #324 ) ;
#253 = EDGE_CURVE ( 'NONE', #281, #10, #364, .T. ) ;
#254 = DIRECTION ( 'NONE',  ( 1.000000000000000000, 0.000000000000000000, 0.000000000000000000 ) ) ;
#255 = DIRECTION ( 'NONE',  ( 1.000000000000000000, 0.000000000000000000, 0.000000000000000000 ) ) ;
#256 = DIRECTION ( 'NONE',  ( -0.000000000000000000, -0.000000000000000000, -1.000000000000000000 ) ) ;
#257 = CC_DESIGN_APPROVAL ( #188, ( #304 ) ) ;
#258 = ORIENTED_EDGE ( 'NONE', *, *, #152, .F. ) ;
#259 = PERSON_AND_ORGANIZATION ( #341, #380 ) ;
#260 = CARTESIAN_POINT ( 'NONE',  ( -4.000000000000000000, 0.000000000000000000, 0.000000000000000000 ) ) ;
#261 = CARTESIAN_POINT ( 'NONE',  ( 2.299999999999999822, 0.000000000000000000, 3.300000000000025135 ) ) ;
#262 = PRODUCT_DEFINITION_FORMATION_WITH_SPECIFIED_SOURCE ( 'LIBOVOLNÝ', '', #26, .NOT_KNOWN. ) ;
#263 = COORDINATED_UNIVERSAL_TIME_OFFSET ( 1, 0, .AHEAD. ) ;
#264 = EDGE_CURVE ( 'NONE', #19, #166, #127, .T. ) ;
#265 = CARTESIAN_POINT ( 'NONE',  ( 0.000000000000000000, 0.000000000000000000, 3.000000000000000000 ) ) ;
#266 = CALENDAR_DATE ( 2022, 8, 7 ) ;
#267 = PLANE ( 'NONE',  #179 ) ;
#268 = EDGE_CURVE ( 'NONE', #41, #128, #358, .T. ) ;
#269 = CLOSED_SHELL ( 'NONE', ( #25, #230, #274, #200, #296, #6, #216, #221, #349, #239, #184 ) ) ;
#270 = APPROVAL_PERSON_ORGANIZATION ( #64, #188, #208 ) ;
#271 = CYLINDRICAL_SURFACE ( 'NONE', #240, 2.000000000000000000 ) ;
#272 = CARTESIAN_POINT ( 'NONE',  ( 0.000000000000000000, 0.000000000000000000, 3.300000000000025135 ) ) ;
#273 = TOROIDAL_SURFACE ( 'NONE', #287, 2.299999999999999822, 0.2999999999999999889 ) ;
#274 = ADVANCED_FACE ( 'NONE', ( #103 ), #224, .T. ) ;
#275 = EDGE_LOOP ( 'NONE', ( #51, #220 ) ) ;
#276 = AXIS2_PLACEMENT_3D ( 'NONE', #111, #231, #201 ) ;
#277 = FACE_OUTER_BOUND ( 'NONE', #82, .T. ) ;
#278 = EDGE_LOOP ( 'NONE', ( #340, #229 ) ) ;
#279 = ORIENTED_EDGE ( 'NONE', *, *, #122, .T. ) ;
#280 = DIRECTION ( 'NONE',  ( 0.000000000000000000, 0.000000000000000000, 1.000000000000000000 ) ) ;
#281 = VERTEX_POINT ( 'NONE', #338 ) ;
#282 = AXIS2_PLACEMENT_3D ( 'NONE', #121, #293, #154 ) ;
#283 = FACE_BOUND ( 'NONE', #245, .T. ) ;
#284 = VERTEX_POINT ( 'NONE', #186 ) ;
#285 = CARTESIAN_POINT ( 'NONE',  ( 0.000000000000000000, 0.000000000000000000, 3.000000000000000000 ) ) ;
#286 = CARTESIAN_POINT ( 'NONE',  ( 0.000000000000000000, 0.000000000000000000, 0.000000000000000000 ) ) ;
#287 = AXIS2_PLACEMENT_3D ( 'NONE', #7, #343, #195 ) ;
#288 = DIRECTION ( 'NONE',  ( 0.000000000000000000, 0.000000000000000000, 1.000000000000000000 ) ) ;
#289 = CARTESIAN_POINT ( 'NONE',  ( 1.100000000000000089, 1.347111479062088503E-16, 303.0000000000000000 ) ) ;
#290 = EDGE_CURVE ( 'NONE', #281, #223, #164, .T. ) ;
#291 = CIRCLE ( 'NONE', #238, 1.100000000000000089 ) ;
#292 = CALENDAR_DATE ( 2022, 8, 7 ) ;
#293 = DIRECTION ( 'NONE',  ( -0.000000000000000000, -0.000000000000000000, -1.000000000000000000 ) ) ;
#294 = PERSON_AND_ORGANIZATION_ROLE ( 'design_supplier' ) ;
#295 = CARTESIAN_POINT ( 'NONE',  ( 0.000000000000000000, 0.000000000000000000, 303.0000000000000000 ) ) ;
#296 = ADVANCED_FACE ( 'NONE', ( #277 ), #132, .T. ) ;
#297 = APPLICATION_CONTEXT ( 'configuration controlled 3d designs of mechanical parts and assemblies' ) ;
#298 = CALENDAR_DATE ( 2022, 8, 7 ) ;
#299 = FACE_BOUND ( 'NONE', #161, .T. ) ;
#300 = AXIS2_PLACEMENT_3D ( 'NONE', #285, #314, #27 ) ;
#301 = DATE_TIME_ROLE ( 'creation_date' ) ;
#302 = CIRCLE ( 'NONE', #282, 1.100000000000000089 ) ;
#303 = DIRECTION ( 'NONE',  ( -1.000000000000000000, 1.224646799147353207E-16, 0.000000000000000000 ) ) ;
#304 = PRODUCT_DEFINITION ( 'NEZNÁMÝ', '', #262, #337 ) ;
#305 = DIRECTION ( 'NONE',  ( 1.000000000000000000, 0.000000000000000000, 0.000000000000000000 ) ) ;
#306 = ORIENTED_EDGE ( 'NONE', *, *, #330, .F. ) ;
#307 = CARTESIAN_POINT ( 'NONE',  ( 0.000000000000000000, 0.000000000000000000, 303.0000000000000000 ) ) ;
#308 = ORIENTED_EDGE ( 'NONE', *, *, #290, .T. ) ;
#309 = CARTESIAN_POINT ( 'NONE',  ( 4.000000000000000000, 4.898587196589412829E-16, 3.000000000000000000 ) ) ;
#310 = ORIENTED_EDGE ( 'NONE', *, *, #336, .F. ) ;
#311 = CARTESIAN_POINT ( 'NONE',  ( 0.000000000000000000, 0.000000000000000000, 3.300000000000025135 ) ) ;
#312 = VERTEX_POINT ( 'NONE', #222 ) ;
#313 = CARTESIAN_POINT ( 'NONE',  ( 0.000000000000000000, 0.000000000000000000, 303.0000000000000000 ) ) ;
#314 = DIRECTION ( 'NONE',  ( 0.000000000000000000, 0.000000000000000000, 1.000000000000000000 ) ) ;
#315 = SECURITY_CLASSIFICATION ( '', '', #92 ) ;
#316 = DIRECTION ( 'NONE',  ( -0.000000000000000000, -0.000000000000000000, -1.000000000000000000 ) ) ;
#317 = DIRECTION ( 'NONE',  ( -0.000000000000000000, -0.000000000000000000, -1.000000000000000000 ) ) ;
#318 = APPLICATION_PROTOCOL_DEFINITION ( 'international standard', 'config_control_design', 1994, #165 ) ;
#319 = CARTESIAN_POINT ( 'NONE',  ( -4.000000000000000000, 0.000000000000000000, 3.000000000000000000 ) ) ;
#320 = ORIENTED_EDGE ( 'NONE', *, *, #253, .T. ) ;
#321 = CIRCLE ( 'NONE', #157, 2.299999999999999822 ) ;
#322 = CC_DESIGN_APPROVAL ( #20, ( #315 ) ) ;
#323 = VERTEX_POINT ( 'NONE', #309 ) ;
#324 = COORDINATED_UNIVERSAL_TIME_OFFSET ( 1, 0, .AHEAD. ) ;
#325 = CARTESIAN_POINT ( 'NONE',  ( 0.000000000000000000, 0.000000000000000000, 3.000000000000000000 ) ) ;
#326 = APPROVAL_ROLE ( '' ) ;
#327 = CYLINDRICAL_SURFACE ( 'NONE', #218, 4.000000000000000000 ) ;
#328 = VECTOR ( 'NONE', #249, 1000.000000000000000 ) ;
#329 = PERSON_AND_ORGANIZATION_ROLE ( 'creator' ) ;
#330 = EDGE_CURVE ( 'NONE', #371, #19, #291, .T. ) ;
#331 = APPLICATION_PROTOCOL_DEFINITION ( 'international standard', 'config_control_design', 1994, #297 ) ;
#332 = SHAPE_DEFINITION_REPRESENTATION ( #42, #62 ) ;
#333 = CARTESIAN_POINT ( 'NONE',  ( 2.000000000000000000, 2.449293598294706414E-16, 303.0000000000000000 ) ) ;
#334 = AXIS2_PLACEMENT_3D ( 'NONE', #370, #112, #255 ) ;
#335 = DIRECTION ( 'NONE',  ( 0.000000000000000000, 0.000000000000000000, 1.000000000000000000 ) ) ;
#336 = EDGE_CURVE ( 'NONE', #223, #284, #145, .T. ) ;
#337 = DESIGN_CONTEXT ( 'detailed design', #297, 'design' ) ;
#338 = CARTESIAN_POINT ( 'NONE',  ( -2.000000000000000000, 0.000000000000000000, 303.0000000000000000 ) ) ;
#339 = VERTEX_POINT ( 'NONE', #80 ) ;
#340 = ORIENTED_EDGE ( 'NONE', *, *, #49, .T. ) ;
#341 = PERSON ( 'NEURÈENÝ', 'NEURÈENÝ', 'NEURÈENÝ', ('NEURÈENÝ'), ('NEURÈENÝ'), ('NEURÈENÝ') ) ;
#342 = EDGE_CURVE ( 'NONE', #196, #166, #116, .T. ) ;
#343 = DIRECTION ( 'NONE',  ( 0.000000000000000000, 0.000000000000000000, 1.000000000000000000 ) ) ;
#344 = AXIS2_PLACEMENT_3D ( 'NONE', #307, #162, #219 ) ;
#345 = ORIENTED_EDGE ( 'NONE', *, *, #58, .T. ) ;
#346 = ORIENTED_EDGE ( 'NONE', *, *, #205, .F. ) ;
#347 =( LENGTH_UNIT ( ) NAMED_UNIT ( * ) SI_UNIT ( .MILLI., .METRE. ) );
#348 = AXIS2_PLACEMENT_3D ( 'NONE', #325, #40, #63 ) ;
#349 = ADVANCED_FACE ( 'NONE', ( #283, #377 ), #197, .T. ) ;
#350 = CARTESIAN_POINT ( 'NONE',  ( 0.000000000000000000, 0.000000000000000000, 3.000000000000000000 ) ) ;
#351 = CARTESIAN_POINT ( 'NONE',  ( 0.000000000000000000, 0.000000000000000000, 3.000000000000000000 ) ) ;
#352 = FACE_OUTER_BOUND ( 'NONE', #275, .T. ) ;
#353 = AXIS2_PLACEMENT_3D ( 'NONE', #34, #242, #303 ) ;
#354 = PERSON_AND_ORGANIZATION ( #341, #380 ) ;
#355 = CC_DESIGN_PERSON_AND_ORGANIZATION_ASSIGNMENT ( #180, #294, ( #262 ) ) ;
#356 = PERSON_AND_ORGANIZATION ( #341, #380 ) ;
#357 = CARTESIAN_POINT ( 'NONE',  ( 4.000000000000000000, 4.898587196589412829E-16, 0.000000000000000000 ) ) ;
#358 = CIRCLE ( 'NONE', #69, 4.000000000000000000 ) ;
#359 = DIRECTION ( 'NONE',  ( 1.000000000000000000, 0.000000000000000000, -0.000000000000000000 ) ) ;
#360 = DIRECTION ( 'NONE',  ( -0.000000000000000000, -0.000000000000000000, -1.000000000000000000 ) ) ;
#361 = AXIS2_PLACEMENT_3D ( 'NONE', #203, #138, #28 ) ;
#362 = APPROVAL_PERSON_ORGANIZATION ( #381, #20, #210 ) ;
#363 = ORIENTED_EDGE ( 'NONE', *, *, #160, .F. ) ;
#364 = LINE ( 'NONE', #15, #328 ) ;
#365 = ORIENTED_EDGE ( 'NONE', *, *, #342, .T. ) ;
#366 = EDGE_CURVE ( 'NONE', #371, #196, #202, .T. ) ;
#367 = EDGE_LOOP ( 'NONE', ( #71, #248, #81, #225 ) ) ;
#368 = AXIS2_PLACEMENT_3D ( 'NONE', #236, #171, #21 ) ;
#369 = ORIENTED_EDGE ( 'NONE', *, *, #11, .F. ) ;
#370 = CARTESIAN_POINT ( 'NONE',  ( 0.000000000000000000, 0.000000000000000000, 0.000000000000000000 ) ) ;
#371 = VERTEX_POINT ( 'NONE', #113 ) ;
#372 = CARTESIAN_POINT ( 'NONE',  ( 0.000000000000000000, 0.000000000000000000, 303.0000000000000000 ) ) ;
#373 = CC_DESIGN_PERSON_AND_ORGANIZATION_ASSIGNMENT ( #259, #2, ( #26 ) ) ;
#374 = CARTESIAN_POINT ( 'NONE',  ( -1.100000000000000089, 0.000000000000000000, 303.0000000000000000 ) ) ;
#375 = LOCAL_TIME ( 17, 49, 30.00000000000000000, #263 ) ;
#376 = CC_DESIGN_PERSON_AND_ORGANIZATION_ASSIGNMENT ( #354, #329, ( #262 ) ) ;
#377 = FACE_OUTER_BOUND ( 'NONE', #169, .T. ) ;
#378 = DIRECTION ( 'NONE',  ( 1.000000000000000000, 0.000000000000000000, 0.000000000000000000 ) ) ;
#379 = FACE_OUTER_BOUND ( 'NONE', #367, .T. ) ;
#380 = ORGANIZATION ( 'NEURÈENÝ', 'NEURÈENÝ', '' ) ;
#381 = PERSON_AND_ORGANIZATION ( #341, #380 ) ;
ENDSEC;
END-ISO-10303-21;
