ISO-10303-21;
HEADER;
FILE_DESCRIPTION (( 'STEP AP203' ),
    '1' );
FILE_NAME ('7bac.STEP',
    '2022-07-08T15:51:20',
    ( '' ),
    ( '' ),
    'SwSTEP 2.0',
    'SolidWorks 2019',
    '' );
FILE_SCHEMA (( 'CONFIG_CONTROL_DESIGN' ));
ENDSEC;

DATA;
#1 = DIRECTION ( 'NONE',  ( 1.000000000000000000, 0.000000000000000000, -0.000000000000000000 ) ) ;
#2 = EDGE_LOOP ( 'NONE', ( #295, #245 ) ) ;
#3 = EDGE_CURVE ( 'NONE', #88, #274, #178, .T. ) ;
#4 = VERTEX_POINT ( 'NONE', #225 ) ;
#5 = VERTEX_POINT ( 'NONE', #192 ) ;
#6 = ORIENTED_EDGE ( 'NONE', *, *, #346, .T. ) ;
#7 = CARTESIAN_POINT ( 'NONE',  ( 0.000000000000000000, 0.000000000000000000, 0.000000000000000000 ) ) ;
#8 = ORIENTED_EDGE ( 'NONE', *, *, #241, .F. ) ;
#9 = DIRECTION ( 'NONE',  ( -1.000000000000000000, 0.000000000000000000, 0.000000000000000000 ) ) ;
#10 = ORIENTED_EDGE ( 'NONE', *, *, #60, .F. ) ;
#11 = DIRECTION ( 'NONE',  ( 0.000000000000000000, 0.000000000000000000, -1.000000000000000000 ) ) ;
#12 = CIRCLE ( 'NONE', #230, 1.100000000000000089 ) ;
#13 = CIRCLE ( 'NONE', #118, 0.2999999999999999334 ) ;
#14 = DIRECTION ( 'NONE',  ( -1.000000000000000000, 0.000000000000000000, 0.000000000000000000 ) ) ;
#15 = CARTESIAN_POINT ( 'NONE',  ( 2.000000000000000000, 2.449293598294706414E-16, 78.00000000000000000 ) ) ;
#16 = DIRECTION ( 'NONE',  ( 0.000000000000000000, 0.000000000000000000, 1.000000000000000000 ) ) ;
#17 = CARTESIAN_POINT ( 'NONE',  ( 0.000000000000000000, 0.000000000000000000, 0.000000000000000000 ) ) ;
#18 = DATE_AND_TIME ( #136, #277 ) ;
#19 = CARTESIAN_POINT ( 'NONE',  ( -1.100000000000000089, 0.000000000000000000, 78.00000000000000000 ) ) ;
#20 = DIRECTION ( 'NONE',  ( 0.000000000000000000, 0.000000000000000000, 1.000000000000000000 ) ) ;
#21 = DIRECTION ( 'NONE',  ( 0.000000000000000000, 0.000000000000000000, 1.000000000000000000 ) ) ;
#22 = PERSON_AND_ORGANIZATION ( #247, #355 ) ;
#23 = AXIS2_PLACEMENT_3D ( 'NONE', #126, #280, #364 ) ;
#24 = SECURITY_CLASSIFICATION ( '', '', #198 ) ;
#25 = PLANE ( 'NONE',  #291 ) ;
#26 = FACE_OUTER_BOUND ( 'NONE', #350, .T. ) ;
#27 = CC_DESIGN_APPROVAL ( #283, ( #148 ) ) ;
#28 = EDGE_LOOP ( 'NONE', ( #299, #234 ) ) ;
#29 = ORIENTED_EDGE ( 'NONE', *, *, #101, .F. ) ;
#30 = ORIENTED_EDGE ( 'NONE', *, *, #73, .F. ) ;
#31 = FACE_OUTER_BOUND ( 'NONE', #2, .T. ) ;
#32 = EDGE_CURVE ( 'NONE', #174, #69, #282, .T. ) ;
#33 = ORIENTED_EDGE ( 'NONE', *, *, #32, .T. ) ;
#34 = LINE ( 'NONE', #215, #195 ) ;
#35 = ORIENTED_EDGE ( 'NONE', *, *, #315, .T. ) ;
#36 = DIRECTION ( 'NONE',  ( 1.000000000000000000, 0.000000000000000000, -0.000000000000000000 ) ) ;
#37 = ORIENTED_EDGE ( 'NONE', *, *, #363, .F. ) ;
#38 = EDGE_CURVE ( 'NONE', #323, #174, #77, .T. ) ;
#39 = CYLINDRICAL_SURFACE ( 'NONE', #108, 1.100000000000000089 ) ;
#40 = AXIS2_PLACEMENT_3D ( 'NONE', #265, #233, #113 ) ;
#41 = AXIS2_PLACEMENT_3D ( 'NONE', #345, #173, #294 ) ;
#42 = CC_DESIGN_PERSON_AND_ORGANIZATION_ASSIGNMENT ( #22, #338, ( #310 ) ) ;
#43 = DIRECTION ( 'NONE',  ( -0.000000000000000000, -0.000000000000000000, -1.000000000000000000 ) ) ;
#44 = PERSON_AND_ORGANIZATION ( #247, #355 ) ;
#45 = DESIGN_CONTEXT ( 'detailed design', #95, 'design' ) ;
#46 = CARTESIAN_POINT ( 'NONE',  ( 0.000000000000000000, 0.000000000000000000, 3.000000000000000000 ) ) ;
#47 = TOROIDAL_SURFACE ( 'NONE', #194, 2.299999999999999822, 0.2999999999999999889 ) ;
#48 = DIRECTION ( 'NONE',  ( 0.000000000000000000, 0.000000000000000000, -1.000000000000000000 ) ) ;
#49 = ADVANCED_FACE ( 'NONE', ( #260 ), #75, .T. ) ;
#50 = DATE_AND_TIME ( #52, #155 ) ;
#51 = LINE ( 'NONE', #287, #78 ) ;
#52 = CALENDAR_DATE ( 2022, 8, 7 ) ;
#53 = CARTESIAN_POINT ( 'NONE',  ( 0.000000000000000000, 0.000000000000000000, 3.000000000000000000 ) ) ;
#54 = ORIENTED_EDGE ( 'NONE', *, *, #365, .F. ) ;
#55 = CIRCLE ( 'NONE', #217, 2.000000000000000000 ) ;
#56 = CARTESIAN_POINT ( 'NONE',  ( 4.000000000000000000, 4.898587196589412829E-16, 3.000000000000000000 ) ) ;
#57 = EDGE_LOOP ( 'NONE', ( #116, #300 ) ) ;
#58 = CARTESIAN_POINT ( 'NONE',  ( 0.000000000000000000, 0.000000000000000000, 3.000000000000000000 ) ) ;
#59 = VERTEX_POINT ( 'NONE', #228 ) ;
#60 = EDGE_CURVE ( 'NONE', #59, #208, #286, .T. ) ;
#61 =( LENGTH_UNIT ( ) NAMED_UNIT ( * ) SI_UNIT ( .MILLI., .METRE. ) );
#62 = CIRCLE ( 'NONE', #89, 4.000000000000000000 ) ;
#63 = ORIENTED_EDGE ( 'NONE', *, *, #302, .T. ) ;
#64 = ORIENTED_EDGE ( 'NONE', *, *, #241, .T. ) ;
#65 = CARTESIAN_POINT ( 'NONE',  ( -2.000000000000000000, 0.000000000000000000, 78.00000000000000000 ) ) ;
#66 = ORIENTED_EDGE ( 'NONE', *, *, #336, .T. ) ;
#67 = FACE_BOUND ( 'NONE', #28, .T. ) ;
#68 = EDGE_CURVE ( 'NONE', #5, #142, #380, .T. ) ;
#69 = VERTEX_POINT ( 'NONE', #160 ) ;
#70 = FACE_OUTER_BOUND ( 'NONE', #177, .T. ) ;
#71 = AXIS2_PLACEMENT_3D ( 'NONE', #130, #20, #74 ) ;
#72 = FACE_OUTER_BOUND ( 'NONE', #216, .T. ) ;
#73 = EDGE_CURVE ( 'NONE', #323, #169, #361, .T. ) ;
#74 = DIRECTION ( 'NONE',  ( 1.000000000000000000, 0.000000000000000000, 0.000000000000000000 ) ) ;
#75 = CYLINDRICAL_SURFACE ( 'NONE', #213, 2.000000000000000000 ) ;
#76 = AXIS2_PLACEMENT_3D ( 'NONE', #122, #16, #182 ) ;
#77 = LINE ( 'NONE', #15, #268 ) ;
#78 = VECTOR ( 'NONE', #262, 1000.000000000000000 ) ;
#79 = CIRCLE ( 'NONE', #263, 1.100000000000000089 ) ;
#80 = CARTESIAN_POINT ( 'NONE',  ( -4.000000000000000000, 0.000000000000000000, 0.000000000000000000 ) ) ;
#81 = VERTEX_POINT ( 'NONE', #103 ) ;
#82 = PERSON_AND_ORGANIZATION_ROLE ( 'creator' ) ;
#83 = ORIENTED_EDGE ( 'NONE', *, *, #303, .F. ) ;
#84 = DIRECTION ( 'NONE',  ( -1.000000000000000000, 0.000000000000000000, 0.000000000000000000 ) ) ;
#85 = VERTEX_POINT ( 'NONE', #284 ) ;
#86 = ADVANCED_BREP_SHAPE_REPRESENTATION ( '7bac', ( #196, #71 ), #313 ) ;
#87 = CYLINDRICAL_SURFACE ( 'NONE', #123, 4.000000000000000000 ) ;
#88 = VERTEX_POINT ( 'NONE', #19 ) ;
#89 = AXIS2_PLACEMENT_3D ( 'NONE', #231, #240, #267 ) ;
#90 = ORIENTED_EDGE ( 'NONE', *, *, #298, .T. ) ;
#91 = DIRECTION ( 'NONE',  ( 0.000000000000000000, -1.000000000000000000, 0.000000000000000000 ) ) ;
#92 = DIRECTION ( 'NONE',  ( -1.000000000000000000, 1.224646799147353207E-16, 0.000000000000000000 ) ) ;
#93 = EDGE_CURVE ( 'NONE', #274, #85, #197, .T. ) ;
#94 = CARTESIAN_POINT ( 'NONE',  ( 0.000000000000000000, 0.000000000000000000, 3.000000000000000000 ) ) ;
#95 = APPLICATION_CONTEXT ( 'configuration controlled 3d designs of mechanical parts and assemblies' ) ;
#96 = DIRECTION ( 'NONE',  ( 0.000000000000000000, 0.000000000000000000, 1.000000000000000000 ) ) ;
#97 = APPROVAL ( #161, 'NEURÈENÝ' ) ;
#98 = DIRECTION ( 'NONE',  ( -0.000000000000000000, -0.000000000000000000, -1.000000000000000000 ) ) ;
#99 = DIRECTION ( 'NONE',  ( 0.000000000000000000, 0.000000000000000000, -1.000000000000000000 ) ) ;
#100 = FACE_BOUND ( 'NONE', #358, .T. ) ;
#101 = EDGE_CURVE ( 'NONE', #81, #238, #324, .T. ) ;
#102 = PERSON_AND_ORGANIZATION ( #247, #355 ) ;
#103 = CARTESIAN_POINT ( 'NONE',  ( 2.299999999999999822, 0.000000000000000000, 2.999999999999998668 ) ) ;
#104 = PERSON_AND_ORGANIZATION ( #247, #355 ) ;
#105 = AXIS2_PLACEMENT_3D ( 'NONE', #46, #129, #369 ) ;
#106 = DIRECTION ( 'NONE',  ( -0.000000000000000000, -0.000000000000000000, -1.000000000000000000 ) ) ;
#107 = COORDINATED_UNIVERSAL_TIME_OFFSET ( 1, 0, .AHEAD. ) ;
#108 = AXIS2_PLACEMENT_3D ( 'NONE', #128, #99, #9 ) ;
#109 = ORIENTED_EDGE ( 'NONE', *, *, #319, .T. ) ;
#110 = EDGE_CURVE ( 'NONE', #238, #81, #373, .T. ) ;
#111 = ORIENTED_EDGE ( 'NONE', *, *, #261, .F. ) ;
#112 = PERSON_AND_ORGANIZATION ( #247, #355 ) ;
#113 = DIRECTION ( 'NONE',  ( 1.000000000000000000, 0.000000000000000000, 0.000000000000000000 ) ) ;
#114 = FACE_BOUND ( 'NONE', #57, .T. ) ;
#115 = ADVANCED_FACE ( 'NONE', ( #72 ), #187, .T. ) ;
#116 = ORIENTED_EDGE ( 'NONE', *, *, #3, .F. ) ;
#117 = EDGE_LOOP ( 'NONE', ( #111, #6, #180, #8 ) ) ;
#118 = AXIS2_PLACEMENT_3D ( 'NONE', #221, #332, #92 ) ;
#119 = ORIENTED_EDGE ( 'NONE', *, *, #365, .T. ) ;
#120 = DIRECTION ( 'NONE',  ( -0.000000000000000000, -0.000000000000000000, -1.000000000000000000 ) ) ;
#121 = ORIENTED_EDGE ( 'NONE', *, *, #346, .F. ) ;
#122 = CARTESIAN_POINT ( 'NONE',  ( 0.000000000000000000, 0.000000000000000000, 0.000000000000000000 ) ) ;
#123 = AXIS2_PLACEMENT_3D ( 'NONE', #58, #270, #14 ) ;
#124 = CIRCLE ( 'NONE', #325, 1.100000000000000089 ) ;
#125 = CARTESIAN_POINT ( 'NONE',  ( 0.000000000000000000, 0.000000000000000000, 78.00000000000000000 ) ) ;
#126 = CARTESIAN_POINT ( 'NONE',  ( 0.000000000000000000, 0.000000000000000000, 3.299999999999997158 ) ) ;
#127 = CLOSED_SHELL ( 'NONE', ( #149, #220, #49, #275, #204, #370, #141, #115, #273, #264, #375 ) ) ;
#128 = CARTESIAN_POINT ( 'NONE',  ( 0.000000000000000000, 0.000000000000000000, 78.00000000000000000 ) ) ;
#129 = DIRECTION ( 'NONE',  ( 0.000000000000000000, 0.000000000000000000, 1.000000000000000000 ) ) ;
#130 = CARTESIAN_POINT ( 'NONE',  ( 0.000000000000000000, 0.000000000000000000, 0.000000000000000000 ) ) ;
#131 = DIRECTION ( 'NONE',  ( 0.000000000000000000, 0.000000000000000000, 1.000000000000000000 ) ) ;
#132 = DATE_AND_TIME ( #166, #146 ) ;
#133 = PERSON_AND_ORGANIZATION ( #247, #355 ) ;
#134 = VECTOR ( 'NONE', #48, 1000.000000000000000 ) ;
#135 = DIRECTION ( 'NONE',  ( -1.000000000000000000, 0.000000000000000000, 0.000000000000000000 ) ) ;
#136 = CALENDAR_DATE ( 2022, 8, 7 ) ;
#137 = CIRCLE ( 'NONE', #23, 2.000000000000000000 ) ;
#138 = FACE_OUTER_BOUND ( 'NONE', #359, .T. ) ;
#139 = APPROVAL_ROLE ( '' ) ;
#140 = CC_DESIGN_PERSON_AND_ORGANIZATION_ASSIGNMENT ( #104, #82, ( #252 ) ) ;
#141 = ADVANCED_FACE ( 'NONE', ( #100, #172 ), #25, .F. ) ;
#142 = VERTEX_POINT ( 'NONE', #56 ) ;
#143 = CARTESIAN_POINT ( 'NONE',  ( 2.000000000000000000, 2.449293598294706414E-16, 3.299999999999997158 ) ) ;
#144 = DIRECTION ( 'NONE',  ( 0.000000000000000000, 0.000000000000000000, 1.000000000000000000 ) ) ;
#145 = AXIS2_PLACEMENT_3D ( 'NONE', #53, #269, #135 ) ;
#146 = LOCAL_TIME ( 17, 51, 20.00000000000000000, #339 ) ;
#147 = ORIENTED_EDGE ( 'NONE', *, *, #38, .F. ) ;
#148 = PRODUCT_DEFINITION ( 'NEZNÁMÝ', '', #252, #45 ) ;
#149 = ADVANCED_FACE ( 'NONE', ( #138 ), #207, .F. ) ;
#150 = ORIENTED_EDGE ( 'NONE', *, *, #93, .T. ) ;
#151 = ORIENTED_EDGE ( 'NONE', *, *, #319, .F. ) ;
#152 = CARTESIAN_POINT ( 'NONE',  ( 0.000000000000000000, 0.000000000000000000, 78.00000000000000000 ) ) ;
#153 = APPROVAL_PERSON_ORGANIZATION ( #188, #249, #170 ) ;
#154 = DIRECTION ( 'NONE',  ( 1.000000000000000000, 0.000000000000000000, 0.000000000000000000 ) ) ;
#155 = LOCAL_TIME ( 17, 51, 20.00000000000000000, #344 ) ;
#156 = DIRECTION ( 'NONE',  ( 0.000000000000000000, 0.000000000000000000, 1.000000000000000000 ) ) ;
#157 = DIRECTION ( 'NONE',  ( 1.000000000000000000, 0.000000000000000000, 0.000000000000000000 ) ) ;
#158 = UNCERTAINTY_MEASURE_WITH_UNIT (LENGTH_MEASURE( 1.000000000000000082E-05 ), #61, 'distance_accuracy_value', 'NONE');
#159 = DIRECTION ( 'NONE',  ( 1.000000000000000000, 0.000000000000000000, 0.000000000000000000 ) ) ;
#160 = CARTESIAN_POINT ( 'NONE',  ( -2.000000000000000000, 0.000000000000000000, 3.299999999999997158 ) ) ;
#161 = APPROVAL_STATUS ( 'not_yet_approved' ) ;
#162 = AXIS2_PLACEMENT_3D ( 'NONE', #167, #296, #84 ) ;
#163 = VECTOR ( 'NONE', #219, 1000.000000000000000 ) ;
#164 = DIRECTION ( 'NONE',  ( -1.000000000000000000, 0.000000000000000000, 0.000000000000000000 ) ) ;
#165 = DATE_TIME_ROLE ( 'classification_date' ) ;
#166 = CALENDAR_DATE ( 2022, 8, 7 ) ;
#167 = CARTESIAN_POINT ( 'NONE',  ( 0.000000000000000000, 0.000000000000000000, 78.00000000000000000 ) ) ;
#168 = CC_DESIGN_PERSON_AND_ORGANIZATION_ASSIGNMENT ( #133, #232, ( #148 ) ) ;
#169 = VERTEX_POINT ( 'NONE', #376 ) ;
#170 = APPROVAL_ROLE ( '' ) ;
#171 = CC_DESIGN_APPROVAL ( #249, ( #24 ) ) ;
#172 = FACE_OUTER_BOUND ( 'NONE', #330, .T. ) ;
#173 = DIRECTION ( 'NONE',  ( 0.000000000000000000, 0.000000000000000000, 1.000000000000000000 ) ) ;
#174 = VERTEX_POINT ( 'NONE', #143 ) ;
#175 = EDGE_CURVE ( 'NONE', #169, #323, #55, .T. ) ;
#176 = CC_DESIGN_SECURITY_CLASSIFICATION ( #24, ( #252 ) ) ;
#177 = EDGE_LOOP ( 'NONE', ( #343, #212, #354, #35 ) ) ;
#178 = CIRCLE ( 'NONE', #236, 1.100000000000000089 ) ;
#179 = ORIENTED_EDGE ( 'NONE', *, *, #110, .F. ) ;
#180 = ORIENTED_EDGE ( 'NONE', *, *, #60, .T. ) ;
#181 = EDGE_LOOP ( 'NONE', ( #151, #63, #29, #243 ) ) ;
#182 = DIRECTION ( 'NONE',  ( 1.000000000000000000, 0.000000000000000000, 0.000000000000000000 ) ) ;
#183 = DIRECTION ( 'NONE',  ( 1.000000000000000000, 0.000000000000000000, 0.000000000000000000 ) ) ;
#184 = AXIS2_PLACEMENT_3D ( 'NONE', #250, #301, #36 ) ;
#185 = CARTESIAN_POINT ( 'NONE',  ( 0.000000000000000000, 0.000000000000000000, 0.000000000000000000 ) ) ;
#186 = VECTOR ( 'NONE', #360, 1000.000000000000000 ) ;
#187 = CYLINDRICAL_SURFACE ( 'NONE', #381, 2.000000000000000000 ) ;
#188 = PERSON_AND_ORGANIZATION ( #247, #355 ) ;
#189 = DIRECTION ( 'NONE',  ( -0.000000000000000000, -0.000000000000000000, -1.000000000000000000 ) ) ;
#190 = AXIS2_PLACEMENT_3D ( 'NONE', #281, #340, #159 ) ;
#191 = APPROVAL_ROLE ( '' ) ;
#192 = CARTESIAN_POINT ( 'NONE',  ( -4.000000000000000000, 0.000000000000000000, 3.000000000000000000 ) ) ;
#193 = COORDINATED_UNIVERSAL_TIME_OFFSET ( 1, 0, .AHEAD. ) ;
#194 = AXIS2_PLACEMENT_3D ( 'NONE', #285, #144, #205 ) ;
#195 = VECTOR ( 'NONE', #255, 1000.000000000000000 ) ;
#196 = MANIFOLD_SOLID_BREP ( 'Odebrat vysunutím3', #127 ) ;
#197 = LINE ( 'NONE', #316, #134 ) ;
#198 = SECURITY_CLASSIFICATION_LEVEL ( 'unclassified' ) ;
#199 = CC_DESIGN_DATE_AND_TIME_ASSIGNMENT ( #132, #165, ( #24 ) ) ;
#200 = FACE_OUTER_BOUND ( 'NONE', #214, .T. ) ;
#201 = APPROVAL_STATUS ( 'not_yet_approved' ) ;
#202 = CARTESIAN_POINT ( 'NONE',  ( 0.000000000000000000, 0.000000000000000000, 78.00000000000000000 ) ) ;
#203 = ORIENTED_EDGE ( 'NONE', *, *, #363, .T. ) ;
#204 = ADVANCED_FACE ( 'NONE', ( #26 ), #318, .T. ) ;
#205 = DIRECTION ( 'NONE',  ( 1.000000000000000000, 0.000000000000000000, 0.000000000000000000 ) ) ;
#206 = ORIENTED_EDGE ( 'NONE', *, *, #73, .T. ) ;
#207 = CYLINDRICAL_SURFACE ( 'NONE', #162, 1.100000000000000089 ) ;
#208 = VERTEX_POINT ( 'NONE', #80 ) ;
#209 = ORIENTED_EDGE ( 'NONE', *, *, #302, .F. ) ;
#210 = CIRCLE ( 'NONE', #306, 0.2999999999999999334 ) ;
#211 = PRODUCT_RELATED_PRODUCT_CATEGORY ( 'detail', '', ( #310 ) ) ;
#212 = ORIENTED_EDGE ( 'NONE', *, *, #357, .T. ) ;
#213 = AXIS2_PLACEMENT_3D ( 'NONE', #125, #189, #164 ) ;
#214 = EDGE_LOOP ( 'NONE', ( #209, #326, #66, #179 ) ) ;
#215 = CARTESIAN_POINT ( 'NONE',  ( 4.000000000000000000, 4.898587196589412829E-16, 3.000000000000000000 ) ) ;
#216 = EDGE_LOOP ( 'NONE', ( #147, #293, #90, #109 ) ) ;
#217 = AXIS2_PLACEMENT_3D ( 'NONE', #202, #378, #352 ) ;
#218 = CC_DESIGN_APPROVAL ( #97, ( #252 ) ) ;
#219 = DIRECTION ( 'NONE',  ( 0.000000000000000000, 0.000000000000000000, -1.000000000000000000 ) ) ;
#220 = ADVANCED_FACE ( 'NONE', ( #321 ), #47, .F. ) ;
#221 = CARTESIAN_POINT ( 'NONE',  ( -2.299999999999999822, 2.816687638038912056E-16, 3.299999999999997158 ) ) ;
#222 = DIRECTION ( 'NONE',  ( -0.000000000000000000, -0.000000000000000000, -1.000000000000000000 ) ) ;
#223 = DIRECTION ( 'NONE',  ( 1.000000000000000000, 0.000000000000000000, 0.000000000000000000 ) ) ;
#224 = LINE ( 'NONE', #65, #186 ) ;
#225 = CARTESIAN_POINT ( 'NONE',  ( -1.100000000000000089, 0.000000000000000000, 0.000000000000000000 ) ) ;
#226 = PERSON_AND_ORGANIZATION ( #247, #355 ) ;
#227 = PERSON_AND_ORGANIZATION_ROLE ( 'design_supplier' ) ;
#228 = CARTESIAN_POINT ( 'NONE',  ( 4.000000000000000000, 4.898587196589412829E-16, 0.000000000000000000 ) ) ;
#229 = DATE_AND_TIME ( #371, #304 ) ;
#230 = AXIS2_PLACEMENT_3D ( 'NONE', #7, #120, #223 ) ;
#231 = CARTESIAN_POINT ( 'NONE',  ( 0.000000000000000000, 0.000000000000000000, 3.000000000000000000 ) ) ;
#232 = PERSON_AND_ORGANIZATION_ROLE ( 'creator' ) ;
#233 = DIRECTION ( 'NONE',  ( 0.000000000000000000, 0.000000000000000000, 1.000000000000000000 ) ) ;
#234 = ORIENTED_EDGE ( 'NONE', *, *, #110, .T. ) ;
#235 = SHAPE_DEFINITION_REPRESENTATION ( #259, #86 ) ;
#236 = AXIS2_PLACEMENT_3D ( 'NONE', #152, #156, #183 ) ;
#237 = FACE_OUTER_BOUND ( 'NONE', #248, .T. ) ;
#238 = VERTEX_POINT ( 'NONE', #322 ) ;
#239 = CARTESIAN_POINT ( 'NONE',  ( 1.100000000000000089, 1.347111479062088503E-16, 78.00000000000000000 ) ) ;
#240 = DIRECTION ( 'NONE',  ( 0.000000000000000000, 0.000000000000000000, 1.000000000000000000 ) ) ;
#241 = EDGE_CURVE ( 'NONE', #5, #208, #51, .T. ) ;
#242 = AXIS2_PLACEMENT_3D ( 'NONE', #94, #222, #305 ) ;
#243 = ORIENTED_EDGE ( 'NONE', *, *, #336, .F. ) ;
#244 = CIRCLE ( 'NONE', #76, 4.000000000000000000 ) ;
#245 = ORIENTED_EDGE ( 'NONE', *, *, #261, .T. ) ;
#246 = CARTESIAN_POINT ( 'NONE',  ( -1.100000000000000089, 0.000000000000000000, 78.00000000000000000 ) ) ;
#247 = PERSON ( 'NEURÈENÝ', 'NEURÈENÝ', 'NEURÈENÝ', ('NEURÈENÝ'), ('NEURÈENÝ'), ('NEURÈENÝ') ) ;
#248 = EDGE_LOOP ( 'NONE', ( #328, #206 ) ) ;
#249 = APPROVAL ( #201, 'NEURÈENÝ' ) ;
#250 = CARTESIAN_POINT ( 'NONE',  ( 0.000000000000000000, 0.000000000000000000, 3.000000000000000000 ) ) ;
#251 = ORIENTED_EDGE ( 'NONE', *, *, #68, .F. ) ;
#252 = PRODUCT_DEFINITION_FORMATION_WITH_SPECIFIED_SOURCE ( 'LIBOVOLNÝ', '', #310, .NOT_KNOWN. ) ;
#253 = APPLICATION_CONTEXT ( 'configuration controlled 3d designs of mechanical parts and assemblies' ) ;
#254 = DIRECTION ( 'NONE',  ( 0.000000000000000000, 0.000000000000000000, 1.000000000000000000 ) ) ;
#255 = DIRECTION ( 'NONE',  ( -0.000000000000000000, -0.000000000000000000, -1.000000000000000000 ) ) ;
#256 = CARTESIAN_POINT ( 'NONE',  ( 0.000000000000000000, 0.000000000000000000, 3.000000000000000000 ) ) ;
#257 = CARTESIAN_POINT ( 'NONE',  ( 0.000000000000000000, 0.000000000000000000, 78.00000000000000000 ) ) ;
#258 = APPROVAL_STATUS ( 'not_yet_approved' ) ;
#259 = PRODUCT_DEFINITION_SHAPE ( 'NONE', 'NONE',  #148 ) ;
#260 = FACE_OUTER_BOUND ( 'NONE', #271, .T. ) ;
#261 = EDGE_CURVE ( 'NONE', #142, #5, #62, .T. ) ;
#262 = DIRECTION ( 'NONE',  ( -0.000000000000000000, -0.000000000000000000, -1.000000000000000000 ) ) ;
#263 = AXIS2_PLACEMENT_3D ( 'NONE', #185, #362, #154 ) ;
#264 = ADVANCED_FACE ( 'NONE', ( #200 ), #297, .F. ) ;
#265 = CARTESIAN_POINT ( 'NONE',  ( 0.000000000000000000, 0.000000000000000000, 3.299999999999997158 ) ) ;
#266 = CALENDAR_DATE ( 2022, 8, 7 ) ;
#267 = DIRECTION ( 'NONE',  ( 1.000000000000000000, 0.000000000000000000, 0.000000000000000000 ) ) ;
#268 = VECTOR ( 'NONE', #106, 1000.000000000000000 ) ;
#269 = DIRECTION ( 'NONE',  ( -0.000000000000000000, -0.000000000000000000, -1.000000000000000000 ) ) ;
#270 = DIRECTION ( 'NONE',  ( -0.000000000000000000, -0.000000000000000000, -1.000000000000000000 ) ) ;
#271 = EDGE_LOOP ( 'NONE', ( #30, #347, #33, #288 ) ) ;
#272 = CC_DESIGN_PERSON_AND_ORGANIZATION_ASSIGNMENT ( #112, #227, ( #252 ) ) ;
#273 = ADVANCED_FACE ( 'NONE', ( #114, #237 ), #349, .T. ) ;
#274 = VERTEX_POINT ( 'NONE', #239 ) ;
#275 = ADVANCED_FACE ( 'NONE', ( #351 ), #87, .T. ) ;
#276 =( NAMED_UNIT ( * ) PLANE_ANGLE_UNIT ( ) SI_UNIT ( $, .RADIAN. ) );
#277 = LOCAL_TIME ( 17, 51, 20.00000000000000000, #193 ) ;
#278 = CARTESIAN_POINT ( 'NONE',  ( 2.000000000000000000, 2.449293598294706414E-16, 78.00000000000000000 ) ) ;
#279 = DIRECTION ( 'NONE',  ( 1.000000000000000000, 0.000000000000000000, 0.000000000000000000 ) ) ;
#280 = DIRECTION ( 'NONE',  ( 0.000000000000000000, 0.000000000000000000, 1.000000000000000000 ) ) ;
#281 = CARTESIAN_POINT ( 'NONE',  ( 0.000000000000000000, 0.000000000000000000, 78.00000000000000000 ) ) ;
#282 = CIRCLE ( 'NONE', #327, 2.000000000000000000 ) ;
#283 = APPROVAL ( #258, 'NEURÈENÝ' ) ;
#284 = CARTESIAN_POINT ( 'NONE',  ( 1.100000000000000089, 1.347111479062088503E-16, 0.000000000000000000 ) ) ;
#285 = CARTESIAN_POINT ( 'NONE',  ( 0.000000000000000000, 0.000000000000000000, 3.299999999999997158 ) ) ;
#286 = CIRCLE ( 'NONE', #311, 4.000000000000000000 ) ;
#287 = CARTESIAN_POINT ( 'NONE',  ( -4.000000000000000000, 0.000000000000000000, 3.000000000000000000 ) ) ;
#288 = ORIENTED_EDGE ( 'NONE', *, *, #298, .F. ) ;
#289 = LOCAL_TIME ( 17, 51, 20.00000000000000000, #290 ) ;
#290 = COORDINATED_UNIVERSAL_TIME_OFFSET ( 1, 0, .AHEAD. ) ;
#291 = AXIS2_PLACEMENT_3D ( 'NONE', #292, #21, #1 ) ;
#292 = CARTESIAN_POINT ( 'NONE',  ( 0.000000000000000000, 0.000000000000000000, 0.000000000000000000 ) ) ;
#293 = ORIENTED_EDGE ( 'NONE', *, *, #175, .F. ) ;
#294 = DIRECTION ( 'NONE',  ( 1.000000000000000000, 0.000000000000000000, -0.000000000000000000 ) ) ;
#295 = ORIENTED_EDGE ( 'NONE', *, *, #68, .T. ) ;
#296 = DIRECTION ( 'NONE',  ( 0.000000000000000000, 0.000000000000000000, -1.000000000000000000 ) ) ;
#297 = TOROIDAL_SURFACE ( 'NONE', #40, 2.299999999999999822, 0.2999999999999999889 ) ;
#298 = EDGE_CURVE ( 'NONE', #169, #69, #224, .T. ) ;
#299 = ORIENTED_EDGE ( 'NONE', *, *, #101, .T. ) ;
#300 = ORIENTED_EDGE ( 'NONE', *, *, #357, .F. ) ;
#301 = DIRECTION ( 'NONE',  ( 0.000000000000000000, 0.000000000000000000, 1.000000000000000000 ) ) ;
#302 = EDGE_CURVE ( 'NONE', #69, #238, #13, .T. ) ;
#303 = EDGE_CURVE ( 'NONE', #88, #4, #331, .T. ) ;
#304 = LOCAL_TIME ( 17, 51, 20.00000000000000000, #107 ) ;
#305 = DIRECTION ( 'NONE',  ( 1.000000000000000000, 0.000000000000000000, 0.000000000000000000 ) ) ;
#306 = AXIS2_PLACEMENT_3D ( 'NONE', #307, #91, #11 ) ;
#307 = CARTESIAN_POINT ( 'NONE',  ( 2.299999999999999822, 0.000000000000000000, 3.299999999999997158 ) ) ;
#308 = CARTESIAN_POINT ( 'NONE',  ( 0.000000000000000000, 0.000000000000000000, 78.00000000000000000 ) ) ;
#309 = DATE_AND_TIME ( #266, #289 ) ;
#310 = PRODUCT ( '7bac', '7bac', '', ( #374 ) ) ;
#311 = AXIS2_PLACEMENT_3D ( 'NONE', #17, #254, #337 ) ;
#312 = APPROVAL_DATE_TIME ( #229, #283 ) ;
#313 =( GEOMETRIC_REPRESENTATION_CONTEXT ( 3 ) GLOBAL_UNCERTAINTY_ASSIGNED_CONTEXT ( ( #158 ) ) GLOBAL_UNIT_ASSIGNED_CONTEXT ( ( #61, #276, #329 ) ) REPRESENTATION_CONTEXT ( 'NONE', 'WORKASPACE' ) );
#314 = APPROVAL_DATE_TIME ( #50, #97 ) ;
#315 = EDGE_CURVE ( 'NONE', #4, #85, #79, .T. ) ;
#316 = CARTESIAN_POINT ( 'NONE',  ( 1.100000000000000089, 1.347111479062088503E-16, 78.00000000000000000 ) ) ;
#317 = PERSON_AND_ORGANIZATION_ROLE ( 'classification_officer' ) ;
#318 = CYLINDRICAL_SURFACE ( 'NONE', #145, 4.000000000000000000 ) ;
#319 = EDGE_CURVE ( 'NONE', #69, #174, #137, .T. ) ;
#320 = ORIENTED_EDGE ( 'NONE', *, *, #3, .T. ) ;
#321 = FACE_OUTER_BOUND ( 'NONE', #181, .T. ) ;
#322 = CARTESIAN_POINT ( 'NONE',  ( -2.299999999999999822, 2.816687638038912056E-16, 2.999999999999998668 ) ) ;
#323 = VERTEX_POINT ( 'NONE', #278 ) ;
#324 = CIRCLE ( 'NONE', #242, 2.299999999999999822 ) ;
#325 = AXIS2_PLACEMENT_3D ( 'NONE', #257, #96, #157 ) ;
#326 = ORIENTED_EDGE ( 'NONE', *, *, #32, .F. ) ;
#327 = AXIS2_PLACEMENT_3D ( 'NONE', #372, #131, #279 ) ;
#328 = ORIENTED_EDGE ( 'NONE', *, *, #175, .T. ) ;
#329 =( NAMED_UNIT ( * ) SI_UNIT ( $, .STERADIAN. ) SOLID_ANGLE_UNIT ( ) );
#330 = EDGE_LOOP ( 'NONE', ( #54, #10 ) ) ;
#331 = LINE ( 'NONE', #246, #163 ) ;
#332 = DIRECTION ( 'NONE',  ( 1.224646799147353207E-16, 1.000000000000000000, -0.000000000000000000 ) ) ;
#333 = CC_DESIGN_DATE_AND_TIME_ASSIGNMENT ( #18, #342, ( #148 ) ) ;
#334 = PLANE ( 'NONE',  #184 ) ;
#335 = DIRECTION ( 'NONE',  ( 1.000000000000000000, 0.000000000000000000, 0.000000000000000000 ) ) ;
#336 = EDGE_CURVE ( 'NONE', #174, #81, #210, .T. ) ;
#337 = DIRECTION ( 'NONE',  ( 1.000000000000000000, 0.000000000000000000, 0.000000000000000000 ) ) ;
#338 = PERSON_AND_ORGANIZATION_ROLE ( 'design_owner' ) ;
#339 = COORDINATED_UNIVERSAL_TIME_OFFSET ( 1, 0, .AHEAD. ) ;
#340 = DIRECTION ( 'NONE',  ( 0.000000000000000000, 0.000000000000000000, 1.000000000000000000 ) ) ;
#341 = APPROVAL_PERSON_ORGANIZATION ( #44, #97, #139 ) ;
#342 = DATE_TIME_ROLE ( 'creation_date' ) ;
#343 = ORIENTED_EDGE ( 'NONE', *, *, #93, .F. ) ;
#344 = COORDINATED_UNIVERSAL_TIME_OFFSET ( 1, 0, .AHEAD. ) ;
#345 = CARTESIAN_POINT ( 'NONE',  ( 0.000000000000000000, 0.000000000000000000, 78.00000000000000000 ) ) ;
#346 = EDGE_CURVE ( 'NONE', #142, #59, #34, .T. ) ;
#347 = ORIENTED_EDGE ( 'NONE', *, *, #38, .T. ) ;
#348 = APPROVAL_DATE_TIME ( #309, #249 ) ;
#349 = PLANE ( 'NONE',  #41 ) ;
#350 = EDGE_LOOP ( 'NONE', ( #121, #251, #64, #119 ) ) ;
#351 = FACE_OUTER_BOUND ( 'NONE', #117, .T. ) ;
#352 = DIRECTION ( 'NONE',  ( 1.000000000000000000, 0.000000000000000000, 0.000000000000000000 ) ) ;
#353 = AXIS2_PLACEMENT_3D ( 'NONE', #256, #98, #335 ) ;
#354 = ORIENTED_EDGE ( 'NONE', *, *, #303, .T. ) ;
#355 = ORGANIZATION ( 'NEURÈENÝ', 'NEURÈENÝ', '' ) ;
#356 = APPROVAL_PERSON_ORGANIZATION ( #226, #283, #191 ) ;
#357 = EDGE_CURVE ( 'NONE', #274, #88, #124, .T. ) ;
#358 = EDGE_LOOP ( 'NONE', ( #379, #37 ) ) ;
#359 = EDGE_LOOP ( 'NONE', ( #320, #150, #203, #83 ) ) ;
#360 = DIRECTION ( 'NONE',  ( -0.000000000000000000, -0.000000000000000000, -1.000000000000000000 ) ) ;
#361 = CIRCLE ( 'NONE', #190, 2.000000000000000000 ) ;
#362 = DIRECTION ( 'NONE',  ( -0.000000000000000000, -0.000000000000000000, -1.000000000000000000 ) ) ;
#363 = EDGE_CURVE ( 'NONE', #85, #4, #12, .T. ) ;
#364 = DIRECTION ( 'NONE',  ( 1.000000000000000000, 0.000000000000000000, 0.000000000000000000 ) ) ;
#365 = EDGE_CURVE ( 'NONE', #208, #59, #244, .T. ) ;
#366 = CC_DESIGN_PERSON_AND_ORGANIZATION_ASSIGNMENT ( #102, #317, ( #24 ) ) ;
#367 = DIRECTION ( 'NONE',  ( -1.000000000000000000, 0.000000000000000000, 0.000000000000000000 ) ) ;
#368 = APPLICATION_PROTOCOL_DEFINITION ( 'international standard', 'config_control_design', 1994, #95 ) ;
#369 = DIRECTION ( 'NONE',  ( 1.000000000000000000, 0.000000000000000000, 0.000000000000000000 ) ) ;
#370 = ADVANCED_FACE ( 'NONE', ( #67, #31 ), #334, .T. ) ;
#371 = CALENDAR_DATE ( 2022, 8, 7 ) ;
#372 = CARTESIAN_POINT ( 'NONE',  ( 0.000000000000000000, 0.000000000000000000, 3.299999999999997158 ) ) ;
#373 = CIRCLE ( 'NONE', #353, 2.299999999999999822 ) ;
#374 = MECHANICAL_CONTEXT ( 'NONE', #253, 'mechanical' ) ;
#375 = ADVANCED_FACE ( 'NONE', ( #70 ), #39, .F. ) ;
#376 = CARTESIAN_POINT ( 'NONE',  ( -2.000000000000000000, 0.000000000000000000, 78.00000000000000000 ) ) ;
#377 = APPLICATION_PROTOCOL_DEFINITION ( 'international standard', 'config_control_design', 1994, #253 ) ;
#378 = DIRECTION ( 'NONE',  ( 0.000000000000000000, 0.000000000000000000, 1.000000000000000000 ) ) ;
#379 = ORIENTED_EDGE ( 'NONE', *, *, #315, .F. ) ;
#380 = CIRCLE ( 'NONE', #105, 4.000000000000000000 ) ;
#381 = AXIS2_PLACEMENT_3D ( 'NONE', #308, #43, #367 ) ;
ENDSEC;
END-ISO-10303-21;
