ISO-10303-21;
HEADER;
FILE_DESCRIPTION (( 'STEP AP203' ),
    '1' );
FILE_NAME ('9087.STEP',
    '2022-07-08T14:36:44',
    ( '' ),
    ( '' ),
    'SwSTEP 2.0',
    'SolidWorks 2019',
    '' );
FILE_SCHEMA (( 'CONFIG_CONTROL_DESIGN' ));
ENDSEC;

DATA;
#1 = VERTEX_POINT ( 'NONE', #358 ) ;
#2 = CIRCLE ( 'NONE', #311, 6.700000000000001066 ) ;
#3 = EDGE_CURVE ( 'NONE', #28, #274, #314, .T. ) ;
#4 = FACE_OUTER_BOUND ( 'NONE', #150, .T. ) ;
#5 = PERSON_AND_ORGANIZATION ( #22, #187 ) ;
#6 = AXIS2_PLACEMENT_3D ( 'NONE', #182, #298, #78 ) ;
#7 = DIRECTION ( 'NONE',  ( 0.000000000000000000, 0.000000000000000000, 1.000000000000000000 ) ) ;
#8 = CYLINDRICAL_SURFACE ( 'NONE', #325, 10.00000000000000000 ) ;
#9 = ADVANCED_FACE ( 'NONE', ( #216, #356 ), #296, .T. ) ;
#10 = APPROVAL_DATE_TIME ( #368, #47 ) ;
#11 = CYLINDRICAL_SURFACE ( 'NONE', #84, 6.000000000000000888 ) ;
#12 = CARTESIAN_POINT ( 'NONE',  ( 6.000000000000000888, 7.347880794884120722E-16, 757.0000000000000000 ) ) ;
#13 = PRODUCT_DEFINITION ( 'NEZNÁMÝ', '', #194, #320 ) ;
#14 = LINE ( 'NONE', #251, #270 ) ;
#15 = CC_DESIGN_PERSON_AND_ORGANIZATION_ASSIGNMENT ( #123, #89, ( #54 ) ) ;
#16 = EDGE_LOOP ( 'NONE', ( #315, #33, #124, #172 ) ) ;
#17 = AXIS2_PLACEMENT_3D ( 'NONE', #61, #217, #332 ) ;
#18 = ADVANCED_FACE ( 'NONE', ( #380, #4 ), #264, .F. ) ;
#19 = ORIENTED_EDGE ( 'NONE', *, *, #145, .T. ) ;
#20 = DIRECTION ( 'NONE',  ( 1.000000000000000000, 0.000000000000000000, 0.000000000000000000 ) ) ;
#21 = LOCAL_TIME ( 16, 36, 44.00000000000000000, #66 ) ;
#22 = PERSON ( 'NEURÈENÝ', 'NEURÈENÝ', 'NEURÈENÝ', ('NEURÈENÝ'), ('NEURÈENÝ'), ('NEURÈENÝ') ) ;
#23 = VERTEX_POINT ( 'NONE', #56 ) ;
#24 = FACE_OUTER_BOUND ( 'NONE', #148, .T. ) ;
#25 = ORIENTED_EDGE ( 'NONE', *, *, #145, .F. ) ;
#26 = CARTESIAN_POINT ( 'NONE',  ( 10.00000000000000000, 1.224646799147353256E-15, 7.000000000000000000 ) ) ;
#27 = LINE ( 'NONE', #26, #206 ) ;
#28 = VERTEX_POINT ( 'NONE', #180 ) ;
#29 = DIRECTION ( 'NONE',  ( 0.000000000000000000, 0.000000000000000000, -1.000000000000000000 ) ) ;
#30 = EDGE_LOOP ( 'NONE', ( #232, #256, #272, #344 ) ) ;
#31 = DIRECTION ( 'NONE',  ( 0.000000000000000000, 0.000000000000000000, 1.000000000000000000 ) ) ;
#32 = TOROIDAL_SURFACE ( 'NONE', #91, 6.700000000000001066, 0.6999999999999999556 ) ;
#33 = ORIENTED_EDGE ( 'NONE', *, *, #255, .F. ) ;
#34 = CARTESIAN_POINT ( 'NONE',  ( 0.000000000000000000, 0.000000000000000000, 7.000000000000000000 ) ) ;
#35 = APPROVAL_PERSON_ORGANIZATION ( #96, #92, #151 ) ;
#36 = ORIENTED_EDGE ( 'NONE', *, *, #83, .T. ) ;
#37 = APPROVAL_DATE_TIME ( #279, #92 ) ;
#38 = ADVANCED_FACE ( 'NONE', ( #293 ), #32, .F. ) ;
#39 = DIRECTION ( 'NONE',  ( 1.000000000000000000, 0.000000000000000000, 0.000000000000000000 ) ) ;
#40 = PERSON_AND_ORGANIZATION_ROLE ( 'creator' ) ;
#41 = DIRECTION ( 'NONE',  ( -1.000000000000000000, 0.000000000000000000, 0.000000000000000000 ) ) ;
#42 = DIRECTION ( 'NONE',  ( -1.000000000000000000, 0.000000000000000000, 0.000000000000000000 ) ) ;
#43 = DIRECTION ( 'NONE',  ( 0.000000000000000000, 0.000000000000000000, -1.000000000000000000 ) ) ;
#44 = CLOSED_SHELL ( 'NONE', ( #352, #317, #157, #221, #230, #215, #18, #130, #9, #38, #348 ) ) ;
#45 = AXIS2_PLACEMENT_3D ( 'NONE', #79, #347, #108 ) ;
#46 = COORDINATED_UNIVERSAL_TIME_OFFSET ( 1, 0, .AHEAD. ) ;
#47 = APPROVAL ( #225, 'NEURÈENÝ' ) ;
#48 = EDGE_CURVE ( 'NONE', #1, #346, #197, .T. ) ;
#49 = VERTEX_POINT ( 'NONE', #85 ) ;
#50 = DIRECTION ( 'NONE',  ( -1.000000000000000000, 0.000000000000000000, 0.000000000000000000 ) ) ;
#51 = ORIENTED_EDGE ( 'NONE', *, *, #198, .T. ) ;
#52 = CIRCLE ( 'NONE', #132, 4.000000000000000000 ) ;
#53 =( LENGTH_UNIT ( ) NAMED_UNIT ( * ) SI_UNIT ( .MILLI., .METRE. ) );
#54 = PRODUCT ( '9087', '9087', '', ( #286 ) ) ;
#55 = DIRECTION ( 'NONE',  ( 0.000000000000000000, 0.000000000000000000, 1.000000000000000000 ) ) ;
#56 = CARTESIAN_POINT ( 'NONE',  ( 4.000000000000000000, 4.898587196589412829E-16, 0.000000000000000000 ) ) ;
#57 = DIRECTION ( 'NONE',  ( 0.000000000000000000, 0.000000000000000000, -1.000000000000000000 ) ) ;
#58 = DIRECTION ( 'NONE',  ( 1.000000000000000000, 0.000000000000000000, 0.000000000000000000 ) ) ;
#59 = CARTESIAN_POINT ( 'NONE',  ( -6.000000000000000888, 0.000000000000000000, 757.0000000000000000 ) ) ;
#60 = EDGE_CURVE ( 'NONE', #23, #359, #343, .T. ) ;
#61 = CARTESIAN_POINT ( 'NONE',  ( 0.000000000000000000, 0.000000000000000000, 0.000000000000000000 ) ) ;
#62 = AXIS2_PLACEMENT_3D ( 'NONE', #164, #276, #202 ) ;
#64 = ORIENTED_EDGE ( 'NONE', *, *, #177, .F. ) ;
#63 = TOROIDAL_SURFACE ( 'NONE', #282, 6.700000000000001066, 0.6999999999999999556 ) ;
#65 = APPROVAL_PERSON_ORGANIZATION ( #277, #329, #163 ) ;
#66 = COORDINATED_UNIVERSAL_TIME_OFFSET ( 1, 0, .AHEAD. ) ;
#67 = MANIFOLD_SOLID_BREP ( 'Odebrat vysunutím3', #44 ) ;
#68 = DIRECTION ( 'NONE',  ( -1.000000000000000000, 1.224646799147353454E-16, 0.000000000000000000 ) ) ;
#69 = APPROVAL_DATE_TIME ( #302, #329 ) ;
#70 = CARTESIAN_POINT ( 'NONE',  ( -6.700000000000001066, 8.205133554287267548E-16, 7.700000000000040146 ) ) ;
#71 = CALENDAR_DATE ( 2022, 8, 7 ) ;
#72 = CARTESIAN_POINT ( 'NONE',  ( 6.700000000000001066, 0.000000000000000000, 7.700000000000040146 ) ) ;
#73 = LOCAL_TIME ( 16, 36, 44.00000000000000000, #331 ) ;
#74 = CARTESIAN_POINT ( 'NONE',  ( -4.000000000000000000, 0.000000000000000000, 757.0000000000000000 ) ) ;
#75 = CALENDAR_DATE ( 2022, 8, 7 ) ;
#76 = CC_DESIGN_APPROVAL ( #47, ( #340 ) ) ;
#77 = VERTEX_POINT ( 'NONE', #59 ) ;
#78 = DIRECTION ( 'NONE',  ( 1.000000000000000000, 0.000000000000000000, 0.000000000000000000 ) ) ;
#79 = CARTESIAN_POINT ( 'NONE',  ( 0.000000000000000000, 0.000000000000000000, 7.000000000000000000 ) ) ;
#80 = CARTESIAN_POINT ( 'NONE',  ( 0.000000000000000000, 0.000000000000000000, 0.000000000000000000 ) ) ;
#81 = CARTESIAN_POINT ( 'NONE',  ( 0.000000000000000000, 0.000000000000000000, 757.0000000000000000 ) ) ;
#82 = EDGE_LOOP ( 'NONE', ( #208, #120, #109, #201 ) ) ;
#83 = EDGE_CURVE ( 'NONE', #359, #23, #254, .T. ) ;
#84 = AXIS2_PLACEMENT_3D ( 'NONE', #95, #309, #50 ) ;
#85 = CARTESIAN_POINT ( 'NONE',  ( -6.000000000000000888, 0.000000000000000000, 7.700000000000040146 ) ) ;
#86 = EDGE_CURVE ( 'NONE', #274, #28, #114, .T. ) ;
#87 = DIRECTION ( 'NONE',  ( 1.000000000000000000, 0.000000000000000000, 0.000000000000000000 ) ) ;
#88 = DIRECTION ( 'NONE',  ( 1.000000000000000000, 0.000000000000000000, 0.000000000000000000 ) ) ;
#89 = PERSON_AND_ORGANIZATION_ROLE ( 'design_owner' ) ;
#90 = EDGE_LOOP ( 'NONE', ( #377, #173 ) ) ;
#91 = AXIS2_PLACEMENT_3D ( 'NONE', #112, #269, #88 ) ;
#92 = APPROVAL ( #159, 'NEURÈENÝ' ) ;
#93 = DIRECTION ( 'NONE',  ( 1.000000000000000000, 0.000000000000000000, -0.000000000000000000 ) ) ;
#94 = EDGE_LOOP ( 'NONE', ( #220, #25 ) ) ;
#95 = CARTESIAN_POINT ( 'NONE',  ( 0.000000000000000000, 0.000000000000000000, 757.0000000000000000 ) ) ;
#96 = PERSON_AND_ORGANIZATION ( #22, #187 ) ;
#97 = DIRECTION ( 'NONE',  ( 0.000000000000000000, 0.000000000000000000, 1.000000000000000000 ) ) ;
#98 = DIRECTION ( 'NONE',  ( 0.000000000000000000, 0.000000000000000000, 1.000000000000000000 ) ) ;
#99 = UNCERTAINTY_MEASURE_WITH_UNIT (LENGTH_MEASURE( 1.000000000000000082E-05 ), #53, 'distance_accuracy_value', 'NONE');
#100 = ORIENTED_EDGE ( 'NONE', *, *, #324, .F. ) ;
#101 = AXIS2_PLACEMENT_3D ( 'NONE', #345, #284, #39 ) ;
#102 = PLANE ( 'NONE',  #62 ) ;
#103 = ORIENTED_EDGE ( 'NONE', *, *, #86, .F. ) ;
#104 = CARTESIAN_POINT ( 'NONE',  ( 0.000000000000000000, 0.000000000000000000, 757.0000000000000000 ) ) ;
#105 = PRODUCT_DEFINITION_SHAPE ( 'NONE', 'NONE',  #13 ) ;
#106 = ORIENTED_EDGE ( 'NONE', *, *, #267, .F. ) ;
#107 = CIRCLE ( 'NONE', #333, 6.000000000000000888 ) ;
#108 = DIRECTION ( 'NONE',  ( 1.000000000000000000, 0.000000000000000000, 0.000000000000000000 ) ) ;
#109 = ORIENTED_EDGE ( 'NONE', *, *, #60, .T. ) ;
#110 = DIRECTION ( 'NONE',  ( -0.000000000000000000, -0.000000000000000000, -1.000000000000000000 ) ) ;
#111 = CC_DESIGN_DATE_AND_TIME_ASSIGNMENT ( #275, #125, ( #340 ) ) ;
#112 = CARTESIAN_POINT ( 'NONE',  ( 0.000000000000000000, 0.000000000000000000, 7.700000000000040146 ) ) ;
#113 = EDGE_CURVE ( 'NONE', #142, #77, #156, .T. ) ;
#114 = CIRCLE ( 'NONE', #227, 10.00000000000000000 ) ;
#115 = CARTESIAN_POINT ( 'NONE',  ( -10.00000000000000000, 0.000000000000000000, 7.000000000000000000 ) ) ;
#116 = DIRECTION ( 'NONE',  ( 0.000000000000000000, 0.000000000000000000, 1.000000000000000000 ) ) ;
#117 = SECURITY_CLASSIFICATION_LEVEL ( 'unclassified' ) ;
#118 = CIRCLE ( 'NONE', #355, 4.000000000000000000 ) ;
#119 = LOCAL_TIME ( 16, 36, 44.00000000000000000, #242 ) ;
#120 = ORIENTED_EDGE ( 'NONE', *, *, #267, .T. ) ;
#121 = COORDINATED_UNIVERSAL_TIME_OFFSET ( 1, 0, .AHEAD. ) ;
#122 = VERTEX_POINT ( 'NONE', #308 ) ;
#123 = PERSON_AND_ORGANIZATION ( #22, #187 ) ;
#124 = ORIENTED_EDGE ( 'NONE', *, *, #177, .T. ) ;
#125 = DATE_TIME_ROLE ( 'classification_date' ) ;
#126 = CIRCLE ( 'NONE', #45, 6.700000000000001066 ) ;
#127 = FACE_OUTER_BOUND ( 'NONE', #188, .T. ) ;
#128 = APPLICATION_PROTOCOL_DEFINITION ( 'international standard', 'config_control_design', 1994, #179 ) ;
#129 = DIRECTION ( 'NONE',  ( -1.000000000000000000, 0.000000000000000000, 0.000000000000000000 ) ) ;
#130 = ADVANCED_FACE ( 'NONE', ( #341 ), #11, .T. ) ;
#131 = DIRECTION ( 'NONE',  ( 1.000000000000000000, 0.000000000000000000, 0.000000000000000000 ) ) ;
#132 = AXIS2_PLACEMENT_3D ( 'NONE', #222, #367, #303 ) ;
#133 = EDGE_CURVE ( 'NONE', #49, #175, #169, .T. ) ;
#134 = DIRECTION ( 'NONE',  ( -0.000000000000000000, -0.000000000000000000, -1.000000000000000000 ) ) ;
#135 = VECTOR ( 'NONE', #43, 1000.000000000000000 ) ;
#136 =( GEOMETRIC_REPRESENTATION_CONTEXT ( 3 ) GLOBAL_UNCERTAINTY_ASSIGNED_CONTEXT ( ( #99 ) ) GLOBAL_UNIT_ASSIGNED_CONTEXT ( ( #53, #265, #239 ) ) REPRESENTATION_CONTEXT ( 'NONE', 'WORKASPACE' ) );
#137 = FACE_OUTER_BOUND ( 'NONE', #140, .T. ) ;
#138 = ORIENTED_EDGE ( 'NONE', *, *, #3, .T. ) ;
#139 = DIRECTION ( 'NONE',  ( 0.000000000000000000, 0.000000000000000000, -1.000000000000000000 ) ) ;
#140 = EDGE_LOOP ( 'NONE', ( #100, #103, #247, #240 ) ) ;
#141 = DIRECTION ( 'NONE',  ( -1.000000000000000000, 0.000000000000000000, 0.000000000000000000 ) ) ;
#142 = VERTEX_POINT ( 'NONE', #12 ) ;
#143 = CIRCLE ( 'NONE', #185, 0.7000000000000000666 ) ;
#144 = DIRECTION ( 'NONE',  ( -1.000000000000000000, 0.000000000000000000, 0.000000000000000000 ) ) ;
#145 = EDGE_CURVE ( 'NONE', #299, #326, #52, .T. ) ;
#146 = ORIENTED_EDGE ( 'NONE', *, *, #48, .F. ) ;
#147 = CARTESIAN_POINT ( 'NONE',  ( 6.000000000000000888, 7.347880794884120722E-16, 757.0000000000000000 ) ) ;
#148 = EDGE_LOOP ( 'NONE', ( #106, #19, #51, #36 ) ) ;
#149 = CYLINDRICAL_SURFACE ( 'NONE', #307, 4.000000000000000000 ) ;
#150 = EDGE_LOOP ( 'NONE', ( #183, #146 ) ) ;
#151 = APPROVAL_ROLE ( '' ) ;
#152 = DIRECTION ( 'NONE',  ( 0.000000000000000000, 0.000000000000000000, 1.000000000000000000 ) ) ;
#153 = PERSON_AND_ORGANIZATION ( #22, #187 ) ;
#154 = ORIENTED_EDGE ( 'NONE', *, *, #113, .T. ) ;
#155 = CALENDAR_DATE ( 2022, 8, 7 ) ;
#156 = CIRCLE ( 'NONE', #370, 6.000000000000000888 ) ;
#157 = ADVANCED_FACE ( 'NONE', ( #127 ), #259, .T. ) ;
#158 = FACE_BOUND ( 'NONE', #90, .T. ) ;
#159 = APPROVAL_STATUS ( 'not_yet_approved' ) ;
#160 = AXIS2_PLACEMENT_3D ( 'NONE', #278, #161, #129 ) ;
#161 = DIRECTION ( 'NONE',  ( -0.000000000000000000, -0.000000000000000000, -1.000000000000000000 ) ) ;
#162 = EDGE_CURVE ( 'NONE', #274, #346, #14, .T. ) ;
#163 = APPROVAL_ROLE ( '' ) ;
#164 = CARTESIAN_POINT ( 'NONE',  ( 0.000000000000000000, 0.000000000000000000, 7.000000000000000000 ) ) ;
#165 = CARTESIAN_POINT ( 'NONE',  ( 0.000000000000000000, 0.000000000000000000, 7.000000000000000000 ) ) ;
#166 = CC_DESIGN_PERSON_AND_ORGANIZATION_ASSIGNMENT ( #366, #40, ( #13 ) ) ;
#167 = AXIS2_PLACEMENT_3D ( 'NONE', #70, #189, #68 ) ;
#168 = ORIENTED_EDGE ( 'NONE', *, *, #83, .F. ) ;
#169 = CIRCLE ( 'NONE', #167, 0.7000000000000000666 ) ;
#170 = DIRECTION ( 'NONE',  ( -0.000000000000000000, -0.000000000000000000, -1.000000000000000000 ) ) ;
#171 = EDGE_CURVE ( 'NONE', #49, #285, #228, .T. ) ;
#172 = ORIENTED_EDGE ( 'NONE', *, *, #291, .F. ) ;
#173 = ORIENTED_EDGE ( 'NONE', *, *, #291, .T. ) ;
#174 = CARTESIAN_POINT ( 'NONE',  ( -10.00000000000000000, 0.000000000000000000, 0.000000000000000000 ) ) ;
#175 = VERTEX_POINT ( 'NONE', #369 ) ;
#176 = AXIS2_PLACEMENT_3D ( 'NONE', #328, #210, #58 ) ;
#177 = EDGE_CURVE ( 'NONE', #285, #122, #143, .T. ) ;
#178 = DIRECTION ( 'NONE',  ( -0.000000000000000000, -0.000000000000000000, -1.000000000000000000 ) ) ;
#179 = APPLICATION_CONTEXT ( 'configuration controlled 3d designs of mechanical parts and assemblies' ) ;
#180 = CARTESIAN_POINT ( 'NONE',  ( 10.00000000000000000, 1.224646799147353256E-15, 7.000000000000000000 ) ) ;
#181 = ORIENTED_EDGE ( 'NONE', *, *, #255, .T. ) ;
#182 = CARTESIAN_POINT ( 'NONE',  ( 0.000000000000000000, 0.000000000000000000, 0.000000000000000000 ) ) ;
#183 = ORIENTED_EDGE ( 'NONE', *, *, #288, .F. ) ;
#184 = PERSON_AND_ORGANIZATION ( #22, #187 ) ;
#185 = AXIS2_PLACEMENT_3D ( 'NONE', #72, #224, #373 ) ;
#186 = CIRCLE ( 'NONE', #101, 6.000000000000000888 ) ;
#187 = ORGANIZATION ( 'NEURÈENÝ', 'NEURÈENÝ', '' ) ;
#188 = EDGE_LOOP ( 'NONE', ( #229, #260, #181, #290 ) ) ;
#189 = DIRECTION ( 'NONE',  ( 1.224646799147353207E-16, 1.000000000000000000, -0.000000000000000000 ) ) ;
#190 = CALENDAR_DATE ( 2022, 8, 7 ) ;
#191 = EDGE_CURVE ( 'NONE', #77, #142, #186, .T. ) ;
#192 = DIRECTION ( 'NONE',  ( 0.000000000000000000, 0.000000000000000000, 1.000000000000000000 ) ) ;
#193 = AXIS2_PLACEMENT_3D ( 'NONE', #209, #55, #87 ) ;
#195 = CARTESIAN_POINT ( 'NONE',  ( 0.000000000000000000, 0.000000000000000000, 757.0000000000000000 ) ) ;
#194 = PRODUCT_DEFINITION_FORMATION_WITH_SPECIFIED_SOURCE ( 'LIBOVOLNÝ', '', #54, .NOT_KNOWN. ) ;
#196 = CARTESIAN_POINT ( 'NONE',  ( 0.000000000000000000, 0.000000000000000000, 7.000000000000000000 ) ) ;
#197 = CIRCLE ( 'NONE', #245, 10.00000000000000000 ) ;
#198 = EDGE_CURVE ( 'NONE', #326, #359, #304, .T. ) ;
#199 = VECTOR ( 'NONE', #57, 1000.000000000000000 ) ;
#200 = CC_DESIGN_SECURITY_CLASSIFICATION ( #340, ( #194 ) ) ;
#201 = ORIENTED_EDGE ( 'NONE', *, *, #198, .F. ) ;
#202 = DIRECTION ( 'NONE',  ( 1.000000000000000000, 0.000000000000000000, -0.000000000000000000 ) ) ;
#203 = AXIS2_PLACEMENT_3D ( 'NONE', #330, #152, #93 ) ;
#204 = LINE ( 'NONE', #321, #219 ) ;
#205 = ORIENTED_EDGE ( 'NONE', *, *, #295, .T. ) ;
#206 = VECTOR ( 'NONE', #294, 1000.000000000000000 ) ;
#207 = CARTESIAN_POINT ( 'NONE',  ( 6.000000000000000888, 7.347880794884120722E-16, 7.700000000000040146 ) ) ;
#208 = ORIENTED_EDGE ( 'NONE', *, *, #226, .T. ) ;
#209 = CARTESIAN_POINT ( 'NONE',  ( 0.000000000000000000, 0.000000000000000000, 0.000000000000000000 ) ) ;
#210 = DIRECTION ( 'NONE',  ( -0.000000000000000000, -0.000000000000000000, -1.000000000000000000 ) ) ;
#211 = AXIS2_PLACEMENT_3D ( 'NONE', #268, #139, #141 ) ;
#212 = FACE_OUTER_BOUND ( 'NONE', #375, .T. ) ;
#213 = ORIENTED_EDGE ( 'NONE', *, *, #133, .T. ) ;
#214 = PERSON_AND_ORGANIZATION_ROLE ( 'creator' ) ;
#215 = ADVANCED_FACE ( 'NONE', ( #158, #281 ), #102, .T. ) ;
#216 = FACE_BOUND ( 'NONE', #94, .T. ) ;
#217 = DIRECTION ( 'NONE',  ( 0.000000000000000000, 0.000000000000000000, 1.000000000000000000 ) ) ;
#218 = DATE_AND_TIME ( #190, #357 ) ;
#219 = VECTOR ( 'NONE', #178, 1000.000000000000000 ) ;
#220 = ORIENTED_EDGE ( 'NONE', *, *, #226, .F. ) ;
#221 = ADVANCED_FACE ( 'NONE', ( #313 ), #8, .T. ) ;
#222 = CARTESIAN_POINT ( 'NONE',  ( 0.000000000000000000, 0.000000000000000000, 757.0000000000000000 ) ) ;
#223 = DIRECTION ( 'NONE',  ( 1.000000000000000000, 0.000000000000000000, 0.000000000000000000 ) ) ;
#224 = DIRECTION ( 'NONE',  ( 0.000000000000000000, -1.000000000000000000, 0.000000000000000000 ) ) ;
#225 = APPROVAL_STATUS ( 'not_yet_approved' ) ;
#226 = EDGE_CURVE ( 'NONE', #326, #299, #118, .T. ) ;
#227 = AXIS2_PLACEMENT_3D ( 'NONE', #165, #98, #257 ) ;
#228 = CIRCLE ( 'NONE', #349, 6.000000000000000888 ) ;
#229 = ORIENTED_EDGE ( 'NONE', *, *, #113, .F. ) ;
#230 = ADVANCED_FACE ( 'NONE', ( #137 ), #374, .T. ) ;
#231 = DIRECTION ( 'NONE',  ( 0.000000000000000000, 0.000000000000000000, 1.000000000000000000 ) ) ;
#232 = ORIENTED_EDGE ( 'NONE', *, *, #3, .F. ) ;
#233 = FACE_OUTER_BOUND ( 'NONE', #82, .T. ) ;
#234 = CC_DESIGN_APPROVAL ( #329, ( #13 ) ) ;
#235 = AXIS2_PLACEMENT_3D ( 'NONE', #80, #236, #350 ) ;
#236 = DIRECTION ( 'NONE',  ( 0.000000000000000000, 0.000000000000000000, 1.000000000000000000 ) ) ;
#237 = DIRECTION ( 'NONE',  ( 1.000000000000000000, 0.000000000000000000, 0.000000000000000000 ) ) ;
#238 = CARTESIAN_POINT ( 'NONE',  ( 0.000000000000000000, 0.000000000000000000, 0.000000000000000000 ) ) ;
#239 =( NAMED_UNIT ( * ) SI_UNIT ( $, .STERADIAN. ) SOLID_ANGLE_UNIT ( ) );
#240 = ORIENTED_EDGE ( 'NONE', *, *, #288, .T. ) ;
#241 = EDGE_LOOP ( 'NONE', ( #243, #138 ) ) ;
#242 = COORDINATED_UNIVERSAL_TIME_OFFSET ( 1, 0, .AHEAD. ) ;
#243 = ORIENTED_EDGE ( 'NONE', *, *, #86, .T. ) ;
#244 = SHAPE_DEFINITION_REPRESENTATION ( #105, #335 ) ;
#245 = AXIS2_PLACEMENT_3D ( 'NONE', #238, #116, #353 ) ;
#246 = PERSON_AND_ORGANIZATION_ROLE ( 'classification_officer' ) ;
#247 = ORIENTED_EDGE ( 'NONE', *, *, #162, .T. ) ;
#248 = LOCAL_TIME ( 16, 36, 44.00000000000000000, #46 ) ;
#249 = DIRECTION ( 'NONE',  ( 1.000000000000000000, 0.000000000000000000, 0.000000000000000000 ) ) ;
#250 = CARTESIAN_POINT ( 'NONE',  ( 0.000000000000000000, 0.000000000000000000, 7.700000000000040146 ) ) ;
#251 = CARTESIAN_POINT ( 'NONE',  ( -10.00000000000000000, 0.000000000000000000, 7.000000000000000000 ) ) ;
#252 = CC_DESIGN_APPROVAL ( #92, ( #194 ) ) ;
#253 = APPROVAL_ROLE ( '' ) ;
#254 = CIRCLE ( 'NONE', #6, 4.000000000000000000 ) ;
#255 = EDGE_CURVE ( 'NONE', #285, #49, #107, .T. ) ;
#256 = ORIENTED_EDGE ( 'NONE', *, *, #324, .T. ) ;
#257 = DIRECTION ( 'NONE',  ( 1.000000000000000000, 0.000000000000000000, 0.000000000000000000 ) ) ;
#258 = EDGE_LOOP ( 'NONE', ( #287, #266, #205, #312 ) ) ;
#259 = CYLINDRICAL_SURFACE ( 'NONE', #306, 6.000000000000000888 ) ;
#260 = ORIENTED_EDGE ( 'NONE', *, *, #301, .T. ) ;
#261 = AXIS2_PLACEMENT_3D ( 'NONE', #34, #7, #361 ) ;
#262 = EDGE_LOOP ( 'NONE', ( #168, #371 ) ) ;
#263 = CARTESIAN_POINT ( 'NONE',  ( -4.000000000000000000, 0.000000000000000000, 0.000000000000000000 ) ) ;
#264 = PLANE ( 'NONE',  #17 ) ;
#265 =( NAMED_UNIT ( * ) PLANE_ANGLE_UNIT ( ) SI_UNIT ( $, .RADIAN. ) );
#266 = ORIENTED_EDGE ( 'NONE', *, *, #191, .F. ) ;
#267 = EDGE_CURVE ( 'NONE', #299, #23, #280, .T. ) ;
#268 = CARTESIAN_POINT ( 'NONE',  ( 0.000000000000000000, 0.000000000000000000, 757.0000000000000000 ) ) ;
#269 = DIRECTION ( 'NONE',  ( 0.000000000000000000, 0.000000000000000000, 1.000000000000000000 ) ) ;
#270 = VECTOR ( 'NONE', #336, 1000.000000000000000 ) ;
#271 = APPROVAL_PERSON_ORGANIZATION ( #362, #47, #253 ) ;
#272 = ORIENTED_EDGE ( 'NONE', *, *, #48, .T. ) ;
#273 = PERSON_AND_ORGANIZATION_ROLE ( 'design_supplier' ) ;
#274 = VERTEX_POINT ( 'NONE', #115 ) ;
#275 = DATE_AND_TIME ( #155, #21 ) ;
#276 = DIRECTION ( 'NONE',  ( 0.000000000000000000, 0.000000000000000000, 1.000000000000000000 ) ) ;
#277 = PERSON_AND_ORGANIZATION ( #22, #187 ) ;
#278 = CARTESIAN_POINT ( 'NONE',  ( 0.000000000000000000, 0.000000000000000000, 7.000000000000000000 ) ) ;
#279 = DATE_AND_TIME ( #334, #119 ) ;
#280 = LINE ( 'NONE', #381, #199 ) ;
#281 = FACE_OUTER_BOUND ( 'NONE', #241, .T. ) ;
#282 = AXIS2_PLACEMENT_3D ( 'NONE', #292, #31, #316 ) ;
#283 = ORIENTED_EDGE ( 'NONE', *, *, #191, .T. ) ;
#284 = DIRECTION ( 'NONE',  ( 0.000000000000000000, 0.000000000000000000, 1.000000000000000000 ) ) ;
#285 = VERTEX_POINT ( 'NONE', #207 ) ;
#286 = MECHANICAL_CONTEXT ( 'NONE', #360, 'mechanical' ) ;
#287 = ORIENTED_EDGE ( 'NONE', *, *, #301, .F. ) ;
#288 = EDGE_CURVE ( 'NONE', #346, #1, #376, .T. ) ;
#289 = DIRECTION ( 'NONE',  ( -0.000000000000000000, -0.000000000000000000, -1.000000000000000000 ) ) ;
#290 = ORIENTED_EDGE ( 'NONE', *, *, #295, .F. ) ;
#291 = EDGE_CURVE ( 'NONE', #175, #122, #126, .T. ) ;
#292 = CARTESIAN_POINT ( 'NONE',  ( 0.000000000000000000, 0.000000000000000000, 7.700000000000040146 ) ) ;
#293 = FACE_OUTER_BOUND ( 'NONE', #16, .T. ) ;
#294 = DIRECTION ( 'NONE',  ( -0.000000000000000000, -0.000000000000000000, -1.000000000000000000 ) ) ;
#295 = EDGE_CURVE ( 'NONE', #77, #49, #204, .T. ) ;
#296 = PLANE ( 'NONE',  #203 ) ;
#297 = APPLICATION_PROTOCOL_DEFINITION ( 'international standard', 'config_control_design', 1994, #360 ) ;
#298 = DIRECTION ( 'NONE',  ( -0.000000000000000000, -0.000000000000000000, -1.000000000000000000 ) ) ;
#299 = VERTEX_POINT ( 'NONE', #379 ) ;
#300 = ORIENTED_EDGE ( 'NONE', *, *, #171, .F. ) ;
#301 = EDGE_CURVE ( 'NONE', #142, #285, #354, .T. ) ;
#302 = DATE_AND_TIME ( #71, #73 ) ;
#303 = DIRECTION ( 'NONE',  ( 1.000000000000000000, 0.000000000000000000, 0.000000000000000000 ) ) ;
#304 = LINE ( 'NONE', #74, #135 ) ;
#305 = APPROVAL_STATUS ( 'not_yet_approved' ) ;
#306 = AXIS2_PLACEMENT_3D ( 'NONE', #195, #134, #42 ) ;
#307 = AXIS2_PLACEMENT_3D ( 'NONE', #81, #29, #144 ) ;
#308 = CARTESIAN_POINT ( 'NONE',  ( 6.700000000000001066, 0.000000000000000000, 7.000000000000020428 ) ) ;
#309 = DIRECTION ( 'NONE',  ( -0.000000000000000000, -0.000000000000000000, -1.000000000000000000 ) ) ;
#310 = CC_DESIGN_PERSON_AND_ORGANIZATION_ASSIGNMENT ( #153, #273, ( #194 ) ) ;
#311 = AXIS2_PLACEMENT_3D ( 'NONE', #378, #110, #237 ) ;
#312 = ORIENTED_EDGE ( 'NONE', *, *, #171, .T. ) ;
#313 = FACE_OUTER_BOUND ( 'NONE', #30, .T. ) ;
#314 = CIRCLE ( 'NONE', #261, 10.00000000000000000 ) ;
#315 = ORIENTED_EDGE ( 'NONE', *, *, #133, .F. ) ;
#316 = DIRECTION ( 'NONE',  ( 1.000000000000000000, 0.000000000000000000, 0.000000000000000000 ) ) ;
#317 = ADVANCED_FACE ( 'NONE', ( #212 ), #63, .F. ) ;
#318 = ORIENTED_EDGE ( 'NONE', *, *, #365, .F. ) ;
#319 = CARTESIAN_POINT ( 'NONE',  ( -4.000000000000000000, 0.000000000000000000, 757.0000000000000000 ) ) ;
#320 = DESIGN_CONTEXT ( 'detailed design', #179, 'design' ) ;
#321 = CARTESIAN_POINT ( 'NONE',  ( -6.000000000000000888, 0.000000000000000000, 757.0000000000000000 ) ) ;
#322 = EDGE_LOOP ( 'NONE', ( #283, #154 ) ) ;
#323 = CC_DESIGN_PERSON_AND_ORGANIZATION_ASSIGNMENT ( #184, #214, ( #194 ) ) ;
#324 = EDGE_CURVE ( 'NONE', #28, #1, #27, .T. ) ;
#326 = VERTEX_POINT ( 'NONE', #319 ) ;
#325 = AXIS2_PLACEMENT_3D ( 'NONE', #196, #170, #41 ) ;
#327 = CYLINDRICAL_SURFACE ( 'NONE', #211, 4.000000000000000000 ) ;
#328 = CARTESIAN_POINT ( 'NONE',  ( 0.000000000000000000, 0.000000000000000000, 0.000000000000000000 ) ) ;
#329 = APPROVAL ( #305, 'NEURÈENÝ' ) ;
#330 = CARTESIAN_POINT ( 'NONE',  ( 0.000000000000000000, 0.000000000000000000, 757.0000000000000000 ) ) ;
#331 = COORDINATED_UNIVERSAL_TIME_OFFSET ( 1, 0, .AHEAD. ) ;
#332 = DIRECTION ( 'NONE',  ( 1.000000000000000000, 0.000000000000000000, -0.000000000000000000 ) ) ;
#333 = AXIS2_PLACEMENT_3D ( 'NONE', #250, #97, #223 ) ;
#334 = CALENDAR_DATE ( 2022, 8, 7 ) ;
#335 = ADVANCED_BREP_SHAPE_REPRESENTATION ( '9087', ( #67, #235 ), #136 ) ;
#336 = DIRECTION ( 'NONE',  ( -0.000000000000000000, -0.000000000000000000, -1.000000000000000000 ) ) ;
#337 = DIRECTION ( 'NONE',  ( 0.000000000000000000, 0.000000000000000000, 1.000000000000000000 ) ) ;
#338 = DATE_TIME_ROLE ( 'creation_date' ) ;
#339 = CARTESIAN_POINT ( 'NONE',  ( 0.000000000000000000, 0.000000000000000000, 7.700000000000040146 ) ) ;
#340 = SECURITY_CLASSIFICATION ( '', '', #117 ) ;
#341 = FACE_OUTER_BOUND ( 'NONE', #258, .T. ) ;
#342 = CC_DESIGN_DATE_AND_TIME_ASSIGNMENT ( #218, #338, ( #13 ) ) ;
#343 = CIRCLE ( 'NONE', #176, 4.000000000000000000 ) ;
#344 = ORIENTED_EDGE ( 'NONE', *, *, #162, .F. ) ;
#345 = CARTESIAN_POINT ( 'NONE',  ( 0.000000000000000000, 0.000000000000000000, 757.0000000000000000 ) ) ;
#346 = VERTEX_POINT ( 'NONE', #174 ) ;
#347 = DIRECTION ( 'NONE',  ( -0.000000000000000000, -0.000000000000000000, -1.000000000000000000 ) ) ;
#348 = ADVANCED_FACE ( 'NONE', ( #24 ), #149, .F. ) ;
#349 = AXIS2_PLACEMENT_3D ( 'NONE', #339, #231, #249 ) ;
#350 = DIRECTION ( 'NONE',  ( 1.000000000000000000, 0.000000000000000000, 0.000000000000000000 ) ) ;
#351 = CC_DESIGN_PERSON_AND_ORGANIZATION_ASSIGNMENT ( #5, #246, ( #340 ) ) ;
#352 = ADVANCED_FACE ( 'NONE', ( #233 ), #327, .F. ) ;
#353 = DIRECTION ( 'NONE',  ( 1.000000000000000000, 0.000000000000000000, 0.000000000000000000 ) ) ;
#354 = LINE ( 'NONE', #147, #372 ) ;
#356 = FACE_OUTER_BOUND ( 'NONE', #322, .T. ) ;
#355 = AXIS2_PLACEMENT_3D ( 'NONE', #363, #192, #20 ) ;
#357 = LOCAL_TIME ( 16, 36, 44.00000000000000000, #121 ) ;
#358 = CARTESIAN_POINT ( 'NONE',  ( 10.00000000000000000, 1.224646799147353256E-15, 0.000000000000000000 ) ) ;
#359 = VERTEX_POINT ( 'NONE', #263 ) ;
#360 = APPLICATION_CONTEXT ( 'configuration controlled 3d designs of mechanical parts and assemblies' ) ;
#361 = DIRECTION ( 'NONE',  ( 1.000000000000000000, 0.000000000000000000, 0.000000000000000000 ) ) ;
#362 = PERSON_AND_ORGANIZATION ( #22, #187 ) ;
#363 = CARTESIAN_POINT ( 'NONE',  ( 0.000000000000000000, 0.000000000000000000, 757.0000000000000000 ) ) ;
#364 = PRODUCT_RELATED_PRODUCT_CATEGORY ( 'detail', '', ( #54 ) ) ;
#365 = EDGE_CURVE ( 'NONE', #122, #175, #2, .T. ) ;
#366 = PERSON_AND_ORGANIZATION ( #22, #187 ) ;
#367 = DIRECTION ( 'NONE',  ( 0.000000000000000000, 0.000000000000000000, 1.000000000000000000 ) ) ;
#368 = DATE_AND_TIME ( #75, #248 ) ;
#369 = CARTESIAN_POINT ( 'NONE',  ( -6.700000000000001066, 8.205133554287267548E-16, 7.000000000000020428 ) ) ;
#370 = AXIS2_PLACEMENT_3D ( 'NONE', #104, #337, #131 ) ;
#371 = ORIENTED_EDGE ( 'NONE', *, *, #60, .F. ) ;
#372 = VECTOR ( 'NONE', #289, 1000.000000000000000 ) ;
#373 = DIRECTION ( 'NONE',  ( 0.000000000000000000, 0.000000000000000000, -1.000000000000000000 ) ) ;
#374 = CYLINDRICAL_SURFACE ( 'NONE', #160, 10.00000000000000000 ) ;
#375 = EDGE_LOOP ( 'NONE', ( #300, #213, #318, #64 ) ) ;
#376 = CIRCLE ( 'NONE', #193, 10.00000000000000000 ) ;
#377 = ORIENTED_EDGE ( 'NONE', *, *, #365, .T. ) ;
#378 = CARTESIAN_POINT ( 'NONE',  ( 0.000000000000000000, 0.000000000000000000, 7.000000000000000000 ) ) ;
#379 = CARTESIAN_POINT ( 'NONE',  ( 4.000000000000000000, 4.898587196589412829E-16, 757.0000000000000000 ) ) ;
#380 = FACE_BOUND ( 'NONE', #262, .T. ) ;
#381 = CARTESIAN_POINT ( 'NONE',  ( 4.000000000000000000, 4.898587196589412829E-16, 757.0000000000000000 ) ) ;
ENDSEC;
END-ISO-10303-21;
