ISO-10303-21;
HEADER;
FILE_DESCRIPTION (( 'STEP AP203' ),
    '1' );
FILE_NAME ('4483.STEP',
    '2022-07-08T15:09:24',
    ( '' ),
    ( '' ),
    'SwSTEP 2.0',
    'SolidWorks 2019',
    '' );
FILE_SCHEMA (( 'CONFIG_CONTROL_DESIGN' ));
ENDSEC;

DATA;
#1 = ADVANCED_FACE ( 'NONE', ( #138, #112 ), #255, .T. ) ;
#2 = CARTESIAN_POINT ( 'NONE',  ( 0.000000000000000000, 0.000000000000000000, 180.0000000000000000 ) ) ;
#3 = CC_DESIGN_APPROVAL ( #246, ( #150 ) ) ;
#4 = DIRECTION ( 'NONE',  ( 0.000000000000000000, 0.000000000000000000, 1.000000000000000000 ) ) ;
#5 = EDGE_LOOP ( 'NONE', ( #33, #157, #262, #171 ) ) ;
#6 = DATE_AND_TIME ( #125, #260 ) ;
#7 = DIRECTION ( 'NONE',  ( 0.000000000000000000, 0.000000000000000000, 1.000000000000000000 ) ) ;
#8 = PERSON_AND_ORGANIZATION ( #137, #96 ) ;
#9 = DIRECTION ( 'NONE',  ( -1.000000000000000000, 0.000000000000000000, 0.000000000000000000 ) ) ;
#10 = VECTOR ( 'NONE', #326, 1000.000000000000000 ) ;
#11 = DESIGN_CONTEXT ( 'detailed design', #356, 'design' ) ;
#12 = FACE_OUTER_BOUND ( 'NONE', #250, .T. ) ;
#13 = ORIENTED_EDGE ( 'NONE', *, *, #372, .T. ) ;
#14 = DATE_AND_TIME ( #319, #311 ) ;
#15 = EDGE_CURVE ( 'NONE', #95, #285, #312, .T. ) ;
#16 = VERTEX_POINT ( 'NONE', #375 ) ;
#17 = VERTEX_POINT ( 'NONE', #25 ) ;
#18 = AXIS2_PLACEMENT_3D ( 'NONE', #188, #349, #230 ) ;
#19 = ORIENTED_EDGE ( 'NONE', *, *, #45, .F. ) ;
#20 = DIRECTION ( 'NONE',  ( 0.000000000000000000, 0.000000000000000000, -1.000000000000000000 ) ) ;
#21 = EDGE_LOOP ( 'NONE', ( #307, #202, #209, #192 ) ) ;
#22 = DIRECTION ( 'NONE',  ( 0.000000000000000000, 0.000000000000000000, 1.000000000000000000 ) ) ;
#23 = DIRECTION ( 'NONE',  ( -0.000000000000000000, -0.000000000000000000, -1.000000000000000000 ) ) ;
#24 = DIRECTION ( 'NONE',  ( 1.000000000000000000, 0.000000000000000000, 0.000000000000000000 ) ) ;
#25 = CARTESIAN_POINT ( 'NONE',  ( 4.000000000000000000, 4.898587196589412829E-16, 5.500000000000005329 ) ) ;
#26 = CARTESIAN_POINT ( 'NONE',  ( 7.000000000000000000, 8.572527594031473190E-16, 5.000000000000000000 ) ) ;
#27 = CC_DESIGN_DATE_AND_TIME_ASSIGNMENT ( #363, #179, ( #177 ) ) ;
#28 = DIRECTION ( 'NONE',  ( 1.000000000000000000, 0.000000000000000000, 0.000000000000000000 ) ) ;
#29 = DIRECTION ( 'NONE',  ( 1.000000000000000000, 0.000000000000000000, 0.000000000000000000 ) ) ;
#30 = CALENDAR_DATE ( 2022, 8, 7 ) ;
#31 = CARTESIAN_POINT ( 'NONE',  ( 0.000000000000000000, 0.000000000000000000, 5.000000000000000000 ) ) ;
#32 = ADVANCED_BREP_SHAPE_REPRESENTATION ( '4483', ( #69, #354 ), #203 ) ;
#33 = ORIENTED_EDGE ( 'NONE', *, *, #195, .T. ) ;
#34 = PERSON_AND_ORGANIZATION_ROLE ( 'classification_officer' ) ;
#35 = AXIS2_PLACEMENT_3D ( 'NONE', #68, #342, #9 ) ;
#36 = PLANE ( 'NONE',  #201 ) ;
#37 = SHAPE_DEFINITION_REPRESENTATION ( #303, #32 ) ;
#38 = CARTESIAN_POINT ( 'NONE',  ( -4.500000000000000888, 5.510910596163088569E-16, 5.000000000000002665 ) ) ;
#39 = PERSON_AND_ORGANIZATION ( #137, #96 ) ;
#40 = VERTEX_POINT ( 'NONE', #78 ) ;
#41 = EDGE_CURVE ( 'NONE', #212, #89, #159, .T. ) ;
#42 = FACE_OUTER_BOUND ( 'NONE', #5, .T. ) ;
#43 = CIRCLE ( 'NONE', #149, 2.600000000000000089 ) ;
#44 = APPROVAL_PERSON_ORGANIZATION ( #90, #246, #61 ) ;
#45 = EDGE_CURVE ( 'NONE', #16, #17, #283, .T. ) ;
#46 = DIRECTION ( 'NONE',  ( -0.000000000000000000, -0.000000000000000000, -1.000000000000000000 ) ) ;
#47 = AXIS2_PLACEMENT_3D ( 'NONE', #196, #318, #48 ) ;
#48 = DIRECTION ( 'NONE',  ( 1.000000000000000000, 0.000000000000000000, -0.000000000000000000 ) ) ;
#49 = AXIS2_PLACEMENT_3D ( 'NONE', #211, #145, #239 ) ;
#50 = ADVANCED_FACE ( 'NONE', ( #115 ), #352, .T. ) ;
#51 = CARTESIAN_POINT ( 'NONE',  ( 0.000000000000000000, 0.000000000000000000, 180.0000000000000000 ) ) ;
#52 = CARTESIAN_POINT ( 'NONE',  ( 4.500000000000000888, 0.000000000000000000, 5.000000000000002665 ) ) ;
#53 = AXIS2_PLACEMENT_3D ( 'NONE', #88, #293, #205 ) ;
#54 = CARTESIAN_POINT ( 'NONE',  ( 2.600000000000000089, 3.184081677783117698E-16, 180.0000000000000000 ) ) ;
#55 = CARTESIAN_POINT ( 'NONE',  ( 0.000000000000000000, 0.000000000000000000, 180.0000000000000000 ) ) ;
#56 = EDGE_CURVE ( 'NONE', #63, #285, #376, .T. ) ;
#57 = CIRCLE ( 'NONE', #247, 4.500000000000000888 ) ;
#58 =( NAMED_UNIT ( * ) PLANE_ANGLE_UNIT ( ) SI_UNIT ( $, .RADIAN. ) );
#59 = CARTESIAN_POINT ( 'NONE',  ( 2.600000000000000089, 3.184081677783117698E-16, 0.000000000000000000 ) ) ;
#60 = ORIENTED_EDGE ( 'NONE', *, *, #146, .T. ) ;
#61 = APPROVAL_ROLE ( '' ) ;
#62 = FACE_BOUND ( 'NONE', #129, .T. ) ;
#63 = VERTEX_POINT ( 'NONE', #204 ) ;
#64 = COORDINATED_UNIVERSAL_TIME_OFFSET ( 1, 0, .AHEAD. ) ;
#65 = VECTOR ( 'NONE', #176, 1000.000000000000000 ) ;
#66 = ORIENTED_EDGE ( 'NONE', *, *, #195, .F. ) ;
#67 = PERSON_AND_ORGANIZATION ( #137, #96 ) ;
#68 = CARTESIAN_POINT ( 'NONE',  ( 0.000000000000000000, 0.000000000000000000, 180.0000000000000000 ) ) ;
#69 = MANIFOLD_SOLID_BREP ( 'Odebrat vysunutím3', #222 ) ;
#70 = DIRECTION ( 'NONE',  ( -0.000000000000000000, -0.000000000000000000, -1.000000000000000000 ) ) ;
#71 = VERTEX_POINT ( 'NONE', #52 ) ;
#72 = DIRECTION ( 'NONE',  ( 1.000000000000000000, 0.000000000000000000, 0.000000000000000000 ) ) ;
#73 = ORIENTED_EDGE ( 'NONE', *, *, #184, .T. ) ;
#74 = AXIS2_PLACEMENT_3D ( 'NONE', #111, #234, #166 ) ;
#75 = CC_DESIGN_PERSON_AND_ORGANIZATION_ASSIGNMENT ( #81, #172, ( #123 ) ) ;
#76 = ORIENTED_EDGE ( 'NONE', *, *, #45, .T. ) ;
#77 = TOROIDAL_SURFACE ( 'NONE', #232, 4.500000000000000888, 0.5000000000000000000 ) ;
#78 = CARTESIAN_POINT ( 'NONE',  ( -2.600000000000000089, 0.000000000000000000, 180.0000000000000000 ) ) ;
#79 = DIRECTION ( 'NONE',  ( 0.000000000000000000, 0.000000000000000000, 1.000000000000000000 ) ) ;
#80 = ADVANCED_FACE ( 'NONE', ( #140, #373 ), #361, .T. ) ;
#81 = PERSON_AND_ORGANIZATION ( #137, #96 ) ;
#82 = AXIS2_PLACEMENT_3D ( 'NONE', #280, #70, #217 ) ;
#83 = CARTESIAN_POINT ( 'NONE',  ( 4.000000000000000000, 4.898587196589412829E-16, 180.0000000000000000 ) ) ;
#84 = CIRCLE ( 'NONE', #286, 7.000000000000000000 ) ;
#85 = LINE ( 'NONE', #207, #65 ) ;
#86 = VERTEX_POINT ( 'NONE', #116 ) ;
#87 = SECURITY_CLASSIFICATION ( '', '', #294 ) ;
#88 = CARTESIAN_POINT ( 'NONE',  ( -4.500000000000000888, 5.510910596163089556E-16, 5.500000000000005329 ) ) ;
#89 = VERTEX_POINT ( 'NONE', #59 ) ;
#90 = PERSON_AND_ORGANIZATION ( #137, #96 ) ;
#91 = CARTESIAN_POINT ( 'NONE',  ( -7.000000000000000000, 0.000000000000000000, 5.000000000000000000 ) ) ;
#92 = PRODUCT_RELATED_PRODUCT_CATEGORY ( 'detail', '', ( #123 ) ) ;
#93 = PERSON_AND_ORGANIZATION ( #137, #96 ) ;
#94 = CARTESIAN_POINT ( 'NONE',  ( -2.600000000000000089, 0.000000000000000000, 0.000000000000000000 ) ) ;
#95 = VERTEX_POINT ( 'NONE', #91 ) ;
#96 = ORGANIZATION ( 'NEURÈENÝ', 'NEURÈENÝ', '' ) ;
#97 = EDGE_LOOP ( 'NONE', ( #185, #154, #270, #308 ) ) ;
#98 = CC_DESIGN_PERSON_AND_ORGANIZATION_ASSIGNMENT ( #8, #156, ( #177 ) ) ;
#99 = CARTESIAN_POINT ( 'NONE',  ( 4.500000000000000888, 0.000000000000000000, 5.500000000000005329 ) ) ;
#100 = VERTEX_POINT ( 'NONE', #38 ) ;
#101 = CIRCLE ( 'NONE', #320, 4.000000000000000000 ) ;
#102 = LOCAL_TIME ( 17, 9, 24.00000000000000000, #182 ) ;
#103 = ORIENTED_EDGE ( 'NONE', *, *, #110, .F. ) ;
#104 = EDGE_LOOP ( 'NONE', ( #371, #76, #224, #241 ) ) ;
#105 = APPROVAL ( #335, 'NEURÈENÝ' ) ;
#106 = AXIS2_PLACEMENT_3D ( 'NONE', #55, #147, #143 ) ;
#107 = DIRECTION ( 'NONE',  ( 0.000000000000000000, 0.000000000000000000, -1.000000000000000000 ) ) ;
#108 = CIRCLE ( 'NONE', #132, 0.5000000000000004441 ) ;
#109 = CARTESIAN_POINT ( 'NONE',  ( -4.000000000000000000, 0.000000000000000000, 5.500000000000005329 ) ) ;
#110 = EDGE_CURVE ( 'NONE', #314, #100, #139, .T. ) ;
#111 = CARTESIAN_POINT ( 'NONE',  ( 0.000000000000000000, 0.000000000000000000, 0.000000000000000000 ) ) ;
#112 = FACE_OUTER_BOUND ( 'NONE', #193, .T. ) ;
#113 = VECTOR ( 'NONE', #322, 1000.000000000000000 ) ;
#114 = CARTESIAN_POINT ( 'NONE',  ( 0.000000000000000000, 0.000000000000000000, 5.500000000000005329 ) ) ;
#115 = FACE_OUTER_BOUND ( 'NONE', #104, .T. ) ;
#116 = CARTESIAN_POINT ( 'NONE',  ( 2.600000000000000089, 3.184081677783117698E-16, 180.0000000000000000 ) ) ;
#117 = APPROVAL_STATUS ( 'not_yet_approved' ) ;
#118 = EDGE_CURVE ( 'NONE', #95, #341, #84, .T. ) ;
#119 = EDGE_LOOP ( 'NONE', ( #258, #249 ) ) ;
#120 = LINE ( 'NONE', #290, #321 ) ;
#121 = APPROVAL_STATUS ( 'not_yet_approved' ) ;
#122 = DIRECTION ( 'NONE',  ( 1.000000000000000000, 0.000000000000000000, 0.000000000000000000 ) ) ;
#123 = PRODUCT ( '4483', '4483', '', ( #351 ) ) ;
#124 = EDGE_CURVE ( 'NONE', #16, #191, #127, .T. ) ;
#125 = CALENDAR_DATE ( 2022, 8, 7 ) ;
#126 = DIRECTION ( 'NONE',  ( 1.000000000000000000, 0.000000000000000000, -0.000000000000000000 ) ) ;
#127 = CIRCLE ( 'NONE', #106, 4.000000000000000000 ) ;
#128 = EDGE_CURVE ( 'NONE', #100, #71, #134, .T. ) ;
#129 = EDGE_LOOP ( 'NONE', ( #130, #343 ) ) ;
#130 = ORIENTED_EDGE ( 'NONE', *, *, #41, .F. ) ;
#131 = ORIENTED_EDGE ( 'NONE', *, *, #128, .T. ) ;
#132 = AXIS2_PLACEMENT_3D ( 'NONE', #99, #269, #107 ) ;
#133 = AXIS2_PLACEMENT_3D ( 'NONE', #114, #22, #24 ) ;
#134 = CIRCLE ( 'NONE', #359, 4.500000000000000888 ) ;
#135 = CARTESIAN_POINT ( 'NONE',  ( -7.000000000000000000, 0.000000000000000000, 5.000000000000000000 ) ) ;
#136 = DIRECTION ( 'NONE',  ( -1.000000000000000000, 0.000000000000000000, 0.000000000000000000 ) ) ;
#137 = PERSON ( 'NEURÈENÝ', 'NEURÈENÝ', 'NEURÈENÝ', ('NEURÈENÝ'), ('NEURÈENÝ'), ('NEURÈENÝ') ) ;
#138 = FACE_BOUND ( 'NONE', #338, .T. ) ;
#139 = CIRCLE ( 'NONE', #53, 0.5000000000000004441 ) ;
#140 = FACE_BOUND ( 'NONE', #279, .T. ) ;
#141 = EDGE_CURVE ( 'NONE', #86, #40, #187, .T. ) ;
#142 = DIRECTION ( 'NONE',  ( 0.000000000000000000, 0.000000000000000000, 1.000000000000000000 ) ) ;
#143 = DIRECTION ( 'NONE',  ( 1.000000000000000000, 0.000000000000000000, 0.000000000000000000 ) ) ;
#144 = COORDINATED_UNIVERSAL_TIME_OFFSET ( 1, 0, .AHEAD. ) ;
#145 = DIRECTION ( 'NONE',  ( 0.000000000000000000, 0.000000000000000000, 1.000000000000000000 ) ) ;
#146 = EDGE_CURVE ( 'NONE', #40, #212, #85, .T. ) ;
#147 = DIRECTION ( 'NONE',  ( 0.000000000000000000, 0.000000000000000000, 1.000000000000000000 ) ) ;
#148 = ORIENTED_EDGE ( 'NONE', *, *, #160, .F. ) ;
#149 = AXIS2_PLACEMENT_3D ( 'NONE', #2, #331, #122 ) ;
#150 = PRODUCT_DEFINITION_FORMATION_WITH_SPECIFIED_SOURCE ( 'LIBOVOLNÝ', '', #123, .NOT_KNOWN. ) ;
#151 = CARTESIAN_POINT ( 'NONE',  ( 0.000000000000000000, 0.000000000000000000, 0.000000000000000000 ) ) ;
#152 = PERSON_AND_ORGANIZATION_ROLE ( 'design_supplier' ) ;
#153 = LINE ( 'NONE', #54, #10 ) ;
#154 = ORIENTED_EDGE ( 'NONE', *, *, #110, .T. ) ;
#155 = DIRECTION ( 'NONE',  ( -0.000000000000000000, -0.000000000000000000, -1.000000000000000000 ) ) ;
#156 = PERSON_AND_ORGANIZATION_ROLE ( 'creator' ) ;
#157 = ORIENTED_EDGE ( 'NONE', *, *, #332, .T. ) ;
#158 = CYLINDRICAL_SURFACE ( 'NONE', #215, 2.600000000000000089 ) ;
#159 = CIRCLE ( 'NONE', #74, 2.600000000000000089 ) ;
#160 = EDGE_CURVE ( 'NONE', #341, #95, #265, .T. ) ;
#161 = ORIENTED_EDGE ( 'NONE', *, *, #141, .F. ) ;
#162 = AXIS2_PLACEMENT_3D ( 'NONE', #178, #328, #291 ) ;
#163 = EDGE_LOOP ( 'NONE', ( #305, #345, #60, #189 ) ) ;
#164 = APPROVAL ( #117, 'NEURÈENÝ' ) ;
#165 =( LENGTH_UNIT ( ) NAMED_UNIT ( * ) SI_UNIT ( .MILLI., .METRE. ) );
#166 = DIRECTION ( 'NONE',  ( 1.000000000000000000, 0.000000000000000000, 0.000000000000000000 ) ) ;
#167 = AXIS2_PLACEMENT_3D ( 'NONE', #168, #142, #358 ) ;
#168 = CARTESIAN_POINT ( 'NONE',  ( 0.000000000000000000, 0.000000000000000000, 5.500000000000005329 ) ) ;
#169 = DIRECTION ( 'NONE',  ( -0.000000000000000000, -0.000000000000000000, -1.000000000000000000 ) ) ;
#170 = CC_DESIGN_PERSON_AND_ORGANIZATION_ASSIGNMENT ( #299, #152, ( #150 ) ) ;
#171 = ORIENTED_EDGE ( 'NONE', *, *, #146, .F. ) ;
#172 = PERSON_AND_ORGANIZATION_ROLE ( 'design_owner' ) ;
#173 = AXIS2_PLACEMENT_3D ( 'NONE', #233, #79, #316 ) ;
#174 = LOCAL_TIME ( 17, 9, 24.00000000000000000, #64 ) ;
#175 = ORIENTED_EDGE ( 'NONE', *, *, #379, .F. ) ;
#176 = DIRECTION ( 'NONE',  ( 0.000000000000000000, 0.000000000000000000, -1.000000000000000000 ) ) ;
#177 = PRODUCT_DEFINITION ( 'NEZNÁMÝ', '', #150, #11 ) ;
#178 = CARTESIAN_POINT ( 'NONE',  ( 0.000000000000000000, 0.000000000000000000, 5.000000000000000000 ) ) ;
#179 = DATE_TIME_ROLE ( 'creation_date' ) ;
#180 = DIRECTION ( 'NONE',  ( 1.000000000000000000, 0.000000000000000000, 0.000000000000000000 ) ) ;
#181 = CIRCLE ( 'NONE', #275, 7.000000000000000000 ) ;
#182 = COORDINATED_UNIVERSAL_TIME_OFFSET ( 1, 0, .AHEAD. ) ;
#183 = CARTESIAN_POINT ( 'NONE',  ( 7.000000000000000000, 8.572527594031473190E-16, 5.000000000000000000 ) ) ;
#184 = EDGE_CURVE ( 'NONE', #314, #17, #101, .T. ) ;
#185 = ORIENTED_EDGE ( 'NONE', *, *, #184, .F. ) ;
#186 = APPROVAL_DATE_TIME ( #14, #164 ) ;
#187 = CIRCLE ( 'NONE', #49, 2.600000000000000089 ) ;
#188 = CARTESIAN_POINT ( 'NONE',  ( 0.000000000000000000, 0.000000000000000000, 5.000000000000000000 ) ) ;
#189 = ORIENTED_EDGE ( 'NONE', *, *, #41, .T. ) ;
#190 = DIRECTION ( 'NONE',  ( -1.000000000000000000, 0.000000000000000000, 0.000000000000000000 ) ) ;
#191 = VERTEX_POINT ( 'NONE', #263 ) ;
#192 = ORIENTED_EDGE ( 'NONE', *, *, #278, .T. ) ;
#193 = EDGE_LOOP ( 'NONE', ( #199, #350 ) ) ;
#194 = CC_DESIGN_APPROVAL ( #164, ( #177 ) ) ;
#195 = EDGE_CURVE ( 'NONE', #40, #86, #43, .T. ) ;
#196 = CARTESIAN_POINT ( 'NONE',  ( 0.000000000000000000, 0.000000000000000000, 5.000000000000000000 ) ) ;
#197 = FACE_OUTER_BOUND ( 'NONE', #21, .T. ) ;
#198 = DIRECTION ( 'NONE',  ( 1.000000000000000000, 0.000000000000000000, 0.000000000000000000 ) ) ;
#199 = ORIENTED_EDGE ( 'NONE', *, *, #118, .T. ) ;
#200 = CARTESIAN_POINT ( 'NONE',  ( 0.000000000000000000, 0.000000000000000000, 0.000000000000000000 ) ) ;
#201 = AXIS2_PLACEMENT_3D ( 'NONE', #151, #7, #126 ) ;
#202 = ORIENTED_EDGE ( 'NONE', *, *, #118, .F. ) ;
#203 =( GEOMETRIC_REPRESENTATION_CONTEXT ( 3 ) GLOBAL_UNCERTAINTY_ASSIGNED_CONTEXT ( ( #268 ) ) GLOBAL_UNIT_ASSIGNED_CONTEXT ( ( #165, #58, #256 ) ) REPRESENTATION_CONTEXT ( 'NONE', 'WORKASPACE' ) );
#204 = CARTESIAN_POINT ( 'NONE',  ( 7.000000000000000000, 8.572527594031473190E-16, 0.000000000000000000 ) ) ;
#205 = DIRECTION ( 'NONE',  ( -1.000000000000000000, 1.224646799147351482E-16, 0.000000000000000000 ) ) ;
#206 = APPROVAL_ROLE ( '' ) ;
#207 = CARTESIAN_POINT ( 'NONE',  ( -2.600000000000000089, 0.000000000000000000, 180.0000000000000000 ) ) ;
#208 = ADVANCED_FACE ( 'NONE', ( #62, #296 ), #36, .F. ) ;
#209 = ORIENTED_EDGE ( 'NONE', *, *, #15, .T. ) ;
#210 = DIRECTION ( 'NONE',  ( 0.000000000000000000, 0.000000000000000000, 1.000000000000000000 ) ) ;
#211 = CARTESIAN_POINT ( 'NONE',  ( 0.000000000000000000, 0.000000000000000000, 180.0000000000000000 ) ) ;
#212 = VERTEX_POINT ( 'NONE', #94 ) ;
#213 = AXIS2_PLACEMENT_3D ( 'NONE', #51, #169, #287 ) ;
#214 = FACE_OUTER_BOUND ( 'NONE', #163, .T. ) ;
#215 = AXIS2_PLACEMENT_3D ( 'NONE', #273, #20, #136 ) ;
#216 = ADVANCED_FACE ( 'NONE', ( #214 ), #336, .F. ) ;
#217 = DIRECTION ( 'NONE',  ( -1.000000000000000000, 0.000000000000000000, 0.000000000000000000 ) ) ;
#218 = ORIENTED_EDGE ( 'NONE', *, *, #242, .T. ) ;
#219 = APPLICATION_CONTEXT ( 'configuration controlled 3d designs of mechanical parts and assemblies' ) ;
#220 = LINE ( 'NONE', #183, #243 ) ;
#221 = EDGE_LOOP ( 'NONE', ( #103, #175, #218, #266 ) ) ;
#222 = CLOSED_SHELL ( 'NONE', ( #295, #367, #50, #257, #289, #1, #208, #231, #80, #362, #216 ) ) ;
#223 = CYLINDRICAL_SURFACE ( 'NONE', #18, 7.000000000000000000 ) ;
#224 = ORIENTED_EDGE ( 'NONE', *, *, #379, .T. ) ;
#225 = EDGE_CURVE ( 'NONE', #71, #100, #57, .T. ) ;
#226 = APPROVAL_PERSON_ORGANIZATION ( #93, #105, #369 ) ;
#227 = EDGE_LOOP ( 'NONE', ( #19, #329, #13, #73 ) ) ;
#228 = EDGE_LOOP ( 'NONE', ( #301, #364 ) ) ;
#229 = AXIS2_PLACEMENT_3D ( 'NONE', #357, #4, #298 ) ;
#230 = DIRECTION ( 'NONE',  ( -1.000000000000000000, 0.000000000000000000, 0.000000000000000000 ) ) ;
#231 = ADVANCED_FACE ( 'NONE', ( #368 ), #272, .T. ) ;
#232 = AXIS2_PLACEMENT_3D ( 'NONE', #284, #323, #324 ) ;
#233 = CARTESIAN_POINT ( 'NONE',  ( 0.000000000000000000, 0.000000000000000000, 180.0000000000000000 ) ) ;
#234 = DIRECTION ( 'NONE',  ( -0.000000000000000000, -0.000000000000000000, -1.000000000000000000 ) ) ;
#235 = DIRECTION ( 'NONE',  ( 1.000000000000000000, 0.000000000000000000, 0.000000000000000000 ) ) ;
#236 = CC_DESIGN_APPROVAL ( #105, ( #87 ) ) ;
#237 = APPLICATION_PROTOCOL_DEFINITION ( 'international standard', 'config_control_design', 1994, #219 ) ;
#238 = DIRECTION ( 'NONE',  ( -0.000000000000000000, -0.000000000000000000, -1.000000000000000000 ) ) ;
#239 = DIRECTION ( 'NONE',  ( 1.000000000000000000, 0.000000000000000000, 0.000000000000000000 ) ) ;
#240 = APPROVAL_DATE_TIME ( #297, #105 ) ;
#241 = ORIENTED_EDGE ( 'NONE', *, *, #372, .F. ) ;
#242 = EDGE_CURVE ( 'NONE', #17, #71, #108, .T. ) ;
#243 = VECTOR ( 'NONE', #300, 1000.000000000000000 ) ;
#244 = ORIENTED_EDGE ( 'NONE', *, *, #251, .T. ) ;
#245 = APPROVAL_DATE_TIME ( #333, #246 ) ;
#246 = APPROVAL ( #121, 'NEURÈENÝ' ) ;
#247 = AXIS2_PLACEMENT_3D ( 'NONE', #370, #155, #252 ) ;
#248 = CC_DESIGN_SECURITY_CLASSIFICATION ( #87, ( #150 ) ) ;
#249 = ORIENTED_EDGE ( 'NONE', *, *, #124, .T. ) ;
#250 = EDGE_LOOP ( 'NONE', ( #148, #244, #309, #277 ) ) ;
#251 = EDGE_CURVE ( 'NONE', #341, #63, #220, .T. ) ;
#252 = DIRECTION ( 'NONE',  ( 1.000000000000000000, 0.000000000000000000, 0.000000000000000000 ) ) ;
#253 = AXIS2_PLACEMENT_3D ( 'NONE', #259, #378, #235 ) ;
#254 = CARTESIAN_POINT ( 'NONE',  ( 0.000000000000000000, 0.000000000000000000, 0.000000000000000000 ) ) ;
#255 = PLANE ( 'NONE',  #47 ) ;
#256 =( NAMED_UNIT ( * ) SI_UNIT ( $, .STERADIAN. ) SOLID_ANGLE_UNIT ( ) );
#257 = ADVANCED_FACE ( 'NONE', ( #12 ), #223, .T. ) ;
#258 = ORIENTED_EDGE ( 'NONE', *, *, #315, .T. ) ;
#259 = CARTESIAN_POINT ( 'NONE',  ( 0.000000000000000000, 0.000000000000000000, 0.000000000000000000 ) ) ;
#260 = LOCAL_TIME ( 17, 9, 24.00000000000000000, #330 ) ;
#261 = DIRECTION ( 'NONE',  ( -0.000000000000000000, -0.000000000000000000, -1.000000000000000000 ) ) ;
#262 = ORIENTED_EDGE ( 'NONE', *, *, #302, .T. ) ;
#263 = CARTESIAN_POINT ( 'NONE',  ( -4.000000000000000000, 0.000000000000000000, 180.0000000000000000 ) ) ;
#264 = CALENDAR_DATE ( 2022, 8, 7 ) ;
#265 = CIRCLE ( 'NONE', #162, 7.000000000000000000 ) ;
#266 = ORIENTED_EDGE ( 'NONE', *, *, #128, .F. ) ;
#267 = COORDINATED_UNIVERSAL_TIME_OFFSET ( 1, 0, .AHEAD. ) ;
#268 = UNCERTAINTY_MEASURE_WITH_UNIT (LENGTH_MEASURE( 1.000000000000000082E-05 ), #165, 'distance_accuracy_value', 'NONE');
#269 = DIRECTION ( 'NONE',  ( 0.000000000000000000, -1.000000000000000000, 0.000000000000000000 ) ) ;
#270 = ORIENTED_EDGE ( 'NONE', *, *, #225, .F. ) ;
#271 = CC_DESIGN_PERSON_AND_ORGANIZATION_ASSIGNMENT ( #39, #34, ( #87 ) ) ;
#272 = CYLINDRICAL_SURFACE ( 'NONE', #82, 4.000000000000000000 ) ;
#273 = CARTESIAN_POINT ( 'NONE',  ( 0.000000000000000000, 0.000000000000000000, 180.0000000000000000 ) ) ;
#274 = ORIENTED_EDGE ( 'NONE', *, *, #225, .T. ) ;
#275 = AXIS2_PLACEMENT_3D ( 'NONE', #304, #344, #72 ) ;
#276 = TOROIDAL_SURFACE ( 'NONE', #167, 4.500000000000000888, 0.5000000000000000000 ) ;
#277 = ORIENTED_EDGE ( 'NONE', *, *, #15, .F. ) ;
#278 = EDGE_CURVE ( 'NONE', #285, #63, #181, .T. ) ;
#279 = EDGE_LOOP ( 'NONE', ( #66, #161 ) ) ;
#280 = CARTESIAN_POINT ( 'NONE',  ( 0.000000000000000000, 0.000000000000000000, 180.0000000000000000 ) ) ;
#281 = CC_DESIGN_DATE_AND_TIME_ASSIGNMENT ( #6, #365, ( #87 ) ) ;
#282 = CIRCLE ( 'NONE', #133, 4.000000000000000000 ) ;
#283 = LINE ( 'NONE', #83, #317 ) ;
#284 = CARTESIAN_POINT ( 'NONE',  ( 0.000000000000000000, 0.000000000000000000, 5.500000000000005329 ) ) ;
#285 = VERTEX_POINT ( 'NONE', #340 ) ;
#286 = AXIS2_PLACEMENT_3D ( 'NONE', #325, #366, #180 ) ;
#287 = DIRECTION ( 'NONE',  ( -1.000000000000000000, 0.000000000000000000, 0.000000000000000000 ) ) ;
#288 = PERSON_AND_ORGANIZATION ( #137, #96 ) ;
#289 = ADVANCED_FACE ( 'NONE', ( #197 ), #347, .T. ) ;
#290 = CARTESIAN_POINT ( 'NONE',  ( -4.000000000000000000, 0.000000000000000000, 180.0000000000000000 ) ) ;
#291 = DIRECTION ( 'NONE',  ( 1.000000000000000000, 0.000000000000000000, 0.000000000000000000 ) ) ;
#292 = CALENDAR_DATE ( 2022, 8, 7 ) ;
#293 = DIRECTION ( 'NONE',  ( 1.224646799147353207E-16, 1.000000000000000000, -0.000000000000000000 ) ) ;
#294 = SECURITY_CLASSIFICATION_LEVEL ( 'unclassified' ) ;
#295 = ADVANCED_FACE ( 'NONE', ( #42 ), #158, .F. ) ;
#296 = FACE_OUTER_BOUND ( 'NONE', #228, .T. ) ;
#297 = DATE_AND_TIME ( #30, #174 ) ;
#298 = DIRECTION ( 'NONE',  ( 1.000000000000000000, 0.000000000000000000, -0.000000000000000000 ) ) ;
#299 = PERSON_AND_ORGANIZATION ( #137, #96 ) ;
#300 = DIRECTION ( 'NONE',  ( -0.000000000000000000, -0.000000000000000000, -1.000000000000000000 ) ) ;
#301 = ORIENTED_EDGE ( 'NONE', *, *, #278, .F. ) ;
#302 = EDGE_CURVE ( 'NONE', #89, #212, #380, .T. ) ;
#303 = PRODUCT_DEFINITION_SHAPE ( 'NONE', 'NONE',  #177 ) ;
#304 = CARTESIAN_POINT ( 'NONE',  ( 0.000000000000000000, 0.000000000000000000, 0.000000000000000000 ) ) ;
#305 = ORIENTED_EDGE ( 'NONE', *, *, #332, .F. ) ;
#306 = APPROVAL_PERSON_ORGANIZATION ( #288, #164, #206 ) ;
#307 = ORIENTED_EDGE ( 'NONE', *, *, #251, .F. ) ;
#308 = ORIENTED_EDGE ( 'NONE', *, *, #242, .F. ) ;
#309 = ORIENTED_EDGE ( 'NONE', *, *, #56, .T. ) ;
#310 = AXIS2_PLACEMENT_3D ( 'NONE', #254, #374, #198 ) ;
#311 = LOCAL_TIME ( 17, 9, 24.00000000000000000, #144 ) ;
#312 = LINE ( 'NONE', #135, #113 ) ;
#313 = CARTESIAN_POINT ( 'NONE',  ( 0.000000000000000000, 0.000000000000000000, 5.000000000000000000 ) ) ;
#314 = VERTEX_POINT ( 'NONE', #109 ) ;
#315 = EDGE_CURVE ( 'NONE', #191, #16, #346, .T. ) ;
#316 = DIRECTION ( 'NONE',  ( 1.000000000000000000, 0.000000000000000000, 0.000000000000000000 ) ) ;
#317 = VECTOR ( 'NONE', #23, 1000.000000000000000 ) ;
#318 = DIRECTION ( 'NONE',  ( 0.000000000000000000, 0.000000000000000000, 1.000000000000000000 ) ) ;
#319 = CALENDAR_DATE ( 2022, 8, 7 ) ;
#320 = AXIS2_PLACEMENT_3D ( 'NONE', #334, #210, #29 ) ;
#321 = VECTOR ( 'NONE', #238, 1000.000000000000000 ) ;
#322 = DIRECTION ( 'NONE',  ( -0.000000000000000000, -0.000000000000000000, -1.000000000000000000 ) ) ;
#323 = DIRECTION ( 'NONE',  ( 0.000000000000000000, 0.000000000000000000, 1.000000000000000000 ) ) ;
#324 = DIRECTION ( 'NONE',  ( 1.000000000000000000, 0.000000000000000000, 0.000000000000000000 ) ) ;
#325 = CARTESIAN_POINT ( 'NONE',  ( 0.000000000000000000, 0.000000000000000000, 5.000000000000000000 ) ) ;
#326 = DIRECTION ( 'NONE',  ( 0.000000000000000000, 0.000000000000000000, -1.000000000000000000 ) ) ;
#327 = LOCAL_TIME ( 17, 9, 24.00000000000000000, #267 ) ;
#328 = DIRECTION ( 'NONE',  ( 0.000000000000000000, 0.000000000000000000, 1.000000000000000000 ) ) ;
#329 = ORIENTED_EDGE ( 'NONE', *, *, #315, .F. ) ;
#330 = COORDINATED_UNIVERSAL_TIME_OFFSET ( 1, 0, .AHEAD. ) ;
#331 = DIRECTION ( 'NONE',  ( 0.000000000000000000, 0.000000000000000000, 1.000000000000000000 ) ) ;
#332 = EDGE_CURVE ( 'NONE', #86, #89, #153, .T. ) ;
#333 = DATE_AND_TIME ( #264, #102 ) ;
#334 = CARTESIAN_POINT ( 'NONE',  ( 0.000000000000000000, 0.000000000000000000, 5.500000000000005329 ) ) ;
#335 = APPROVAL_STATUS ( 'not_yet_approved' ) ;
#336 = CYLINDRICAL_SURFACE ( 'NONE', #35, 2.600000000000000089 ) ;
#337 = AXIS2_PLACEMENT_3D ( 'NONE', #313, #46, #190 ) ;
#338 = EDGE_LOOP ( 'NONE', ( #274, #131 ) ) ;
#339 = PERSON_AND_ORGANIZATION_ROLE ( 'creator' ) ;
#340 = CARTESIAN_POINT ( 'NONE',  ( -7.000000000000000000, 0.000000000000000000, 0.000000000000000000 ) ) ;
#341 = VERTEX_POINT ( 'NONE', #26 ) ;
#342 = DIRECTION ( 'NONE',  ( 0.000000000000000000, 0.000000000000000000, -1.000000000000000000 ) ) ;
#343 = ORIENTED_EDGE ( 'NONE', *, *, #302, .F. ) ;
#344 = DIRECTION ( 'NONE',  ( 0.000000000000000000, 0.000000000000000000, 1.000000000000000000 ) ) ;
#345 = ORIENTED_EDGE ( 'NONE', *, *, #141, .T. ) ;
#346 = CIRCLE ( 'NONE', #173, 4.000000000000000000 ) ;
#347 = CYLINDRICAL_SURFACE ( 'NONE', #337, 7.000000000000000000 ) ;
#348 = CC_DESIGN_PERSON_AND_ORGANIZATION_ASSIGNMENT ( #67, #339, ( #150 ) ) ;
#349 = DIRECTION ( 'NONE',  ( -0.000000000000000000, -0.000000000000000000, -1.000000000000000000 ) ) ;
#350 = ORIENTED_EDGE ( 'NONE', *, *, #160, .T. ) ;
#351 = MECHANICAL_CONTEXT ( 'NONE', #219, 'mechanical' ) ;
#352 = CYLINDRICAL_SURFACE ( 'NONE', #213, 4.000000000000000000 ) ;
#353 = DIRECTION ( 'NONE',  ( 0.000000000000000000, 0.000000000000000000, 1.000000000000000000 ) ) ;
#354 = AXIS2_PLACEMENT_3D ( 'NONE', #200, #353, #28 ) ;
#355 = APPLICATION_PROTOCOL_DEFINITION ( 'international standard', 'config_control_design', 1994, #356 ) ;
#356 = APPLICATION_CONTEXT ( 'configuration controlled 3d designs of mechanical parts and assemblies' ) ;
#357 = CARTESIAN_POINT ( 'NONE',  ( 0.000000000000000000, 0.000000000000000000, 180.0000000000000000 ) ) ;
#358 = DIRECTION ( 'NONE',  ( 1.000000000000000000, 0.000000000000000000, 0.000000000000000000 ) ) ;
#359 = AXIS2_PLACEMENT_3D ( 'NONE', #31, #261, #381 ) ;
#360 = FACE_OUTER_BOUND ( 'NONE', #221, .T. ) ;
#361 = PLANE ( 'NONE',  #229 ) ;
#362 = ADVANCED_FACE ( 'NONE', ( #360 ), #276, .F. ) ;
#363 = DATE_AND_TIME ( #292, #327 ) ;
#364 = ORIENTED_EDGE ( 'NONE', *, *, #56, .F. ) ;
#365 = DATE_TIME_ROLE ( 'classification_date' ) ;
#366 = DIRECTION ( 'NONE',  ( 0.000000000000000000, 0.000000000000000000, 1.000000000000000000 ) ) ;
#367 = ADVANCED_FACE ( 'NONE', ( #377 ), #77, .F. ) ;
#368 = FACE_OUTER_BOUND ( 'NONE', #227, .T. ) ;
#369 = APPROVAL_ROLE ( '' ) ;
#370 = CARTESIAN_POINT ( 'NONE',  ( 0.000000000000000000, 0.000000000000000000, 5.000000000000000000 ) ) ;
#371 = ORIENTED_EDGE ( 'NONE', *, *, #124, .F. ) ;
#372 = EDGE_CURVE ( 'NONE', #191, #314, #120, .T. ) ;
#373 = FACE_OUTER_BOUND ( 'NONE', #119, .T. ) ;
#374 = DIRECTION ( 'NONE',  ( -0.000000000000000000, -0.000000000000000000, -1.000000000000000000 ) ) ;
#375 = CARTESIAN_POINT ( 'NONE',  ( 4.000000000000000000, 4.898587196589412829E-16, 180.0000000000000000 ) ) ;
#376 = CIRCLE ( 'NONE', #253, 7.000000000000000000 ) ;
#377 = FACE_OUTER_BOUND ( 'NONE', #97, .T. ) ;
#378 = DIRECTION ( 'NONE',  ( 0.000000000000000000, 0.000000000000000000, 1.000000000000000000 ) ) ;
#379 = EDGE_CURVE ( 'NONE', #17, #314, #282, .T. ) ;
#380 = CIRCLE ( 'NONE', #310, 2.600000000000000089 ) ;
#381 = DIRECTION ( 'NONE',  ( 1.000000000000000000, 0.000000000000000000, 0.000000000000000000 ) ) ;
ENDSEC;
END-ISO-10303-21;
