ISO-10303-21;
HEADER;
FILE_DESCRIPTION (( 'STEP AP203' ),
    '1' );
FILE_NAME ('37cf.STEP',
    '2022-07-08T15:35:11',
    ( '' ),
    ( '' ),
    'SwSTEP 2.0',
    'SolidWorks 2019',
    '' );
FILE_SCHEMA (( 'CONFIG_CONTROL_DESIGN' ));
ENDSEC;

DATA;
#1 = DIRECTION ( 'NONE',  ( -1.000000000000000000, 0.000000000000000000, 0.000000000000000000 ) ) ;
#2 = TOROIDAL_SURFACE ( 'NONE', #271, 3.500000000000000444, 0.5000000000000000000 ) ;
#3 = DIRECTION ( 'NONE',  ( -0.000000000000000000, -0.000000000000000000, -1.000000000000000000 ) ) ;
#4 = ADVANCED_FACE ( 'NONE', ( #52 ), #80, .T. ) ;
#5 = LINE ( 'NONE', #293, #225 ) ;
#6 = CYLINDRICAL_SURFACE ( 'NONE', #301, 2.000000000000000000 ) ;
#7 = VERTEX_POINT ( 'NONE', #378 ) ;
#8 =( LENGTH_UNIT ( ) NAMED_UNIT ( * ) SI_UNIT ( .MILLI., .METRE. ) );
#9 = EDGE_CURVE ( 'NONE', #370, #309, #319, .T. ) ;
#10 = ORIENTED_EDGE ( 'NONE', *, *, #240, .T. ) ;
#11 = ORIENTED_EDGE ( 'NONE', *, *, #53, .F. ) ;
#12 = EDGE_LOOP ( 'NONE', ( #279, #64, #364, #152 ) ) ;
#13 = EDGE_CURVE ( 'NONE', #68, #62, #365, .T. ) ;
#14 = EDGE_LOOP ( 'NONE', ( #97, #305, #341, #45 ) ) ;
#15 = DIRECTION ( 'NONE',  ( 0.000000000000000000, 0.000000000000000000, -1.000000000000000000 ) ) ;
#16 = AXIS2_PLACEMENT_3D ( 'NONE', #116, #54, #210 ) ;
#17 = CARTESIAN_POINT ( 'NONE',  ( 0.000000000000000000, 0.000000000000000000, 0.000000000000000000 ) ) ;
#18 = CLOSED_SHELL ( 'NONE', ( #324, #380, #317, #214, #4, #143, #131, #117, #204, #362, #295 ) ) ;
#19 = DIRECTION ( 'NONE',  ( -1.000000000000000000, 1.224646799147354440E-16, 0.000000000000000000 ) ) ;
#20 = DIRECTION ( 'NONE',  ( 1.000000000000000000, 0.000000000000000000, 0.000000000000000000 ) ) ;
#21 = AXIS2_PLACEMENT_3D ( 'NONE', #351, #230, #232 ) ;
#22 = CARTESIAN_POINT ( 'NONE',  ( -3.500000000000000444, 4.286263797015737088E-16, 5.500000000000005329 ) ) ;
#23 = PRODUCT_DEFINITION_SHAPE ( 'NONE', 'NONE',  #34 ) ;
#24 = EDGE_CURVE ( 'NONE', #183, #154, #115, .T. ) ;
#25 = CARTESIAN_POINT ( 'NONE',  ( 0.000000000000000000, 0.000000000000000000, 280.0000000000000000 ) ) ;
#26 = CIRCLE ( 'NONE', #242, 3.500000000000000444 ) ;
#27 = CARTESIAN_POINT ( 'NONE',  ( 0.000000000000000000, 0.000000000000000000, 280.0000000000000000 ) ) ;
#28 = FACE_OUTER_BOUND ( 'NONE', #186, .T. ) ;
#29 = APPROVAL_PERSON_ORGANIZATION ( #182, #228, #151 ) ;
#30 = CARTESIAN_POINT ( 'NONE',  ( 0.000000000000000000, 0.000000000000000000, 5.000000000000000000 ) ) ;
#31 = CARTESIAN_POINT ( 'NONE',  ( 0.000000000000000000, 0.000000000000000000, 0.000000000000000000 ) ) ;
#32 =( NAMED_UNIT ( * ) SI_UNIT ( $, .STERADIAN. ) SOLID_ANGLE_UNIT ( ) );
#33 = CIRCLE ( 'NONE', #16, 2.000000000000000000 ) ;
#34 = PRODUCT_DEFINITION ( 'NEZNÁMÝ', '', #292, #356 ) ;
#35 = CARTESIAN_POINT ( 'NONE',  ( 0.000000000000000000, 0.000000000000000000, 0.000000000000000000 ) ) ;
#36 = EDGE_LOOP ( 'NONE', ( #149, #361 ) ) ;
#37 = CALENDAR_DATE ( 2022, 8, 7 ) ;
#38 = EDGE_LOOP ( 'NONE', ( #98, #191, #224, #243 ) ) ;
#39 = CARTESIAN_POINT ( 'NONE',  ( 0.000000000000000000, 0.000000000000000000, 0.000000000000000000 ) ) ;
#40 = VERTEX_POINT ( 'NONE', #257 ) ;
#41 = CIRCLE ( 'NONE', #21, 0.5000000000000004441 ) ;
#42 = DATE_TIME_ROLE ( 'creation_date' ) ;
#43 = ORIENTED_EDGE ( 'NONE', *, *, #299, .T. ) ;
#44 = CIRCLE ( 'NONE', #357, 0.4999999999999995559 ) ;
#45 = ORIENTED_EDGE ( 'NONE', *, *, #312, .T. ) ;
#46 = PERSON_AND_ORGANIZATION ( #126, #198 ) ;
#47 = DIRECTION ( 'NONE',  ( 0.000000000000000000, 0.000000000000000000, 1.000000000000000000 ) ) ;
#48 = EDGE_CURVE ( 'NONE', #7, #370, #321, .T. ) ;
#49 = PERSON_AND_ORGANIZATION_ROLE ( 'creator' ) ;
#50 = CARTESIAN_POINT ( 'NONE',  ( 0.000000000000000000, 0.000000000000000000, 5.000000000000000000 ) ) ;
#51 = DIRECTION ( 'NONE',  ( 0.000000000000000000, 0.000000000000000000, 1.000000000000000000 ) ) ;
#52 = FACE_OUTER_BOUND ( 'NONE', #14, .T. ) ;
#53 = EDGE_CURVE ( 'NONE', #213, #249, #44, .T. ) ;
#54 = DIRECTION ( 'NONE',  ( 0.000000000000000000, 0.000000000000000000, 1.000000000000000000 ) ) ;
#55 = FACE_OUTER_BOUND ( 'NONE', #12, .T. ) ;
#56 = EDGE_CURVE ( 'NONE', #330, #309, #165, .T. ) ;
#57 = DIRECTION ( 'NONE',  ( -0.000000000000000000, -0.000000000000000000, -1.000000000000000000 ) ) ;
#58 = DIRECTION ( 'NONE',  ( 0.000000000000000000, 0.000000000000000000, -1.000000000000000000 ) ) ;
#59 = CARTESIAN_POINT ( 'NONE',  ( 0.000000000000000000, 0.000000000000000000, 5.000000000000000000 ) ) ;
#60 = EDGE_CURVE ( 'NONE', #154, #274, #200, .T. ) ;
#61 = APPLICATION_PROTOCOL_DEFINITION ( 'international standard', 'config_control_design', 1994, #178 ) ;
#62 = VERTEX_POINT ( 'NONE', #140 ) ;
#63 = APPROVAL_STATUS ( 'not_yet_approved' ) ;
#64 = ORIENTED_EDGE ( 'NONE', *, *, #270, .T. ) ;
#65 = AXIS2_PLACEMENT_3D ( 'NONE', #50, #221, #81 ) ;
#66 = EDGE_CURVE ( 'NONE', #249, #73, #26, .T. ) ;
#67 = CARTESIAN_POINT ( 'NONE',  ( 6.000000000000000888, 7.347880794884120722E-16, 0.000000000000000000 ) ) ;
#68 = VERTEX_POINT ( 'NONE', #159 ) ;
#69 = COORDINATED_UNIVERSAL_TIME_OFFSET ( 1, 0, .AHEAD. ) ;
#70 = ORIENTED_EDGE ( 'NONE', *, *, #9, .T. ) ;
#71 = CC_DESIGN_APPROVAL ( #158, ( #209 ) ) ;
#72 = APPROVAL_DATE_TIME ( #314, #247 ) ;
#73 = VERTEX_POINT ( 'NONE', #135 ) ;
#74 = DATE_TIME_ROLE ( 'classification_date' ) ;
#75 = VECTOR ( 'NONE', #285, 1000.000000000000000 ) ;
#76 = CARTESIAN_POINT ( 'NONE',  ( 2.000000000000000000, 2.449293598294706414E-16, 280.0000000000000000 ) ) ;
#77 = EDGE_CURVE ( 'NONE', #62, #40, #262, .T. ) ;
#78 = FACE_OUTER_BOUND ( 'NONE', #251, .T. ) ;
#79 = TOROIDAL_SURFACE ( 'NONE', #315, 3.500000000000000444, 0.5000000000000000000 ) ;
#80 = CYLINDRICAL_SURFACE ( 'NONE', #65, 6.000000000000000888 ) ;
#81 = DIRECTION ( 'NONE',  ( -1.000000000000000000, 0.000000000000000000, 0.000000000000000000 ) ) ;
#82 = FACE_OUTER_BOUND ( 'NONE', #130, .T. ) ;
#83 = CIRCLE ( 'NONE', #308, 6.000000000000000888 ) ;
#84 = FACE_OUTER_BOUND ( 'NONE', #339, .T. ) ;
#85 = DIRECTION ( 'NONE',  ( -0.000000000000000000, -0.000000000000000000, -1.000000000000000000 ) ) ;
#86 = FACE_OUTER_BOUND ( 'NONE', #316, .T. ) ;
#87 = DIRECTION ( 'NONE',  ( 0.000000000000000000, 0.000000000000000000, 1.000000000000000000 ) ) ;
#88 = CC_DESIGN_APPROVAL ( #228, ( #34 ) ) ;
#89 = CARTESIAN_POINT ( 'NONE',  ( -2.000000000000000000, 0.000000000000000000, 0.000000000000000000 ) ) ;
#90 = EDGE_CURVE ( 'NONE', #40, #213, #343, .T. ) ;
#91 = PERSON_AND_ORGANIZATION_ROLE ( 'creator' ) ;
#92 = ORIENTED_EDGE ( 'NONE', *, *, #177, .T. ) ;
#93 = CALENDAR_DATE ( 2022, 8, 7 ) ;
#94 = ORIENTED_EDGE ( 'NONE', *, *, #60, .T. ) ;
#95 = AXIS2_PLACEMENT_3D ( 'NONE', #27, #58, #280 ) ;
#96 = ORIENTED_EDGE ( 'NONE', *, *, #48, .T. ) ;
#97 = ORIENTED_EDGE ( 'NONE', *, *, #48, .F. ) ;
#98 = ORIENTED_EDGE ( 'NONE', *, *, #283, .F. ) ;
#99 = CIRCLE ( 'NONE', #372, 2.000000000000000000 ) ;
#100 = LOCAL_TIME ( 17, 35, 11.00000000000000000, #139 ) ;
#101 = DIRECTION ( 'NONE',  ( -0.000000000000000000, -0.000000000000000000, -1.000000000000000000 ) ) ;
#102 = CC_DESIGN_PERSON_AND_ORGANIZATION_ASSIGNMENT ( #335, #239, ( #105 ) ) ;
#103 = FACE_BOUND ( 'NONE', #272, .T. ) ;
#104 = DIRECTION ( 'NONE',  ( -0.000000000000000000, -0.000000000000000000, -1.000000000000000000 ) ) ;
#105 = PRODUCT ( '37cf', '37cf', '', ( #127 ) ) ;
#106 = CYLINDRICAL_SURFACE ( 'NONE', #236, 3.000000000000000444 ) ;
#107 = FACE_BOUND ( 'NONE', #36, .T. ) ;
#108 = CARTESIAN_POINT ( 'NONE',  ( 0.000000000000000000, 0.000000000000000000, 5.000000000000000000 ) ) ;
#109 = AXIS2_PLACEMENT_3D ( 'NONE', #327, #85, #1 ) ;
#110 = CIRCLE ( 'NONE', #332, 2.000000000000000000 ) ;
#111 = CARTESIAN_POINT ( 'NONE',  ( 0.000000000000000000, 0.000000000000000000, 0.000000000000000000 ) ) ;
#112 = APPROVAL_PERSON_ORGANIZATION ( #46, #158, #320 ) ;
#113 = EDGE_CURVE ( 'NONE', #73, #249, #188, .T. ) ;
#114 = DIRECTION ( 'NONE',  ( 1.000000000000000000, 0.000000000000000000, 0.000000000000000000 ) ) ;
#115 = CIRCLE ( 'NONE', #201, 2.000000000000000000 ) ;
#116 = CARTESIAN_POINT ( 'NONE',  ( 0.000000000000000000, 0.000000000000000000, 280.0000000000000000 ) ) ;
#117 = ADVANCED_FACE ( 'NONE', ( #318 ), #106, .T. ) ;
#118 = DIRECTION ( 'NONE',  ( 0.000000000000000000, 0.000000000000000000, 1.000000000000000000 ) ) ;
#119 = AXIS2_PLACEMENT_3D ( 'NONE', #108, #87, #355 ) ;
#120 = ORIENTED_EDGE ( 'NONE', *, *, #13, .F. ) ;
#121 = VECTOR ( 'NONE', #288, 1000.000000000000000 ) ;
#122 = CARTESIAN_POINT ( 'NONE',  ( 0.000000000000000000, 0.000000000000000000, 5.500000000000005329 ) ) ;
#123 = ORIENTED_EDGE ( 'NONE', *, *, #368, .F. ) ;
#124 = LINE ( 'NONE', #329, #265 ) ;
#125 = ORIENTED_EDGE ( 'NONE', *, *, #24, .F. ) ;
#126 = PERSON ( 'NEURÈENÝ', 'NEURÈENÝ', 'NEURÈENÝ', ('NEURÈENÝ'), ('NEURÈENÝ'), ('NEURÈENÝ') ) ;
#127 = MECHANICAL_CONTEXT ( 'NONE', #141, 'mechanical' ) ;
#128 = ORIENTED_EDGE ( 'NONE', *, *, #77, .F. ) ;
#129 = ADVANCED_BREP_SHAPE_REPRESENTATION ( '37cf', ( #211, #363 ), #145 ) ;
#130 = EDGE_LOOP ( 'NONE', ( #220, #276 ) ) ;
#131 = ADVANCED_FACE ( 'NONE', ( #107, #82 ), #284, .F. ) ;
#132 = PERSON_AND_ORGANIZATION_ROLE ( 'classification_officer' ) ;
#133 = ORIENTED_EDGE ( 'NONE', *, *, #184, .F. ) ;
#134 = PERSON_AND_ORGANIZATION_ROLE ( 'design_supplier' ) ;
#135 = CARTESIAN_POINT ( 'NONE',  ( 3.500000000000000444, 0.000000000000000000, 5.000000000000002665 ) ) ;
#136 = CARTESIAN_POINT ( 'NONE',  ( 0.000000000000000000, 0.000000000000000000, 5.500000000000005329 ) ) ;
#137 = DIRECTION ( 'NONE',  ( 1.000000000000000000, 0.000000000000000000, 0.000000000000000000 ) ) ;
#138 = AXIS2_PLACEMENT_3D ( 'NONE', #59, #144, #353 ) ;
#139 = COORDINATED_UNIVERSAL_TIME_OFFSET ( 1, 0, .AHEAD. ) ;
#140 = CARTESIAN_POINT ( 'NONE',  ( 3.000000000000000444, 3.673940397442060361E-16, 280.0000000000000000 ) ) ;
#141 = APPLICATION_CONTEXT ( 'configuration controlled 3d designs of mechanical parts and assemblies' ) ;
#142 = DIRECTION ( 'NONE',  ( 0.000000000000000000, 0.000000000000000000, 1.000000000000000000 ) ) ;
#143 = ADVANCED_FACE ( 'NONE', ( #103, #78 ), #197, .T. ) ;
#144 = DIRECTION ( 'NONE',  ( 0.000000000000000000, 0.000000000000000000, 1.000000000000000000 ) ) ;
#145 =( GEOMETRIC_REPRESENTATION_CONTEXT ( 3 ) GLOBAL_UNCERTAINTY_ASSIGNED_CONTEXT ( ( #181 ) ) GLOBAL_UNIT_ASSIGNED_CONTEXT ( ( #8, #248, #32 ) ) REPRESENTATION_CONTEXT ( 'NONE', 'WORKASPACE' ) );
#146 = CARTESIAN_POINT ( 'NONE',  ( 0.000000000000000000, 0.000000000000000000, 280.0000000000000000 ) ) ;
#147 = CARTESIAN_POINT ( 'NONE',  ( -3.000000000000000444, 0.000000000000000000, 5.500000000000005329 ) ) ;
#148 = FACE_OUTER_BOUND ( 'NONE', #38, .T. ) ;
#149 = ORIENTED_EDGE ( 'NONE', *, *, #352, .F. ) ;
#150 = EDGE_LOOP ( 'NONE', ( #306, #92 ) ) ;
#151 = APPROVAL_ROLE ( '' ) ;
#152 = ORIENTED_EDGE ( 'NONE', *, *, #352, .T. ) ;
#153 = DIRECTION ( 'NONE',  ( 1.000000000000000000, 0.000000000000000000, 0.000000000000000000 ) ) ;
#154 = VERTEX_POINT ( 'NONE', #263 ) ;
#155 = CIRCLE ( 'NONE', #119, 6.000000000000000888 ) ;
#156 = PERSON_AND_ORGANIZATION ( #126, #198 ) ;
#157 = ORIENTED_EDGE ( 'NONE', *, *, #56, .F. ) ;
#158 = APPROVAL ( #290, 'NEURÈENÝ' ) ;
#159 = CARTESIAN_POINT ( 'NONE',  ( -3.000000000000000444, 0.000000000000000000, 280.0000000000000000 ) ) ;
#160 = APPROVAL_DATE_TIME ( #163, #158 ) ;
#161 = DIRECTION ( 'NONE',  ( -0.000000000000000000, -0.000000000000000000, -1.000000000000000000 ) ) ;
#162 = AXIS2_PLACEMENT_3D ( 'NONE', #325, #381, #296 ) ;
#163 = DATE_AND_TIME ( #166, #100 ) ;
#164 = CARTESIAN_POINT ( 'NONE',  ( 3.000000000000000444, 3.673940397442060361E-16, 280.0000000000000000 ) ) ;
#165 = LINE ( 'NONE', #348, #121 ) ;
#166 = CALENDAR_DATE ( 2022, 8, 7 ) ;
#167 = DIRECTION ( 'NONE',  ( -0.000000000000000000, -0.000000000000000000, -1.000000000000000000 ) ) ;
#168 = APPROVAL_PERSON_ORGANIZATION ( #156, #247, #185 ) ;
#169 = CC_DESIGN_SECURITY_CLASSIFICATION ( #209, ( #292 ) ) ;
#170 = CARTESIAN_POINT ( 'NONE',  ( 0.000000000000000000, 0.000000000000000000, 5.500000000000005329 ) ) ;
#171 = EDGE_CURVE ( 'NONE', #330, #7, #333, .T. ) ;
#172 = CARTESIAN_POINT ( 'NONE',  ( 2.000000000000000000, 2.449293598294706414E-16, 0.000000000000000000 ) ) ;
#173 = AXIS2_PLACEMENT_3D ( 'NONE', #136, #51, #259 ) ;
#174 = PLANE ( 'NONE',  #278 ) ;
#175 = AXIS2_PLACEMENT_3D ( 'NONE', #376, #104, #252 ) ;
#176 = DIRECTION ( 'NONE',  ( 0.000000000000000000, 0.000000000000000000, -1.000000000000000000 ) ) ;
#177 = EDGE_CURVE ( 'NONE', #62, #68, #205, .T. ) ;
#178 = APPLICATION_CONTEXT ( 'configuration controlled 3d designs of mechanical parts and assemblies' ) ;
#179 = FACE_BOUND ( 'NONE', #218, .T. ) ;
#180 = APPLICATION_PROTOCOL_DEFINITION ( 'international standard', 'config_control_design', 1994, #141 ) ;
#181 = UNCERTAINTY_MEASURE_WITH_UNIT (LENGTH_MEASURE( 1.000000000000000082E-05 ), #8, 'distance_accuracy_value', 'NONE');
#182 = PERSON_AND_ORGANIZATION ( #126, #198 ) ;
#183 = VERTEX_POINT ( 'NONE', #323 ) ;
#184 = EDGE_CURVE ( 'NONE', #68, #213, #5, .T. ) ;
#185 = APPROVAL_ROLE ( '' ) ;
#186 = EDGE_LOOP ( 'NONE', ( #340, #96, #70, #157 ) ) ;
#187 = DIRECTION ( 'NONE',  ( 1.000000000000000000, 0.000000000000000000, 0.000000000000000000 ) ) ;
#188 = CIRCLE ( 'NONE', #175, 3.500000000000000444 ) ;
#189 = ORIENTED_EDGE ( 'NONE', *, *, #270, .F. ) ;
#190 = DATE_AND_TIME ( #212, #245 ) ;
#191 = ORIENTED_EDGE ( 'NONE', *, *, #53, .T. ) ;
#192 = CC_DESIGN_DATE_AND_TIME_ASSIGNMENT ( #287, #74, ( #209 ) ) ;
#193 = SECURITY_CLASSIFICATION_LEVEL ( 'unclassified' ) ;
#194 = EDGE_LOOP ( 'NONE', ( #11, #268, #43, #217 ) ) ;
#195 = VECTOR ( 'NONE', #15, 1000.000000000000000 ) ;
#196 = EDGE_LOOP ( 'NONE', ( #128, #120, #219, #281 ) ) ;
#197 = PLANE ( 'NONE',  #377 ) ;
#198 = ORGANIZATION ( 'NEURÈENÝ', 'NEURÈENÝ', '' ) ;
#199 = LOCAL_TIME ( 17, 35, 11.00000000000000000, #371 ) ;
#200 = LINE ( 'NONE', #76, #195 ) ;
#201 = AXIS2_PLACEMENT_3D ( 'NONE', #346, #229, #203 ) ;
#202 = VERTEX_POINT ( 'NONE', #89 ) ;
#203 = DIRECTION ( 'NONE',  ( 1.000000000000000000, 0.000000000000000000, 0.000000000000000000 ) ) ;
#204 = ADVANCED_FACE ( 'NONE', ( #179, #238 ), #174, .T. ) ;
#205 = CIRCLE ( 'NONE', #162, 3.000000000000000444 ) ;
#206 = DIRECTION ( 'NONE',  ( 1.000000000000000000, 0.000000000000000000, 0.000000000000000000 ) ) ;
#207 = CARTESIAN_POINT ( 'NONE',  ( -3.500000000000000444, 4.286263797015737088E-16, 5.000000000000002665 ) ) ;
#208 = CARTESIAN_POINT ( 'NONE',  ( 0.000000000000000000, 0.000000000000000000, 280.0000000000000000 ) ) ;
#209 = SECURITY_CLASSIFICATION ( '', '', #193 ) ;
#210 = DIRECTION ( 'NONE',  ( 1.000000000000000000, 0.000000000000000000, 0.000000000000000000 ) ) ;
#211 = MANIFOLD_SOLID_BREP ( 'Odebrat vysunutím3', #18 ) ;
#212 = CALENDAR_DATE ( 2022, 8, 7 ) ;
#213 = VERTEX_POINT ( 'NONE', #147 ) ;
#214 = ADVANCED_FACE ( 'NONE', ( #28 ), #266, .T. ) ;
#215 = APPROVAL_DATE_TIME ( #190, #228 ) ;
#216 = AXIS2_PLACEMENT_3D ( 'NONE', #17, #254, #375 ) ;
#217 = ORIENTED_EDGE ( 'NONE', *, *, #66, .F. ) ;
#218 = EDGE_LOOP ( 'NONE', ( #125, #189 ) ) ;
#219 = ORIENTED_EDGE ( 'NONE', *, *, #184, .T. ) ;
#220 = ORIENTED_EDGE ( 'NONE', *, *, #312, .F. ) ;
#221 = DIRECTION ( 'NONE',  ( -0.000000000000000000, -0.000000000000000000, -1.000000000000000000 ) ) ;
#222 = CARTESIAN_POINT ( 'NONE',  ( 0.000000000000000000, 0.000000000000000000, 280.0000000000000000 ) ) ;
#223 = CC_DESIGN_PERSON_AND_ORGANIZATION_ASSIGNMENT ( #256, #132, ( #209 ) ) ;
#224 = ORIENTED_EDGE ( 'NONE', *, *, #113, .F. ) ;
#225 = VECTOR ( 'NONE', #57, 1000.000000000000000 ) ;
#226 = CALENDAR_DATE ( 2022, 8, 7 ) ;
#227 = DIRECTION ( 'NONE',  ( 1.224646799147353207E-16, 1.000000000000000000, -0.000000000000000000 ) ) ;
#228 = APPROVAL ( #366, 'NEURÈENÝ' ) ;
#229 = DIRECTION ( 'NONE',  ( 0.000000000000000000, 0.000000000000000000, 1.000000000000000000 ) ) ;
#230 = DIRECTION ( 'NONE',  ( 0.000000000000000000, -1.000000000000000000, 0.000000000000000000 ) ) ;
#231 = AXIS2_PLACEMENT_3D ( 'NONE', #170, #235, #114 ) ;
#232 = DIRECTION ( 'NONE',  ( 0.000000000000000000, 0.000000000000000000, -1.000000000000000000 ) ) ;
#233 = AXIS2_PLACEMENT_3D ( 'NONE', #373, #342, #291 ) ;
#234 = DIRECTION ( 'NONE',  ( -1.000000000000000000, 0.000000000000000000, 0.000000000000000000 ) ) ;
#235 = DIRECTION ( 'NONE',  ( 0.000000000000000000, 0.000000000000000000, 1.000000000000000000 ) ) ;
#236 = AXIS2_PLACEMENT_3D ( 'NONE', #347, #167, #379 ) ;
#237 = CC_DESIGN_APPROVAL ( #247, ( #292 ) ) ;
#238 = FACE_OUTER_BOUND ( 'NONE', #150, .T. ) ;
#239 = PERSON_AND_ORGANIZATION_ROLE ( 'design_owner' ) ;
#240 = EDGE_CURVE ( 'NONE', #7, #330, #155, .T. ) ;
#241 = ORIENTED_EDGE ( 'NONE', *, *, #77, .T. ) ;
#242 = AXIS2_PLACEMENT_3D ( 'NONE', #313, #161, #20 ) ;
#243 = ORIENTED_EDGE ( 'NONE', *, *, #299, .F. ) ;
#244 = DIRECTION ( 'NONE',  ( 1.000000000000000000, 0.000000000000000000, 0.000000000000000000 ) ) ;
#245 = LOCAL_TIME ( 17, 35, 11.00000000000000000, #69 ) ;
#246 = ORIENTED_EDGE ( 'NONE', *, *, #177, .F. ) ;
#247 = APPROVAL ( #63, 'NEURÈENÝ' ) ;
#248 =( NAMED_UNIT ( * ) PLANE_ANGLE_UNIT ( ) SI_UNIT ( $, .RADIAN. ) );
#249 = VERTEX_POINT ( 'NONE', #207 ) ;
#250 = CARTESIAN_POINT ( 'NONE',  ( 0.000000000000000000, 0.000000000000000000, 5.500000000000005329 ) ) ;
#251 = EDGE_LOOP ( 'NONE', ( #303, #10 ) ) ;
#252 = DIRECTION ( 'NONE',  ( 1.000000000000000000, 0.000000000000000000, 0.000000000000000000 ) ) ;
#253 = AXIS2_PLACEMENT_3D ( 'NONE', #208, #326, #298 ) ;
#254 = DIRECTION ( 'NONE',  ( 0.000000000000000000, 0.000000000000000000, 1.000000000000000000 ) ) ;
#255 = EDGE_CURVE ( 'NONE', #274, #202, #99, .T. ) ;
#256 = PERSON_AND_ORGANIZATION ( #126, #198 ) ;
#257 = CARTESIAN_POINT ( 'NONE',  ( 3.000000000000000444, 3.673940397442060361E-16, 5.500000000000005329 ) ) ;
#258 = PERSON_AND_ORGANIZATION ( #126, #198 ) ;
#259 = DIRECTION ( 'NONE',  ( 1.000000000000000000, 0.000000000000000000, 0.000000000000000000 ) ) ;
#260 = CIRCLE ( 'NONE', #231, 3.000000000000000444 ) ;
#261 = CC_DESIGN_PERSON_AND_ORGANIZATION_ASSIGNMENT ( #358, #91, ( #34 ) ) ;
#262 = LINE ( 'NONE', #164, #75 ) ;
#263 = CARTESIAN_POINT ( 'NONE',  ( 2.000000000000000000, 2.449293598294706414E-16, 280.0000000000000000 ) ) ;
#264 = DIRECTION ( 'NONE',  ( 1.000000000000000000, 0.000000000000000000, -0.000000000000000000 ) ) ;
#265 = VECTOR ( 'NONE', #369, 1000.000000000000000 ) ;
#266 = CYLINDRICAL_SURFACE ( 'NONE', #109, 6.000000000000000888 ) ;
#267 = DIRECTION ( 'NONE',  ( 0.000000000000000000, 0.000000000000000000, 1.000000000000000000 ) ) ;
#268 = ORIENTED_EDGE ( 'NONE', *, *, #90, .F. ) ;
#269 = CARTESIAN_POINT ( 'NONE',  ( -6.000000000000000888, 0.000000000000000000, 0.000000000000000000 ) ) ;
#270 = EDGE_CURVE ( 'NONE', #154, #183, #33, .T. ) ;
#271 = AXIS2_PLACEMENT_3D ( 'NONE', #250, #273, #244 ) ;
#272 = EDGE_LOOP ( 'NONE', ( #367, #359 ) ) ;
#273 = DIRECTION ( 'NONE',  ( 0.000000000000000000, 0.000000000000000000, 1.000000000000000000 ) ) ;
#274 = VERTEX_POINT ( 'NONE', #172 ) ;
#275 = CARTESIAN_POINT ( 'NONE',  ( -6.000000000000000888, 0.000000000000000000, 5.000000000000000000 ) ) ;
#276 = ORIENTED_EDGE ( 'NONE', *, *, #9, .F. ) ;
#277 = DIRECTION ( 'NONE',  ( -0.000000000000000000, -0.000000000000000000, -1.000000000000000000 ) ) ;
#278 = AXIS2_PLACEMENT_3D ( 'NONE', #146, #118, #264 ) ;
#279 = ORIENTED_EDGE ( 'NONE', *, *, #60, .F. ) ;
#280 = DIRECTION ( 'NONE',  ( -1.000000000000000000, 0.000000000000000000, 0.000000000000000000 ) ) ;
#281 = ORIENTED_EDGE ( 'NONE', *, *, #283, .T. ) ;
#282 = CARTESIAN_POINT ( 'NONE',  ( 6.000000000000000888, 7.347880794884120722E-16, 5.000000000000000000 ) ) ;
#283 = EDGE_CURVE ( 'NONE', #213, #40, #260, .T. ) ;
#284 = PLANE ( 'NONE',  #216 ) ;
#285 = DIRECTION ( 'NONE',  ( -0.000000000000000000, -0.000000000000000000, -1.000000000000000000 ) ) ;
#286 = AXIS2_PLACEMENT_3D ( 'NONE', #222, #47, #137 ) ;
#287 = DATE_AND_TIME ( #226, #199 ) ;
#288 = DIRECTION ( 'NONE',  ( -0.000000000000000000, -0.000000000000000000, -1.000000000000000000 ) ) ;
#289 = CC_DESIGN_PERSON_AND_ORGANIZATION_ASSIGNMENT ( #374, #49, ( #292 ) ) ;
#290 = APPROVAL_STATUS ( 'not_yet_approved' ) ;
#291 = DIRECTION ( 'NONE',  ( 1.000000000000000000, 0.000000000000000000, 0.000000000000000000 ) ) ;
#292 = PRODUCT_DEFINITION_FORMATION_WITH_SPECIFIED_SOURCE ( 'LIBOVOLNÝ', '', #105, .NOT_KNOWN. ) ;
#293 = CARTESIAN_POINT ( 'NONE',  ( -3.000000000000000444, 0.000000000000000000, 280.0000000000000000 ) ) ;
#294 = CYLINDRICAL_SURFACE ( 'NONE', #95, 2.000000000000000000 ) ;
#295 = ADVANCED_FACE ( 'NONE', ( #55 ), #6, .F. ) ;
#296 = DIRECTION ( 'NONE',  ( 1.000000000000000000, 0.000000000000000000, 0.000000000000000000 ) ) ;
#297 = DIRECTION ( 'NONE',  ( 1.000000000000000000, 0.000000000000000000, 0.000000000000000000 ) ) ;
#298 = DIRECTION ( 'NONE',  ( -1.000000000000000000, 0.000000000000000000, 0.000000000000000000 ) ) ;
#299 = EDGE_CURVE ( 'NONE', #40, #73, #41, .T. ) ;
#300 = FACE_OUTER_BOUND ( 'NONE', #194, .T. ) ;
#301 = AXIS2_PLACEMENT_3D ( 'NONE', #25, #176, #234 ) ;
#302 = DIRECTION ( 'NONE',  ( 1.000000000000000000, 0.000000000000000000, 0.000000000000000000 ) ) ;
#303 = ORIENTED_EDGE ( 'NONE', *, *, #171, .T. ) ;
#304 = COORDINATED_UNIVERSAL_TIME_OFFSET ( 1, 0, .AHEAD. ) ;
#305 = ORIENTED_EDGE ( 'NONE', *, *, #171, .F. ) ;
#306 = ORIENTED_EDGE ( 'NONE', *, *, #13, .T. ) ;
#307 = DATE_AND_TIME ( #93, #354 ) ;
#308 = AXIS2_PLACEMENT_3D ( 'NONE', #31, #142, #297 ) ;
#309 = VERTEX_POINT ( 'NONE', #269 ) ;
#310 = SHAPE_DEFINITION_REPRESENTATION ( #23, #129 ) ;
#311 = ORIENTED_EDGE ( 'NONE', *, *, #24, .T. ) ;
#312 = EDGE_CURVE ( 'NONE', #309, #370, #83, .T. ) ;
#313 = CARTESIAN_POINT ( 'NONE',  ( 0.000000000000000000, 0.000000000000000000, 5.000000000000000000 ) ) ;
#314 = DATE_AND_TIME ( #37, #334 ) ;
#315 = AXIS2_PLACEMENT_3D ( 'NONE', #122, #338, #187 ) ;
#316 = EDGE_LOOP ( 'NONE', ( #246, #241, #336, #133 ) ) ;
#317 = ADVANCED_FACE ( 'NONE', ( #86 ), #349, .T. ) ;
#318 = FACE_OUTER_BOUND ( 'NONE', #196, .T. ) ;
#319 = CIRCLE ( 'NONE', #233, 6.000000000000000888 ) ;
#320 = APPROVAL_ROLE ( '' ) ;
#321 = LINE ( 'NONE', #282, #337 ) ;
#322 = DIRECTION ( 'NONE',  ( 1.000000000000000000, 0.000000000000000000, -0.000000000000000000 ) ) ;
#323 = CARTESIAN_POINT ( 'NONE',  ( -2.000000000000000000, 0.000000000000000000, 280.0000000000000000 ) ) ;
#324 = ADVANCED_FACE ( 'NONE', ( #84 ), #294, .F. ) ;
#325 = CARTESIAN_POINT ( 'NONE',  ( 0.000000000000000000, 0.000000000000000000, 280.0000000000000000 ) ) ;
#326 = DIRECTION ( 'NONE',  ( -0.000000000000000000, -0.000000000000000000, -1.000000000000000000 ) ) ;
#327 = CARTESIAN_POINT ( 'NONE',  ( 0.000000000000000000, 0.000000000000000000, 5.000000000000000000 ) ) ;
#328 = DIRECTION ( 'NONE',  ( 0.000000000000000000, 0.000000000000000000, 1.000000000000000000 ) ) ;
#329 = CARTESIAN_POINT ( 'NONE',  ( -2.000000000000000000, 0.000000000000000000, 280.0000000000000000 ) ) ;
#330 = VERTEX_POINT ( 'NONE', #275 ) ;
#331 = PRODUCT_RELATED_PRODUCT_CATEGORY ( 'detail', '', ( #105 ) ) ;
#332 = AXIS2_PLACEMENT_3D ( 'NONE', #35, #277, #302 ) ;
#333 = CIRCLE ( 'NONE', #138, 6.000000000000000888 ) ;
#334 = LOCAL_TIME ( 17, 35, 11.00000000000000000, #304 ) ;
#335 = PERSON_AND_ORGANIZATION ( #126, #198 ) ;
#336 = ORIENTED_EDGE ( 'NONE', *, *, #90, .T. ) ;
#337 = VECTOR ( 'NONE', #101, 1000.000000000000000 ) ;
#338 = DIRECTION ( 'NONE',  ( 0.000000000000000000, 0.000000000000000000, 1.000000000000000000 ) ) ;
#339 = EDGE_LOOP ( 'NONE', ( #311, #94, #344, #123 ) ) ;
#340 = ORIENTED_EDGE ( 'NONE', *, *, #240, .F. ) ;
#341 = ORIENTED_EDGE ( 'NONE', *, *, #56, .T. ) ;
#342 = DIRECTION ( 'NONE',  ( 0.000000000000000000, 0.000000000000000000, 1.000000000000000000 ) ) ;
#343 = CIRCLE ( 'NONE', #173, 3.000000000000000444 ) ;
#344 = ORIENTED_EDGE ( 'NONE', *, *, #255, .T. ) ;
#345 = CC_DESIGN_PERSON_AND_ORGANIZATION_ASSIGNMENT ( #258, #134, ( #292 ) ) ;
#346 = CARTESIAN_POINT ( 'NONE',  ( 0.000000000000000000, 0.000000000000000000, 280.0000000000000000 ) ) ;
#347 = CARTESIAN_POINT ( 'NONE',  ( 0.000000000000000000, 0.000000000000000000, 280.0000000000000000 ) ) ;
#348 = CARTESIAN_POINT ( 'NONE',  ( -6.000000000000000888, 0.000000000000000000, 5.000000000000000000 ) ) ;
#349 = CYLINDRICAL_SURFACE ( 'NONE', #253, 3.000000000000000444 ) ;
#350 = CC_DESIGN_DATE_AND_TIME_ASSIGNMENT ( #307, #42, ( #34 ) ) ;
#351 = CARTESIAN_POINT ( 'NONE',  ( 3.500000000000000444, 0.000000000000000000, 5.500000000000005329 ) ) ;
#352 = EDGE_CURVE ( 'NONE', #202, #274, #110, .T. ) ;
#353 = DIRECTION ( 'NONE',  ( 1.000000000000000000, 0.000000000000000000, 0.000000000000000000 ) ) ;
#354 = LOCAL_TIME ( 17, 35, 11.00000000000000000, #360 ) ;
#355 = DIRECTION ( 'NONE',  ( 1.000000000000000000, 0.000000000000000000, 0.000000000000000000 ) ) ;
#356 = DESIGN_CONTEXT ( 'detailed design', #178, 'design' ) ;
#357 = AXIS2_PLACEMENT_3D ( 'NONE', #22, #227, #19 ) ;
#358 = PERSON_AND_ORGANIZATION ( #126, #198 ) ;
#359 = ORIENTED_EDGE ( 'NONE', *, *, #66, .T. ) ;
#360 = COORDINATED_UNIVERSAL_TIME_OFFSET ( 1, 0, .AHEAD. ) ;
#361 = ORIENTED_EDGE ( 'NONE', *, *, #255, .F. ) ;
#362 = ADVANCED_FACE ( 'NONE', ( #300 ), #2, .F. ) ;
#363 = AXIS2_PLACEMENT_3D ( 'NONE', #39, #328, #153 ) ;
#364 = ORIENTED_EDGE ( 'NONE', *, *, #368, .T. ) ;
#365 = CIRCLE ( 'NONE', #286, 3.000000000000000444 ) ;
#366 = APPROVAL_STATUS ( 'not_yet_approved' ) ;
#367 = ORIENTED_EDGE ( 'NONE', *, *, #113, .T. ) ;
#368 = EDGE_CURVE ( 'NONE', #183, #202, #124, .T. ) ;
#369 = DIRECTION ( 'NONE',  ( 0.000000000000000000, 0.000000000000000000, -1.000000000000000000 ) ) ;
#370 = VERTEX_POINT ( 'NONE', #67 ) ;
#371 = COORDINATED_UNIVERSAL_TIME_OFFSET ( 1, 0, .AHEAD. ) ;
#372 = AXIS2_PLACEMENT_3D ( 'NONE', #111, #3, #206 ) ;
#373 = CARTESIAN_POINT ( 'NONE',  ( 0.000000000000000000, 0.000000000000000000, 0.000000000000000000 ) ) ;
#374 = PERSON_AND_ORGANIZATION ( #126, #198 ) ;
#375 = DIRECTION ( 'NONE',  ( 1.000000000000000000, 0.000000000000000000, -0.000000000000000000 ) ) ;
#376 = CARTESIAN_POINT ( 'NONE',  ( 0.000000000000000000, 0.000000000000000000, 5.000000000000000000 ) ) ;
#377 = AXIS2_PLACEMENT_3D ( 'NONE', #30, #267, #322 ) ;
#378 = CARTESIAN_POINT ( 'NONE',  ( 6.000000000000000888, 7.347880794884120722E-16, 5.000000000000000000 ) ) ;
#379 = DIRECTION ( 'NONE',  ( -1.000000000000000000, 0.000000000000000000, 0.000000000000000000 ) ) ;
#380 = ADVANCED_FACE ( 'NONE', ( #148 ), #79, .F. ) ;
#381 = DIRECTION ( 'NONE',  ( 0.000000000000000000, 0.000000000000000000, 1.000000000000000000 ) ) ;
ENDSEC;
END-ISO-10303-21;
