ISO-10303-21;
HEADER;
FILE_DESCRIPTION (( 'STEP AP203' ),
    '1' );
FILE_NAME ('75ed.STEP',
    '2022-07-08T14:24:39',
    ( '' ),
    ( '' ),
    'SwSTEP 2.0',
    'SolidWorks 2019',
    '' );
FILE_SCHEMA (( 'CONFIG_CONTROL_DESIGN' ));
ENDSEC;

DATA;
#1 = DIRECTION ( 'NONE',  ( 0.000000000000000000, 0.000000000000000000, 1.000000000000000000 ) ) ;
#2 = CIRCLE ( 'NONE', #254, 11.00000000000000000 ) ;
#3 = AXIS2_PLACEMENT_3D ( 'NONE', #275, #245, #68 ) ;
#4 = FACE_OUTER_BOUND ( 'NONE', #200, .T. ) ;
#5 = DIRECTION ( 'NONE',  ( 0.000000000000000000, 0.000000000000000000, 1.000000000000000000 ) ) ;
#6 = APPROVAL_DATE_TIME ( #218, #369 ) ;
#7 = DIRECTION ( 'NONE',  ( -0.000000000000000000, -0.000000000000000000, -1.000000000000000000 ) ) ;
#8 = CC_DESIGN_PERSON_AND_ORGANIZATION_ASSIGNMENT ( #221, #271, ( #87 ) ) ;
#9 = DIRECTION ( 'NONE',  ( 0.000000000000000000, 0.000000000000000000, 1.000000000000000000 ) ) ;
#10 = APPROVAL_PERSON_ORGANIZATION ( #283, #324, #257 ) ;
#11 = VERTEX_POINT ( 'NONE', #347 ) ;
#12 = ORIENTED_EDGE ( 'NONE', *, *, #198, .F. ) ;
#13 = DIRECTION ( 'NONE',  ( 1.000000000000000000, 0.000000000000000000, 0.000000000000000000 ) ) ;
#14 = APPROVAL ( #274, 'NEURÈENÝ' ) ;
#15 = ORIENTED_EDGE ( 'NONE', *, *, #135, .T. ) ;
#16 = AXIS2_PLACEMENT_3D ( 'NONE', #276, #63, #243 ) ;
#17 = PERSON_AND_ORGANIZATION ( #62, #144 ) ;
#18 = EDGE_LOOP ( 'NONE', ( #307, #175 ) ) ;
#19 = EDGE_LOOP ( 'NONE', ( #252, #249, #229, #179 ) ) ;
#20 = EDGE_CURVE ( 'NONE', #149, #290, #83, .T. ) ;
#21 = DIRECTION ( 'NONE',  ( -0.000000000000000000, -0.000000000000000000, -1.000000000000000000 ) ) ;
#22 = AXIS2_PLACEMENT_3D ( 'NONE', #70, #107, #222 ) ;
#23 = CARTESIAN_POINT ( 'NONE',  ( 0.000000000000000000, 0.000000000000000000, 7.699999999999998401 ) ) ;
#24 = CARTESIAN_POINT ( 'NONE',  ( 0.000000000000000000, 0.000000000000000000, 7.000000000000000000 ) ) ;
#25 = ORIENTED_EDGE ( 'NONE', *, *, #27, .F. ) ;
#26 = CARTESIAN_POINT ( 'NONE',  ( 0.000000000000000000, 0.000000000000000000, 82.00000000000000000 ) ) ;
#27 = EDGE_CURVE ( 'NONE', #138, #149, #231, .T. ) ;
#28 = CARTESIAN_POINT ( 'NONE',  ( 0.000000000000000000, 0.000000000000000000, 0.000000000000000000 ) ) ;
#29 = CARTESIAN_POINT ( 'NONE',  ( 0.000000000000000000, 0.000000000000000000, 82.00000000000000000 ) ) ;
#30 = LINE ( 'NONE', #355, #102 ) ;
#31 = CIRCLE ( 'NONE', #115, 7.000000000000000888 ) ;
#32 = DIRECTION ( 'NONE',  ( -1.000000000000000000, 0.000000000000000000, 0.000000000000000000 ) ) ;
#33 = EDGE_CURVE ( 'NONE', #42, #108, #240, .T. ) ;
#34 = COORDINATED_UNIVERSAL_TIME_OFFSET ( 1, 0, .AHEAD. ) ;
#35 = PLANE ( 'NONE',  #173 ) ;
#36 = AXIS2_PLACEMENT_3D ( 'NONE', #205, #262, #82 ) ;
#37 = COORDINATED_UNIVERSAL_TIME_OFFSET ( 1, 0, .AHEAD. ) ;
#38 = CIRCLE ( 'NONE', #100, 5.000000000000000000 ) ;
#39 = CARTESIAN_POINT ( 'NONE',  ( -7.000000000000000888, 0.000000000000000000, 82.00000000000000000 ) ) ;
#40 = AXIS2_PLACEMENT_3D ( 'NONE', #75, #191, #172 ) ;
#41 = ORIENTED_EDGE ( 'NONE', *, *, #228, .T. ) ;
#42 = VERTEX_POINT ( 'NONE', #318 ) ;
#43 = ADVANCED_FACE ( 'NONE', ( #316 ), #54, .F. ) ;
#44 =( NAMED_UNIT ( * ) PLANE_ANGLE_UNIT ( ) SI_UNIT ( $, .RADIAN. ) );
#45 = ORIENTED_EDGE ( 'NONE', *, *, #79, .T. ) ;
#46 = CLOSED_SHELL ( 'NONE', ( #43, #259, #147, #289, #67, #302, #312, #154, #317, #268, #241 ) ) ;
#47 = DIRECTION ( 'NONE',  ( 0.000000000000000000, 0.000000000000000000, -1.000000000000000000 ) ) ;
#48 = VERTEX_POINT ( 'NONE', #210 ) ;
#49 = AXIS2_PLACEMENT_3D ( 'NONE', #345, #89, #340 ) ;
#50 = ORIENTED_EDGE ( 'NONE', *, *, #185, .T. ) ;
#51 = CC_DESIGN_PERSON_AND_ORGANIZATION_ASSIGNMENT ( #128, #216, ( #87 ) ) ;
#52 = CYLINDRICAL_SURFACE ( 'NONE', #327, 7.000000000000000888 ) ;
#53 = DESIGN_CONTEXT ( 'detailed design', #74, 'design' ) ;
#54 = CYLINDRICAL_SURFACE ( 'NONE', #357, 5.000000000000000000 ) ;
#55 = DIRECTION ( 'NONE',  ( 0.000000000000000000, 0.000000000000000000, 1.000000000000000000 ) ) ;
#56 = CC_DESIGN_PERSON_AND_ORGANIZATION_ASSIGNMENT ( #199, #77, ( #143 ) ) ;
#57 = CARTESIAN_POINT ( 'NONE',  ( 0.000000000000000000, 0.000000000000000000, 82.00000000000000000 ) ) ;
#58 = CYLINDRICAL_SURFACE ( 'NONE', #92, 11.00000000000000000 ) ;
#59 = DIRECTION ( 'NONE',  ( 1.000000000000000000, 0.000000000000000000, 0.000000000000000000 ) ) ;
#60 = EDGE_CURVE ( 'NONE', #149, #138, #247, .T. ) ;
#61 = CARTESIAN_POINT ( 'NONE',  ( 7.000000000000000888, 8.572527594031474176E-16, 7.699999999999998401 ) ) ;
#62 = PERSON ( 'NEURÈENÝ', 'NEURÈENÝ', 'NEURÈENÝ', ('NEURÈENÝ'), ('NEURÈENÝ'), ('NEURÈENÝ') ) ;
#63 = DIRECTION ( 'NONE',  ( 0.000000000000000000, 0.000000000000000000, 1.000000000000000000 ) ) ;
#64 = DATE_AND_TIME ( #159, #272 ) ;
#65 = AXIS2_PLACEMENT_3D ( 'NONE', #103, #329, #127 ) ;
#66 = DATE_AND_TIME ( #101, #96 ) ;
#67 = ADVANCED_FACE ( 'NONE', ( #208 ), #58, .T. ) ;
#68 = DIRECTION ( 'NONE',  ( 1.000000000000000000, 0.000000000000000000, 0.000000000000000000 ) ) ;
#69 = COORDINATED_UNIVERSAL_TIME_OFFSET ( 1, 0, .AHEAD. ) ;
#70 = CARTESIAN_POINT ( 'NONE',  ( 0.000000000000000000, 0.000000000000000000, 82.00000000000000000 ) ) ;
#71 = EDGE_LOOP ( 'NONE', ( #197, #284, #192, #372 ) ) ;
#72 = COORDINATED_UNIVERSAL_TIME_OFFSET ( 1, 0, .AHEAD. ) ;
#73 = ORIENTED_EDGE ( 'NONE', *, *, #160, .F. ) ;
#74 = APPLICATION_CONTEXT ( 'configuration controlled 3d designs of mechanical parts and assemblies' ) ;
#75 = CARTESIAN_POINT ( 'NONE',  ( 0.000000000000000000, 0.000000000000000000, 7.000000000000000000 ) ) ;
#76 = EDGE_LOOP ( 'NONE', ( #141, #230 ) ) ;
#77 = PERSON_AND_ORGANIZATION_ROLE ( 'design_owner' ) ;
#78 = EDGE_LOOP ( 'NONE', ( #80, #41, #304, #233 ) ) ;
#79 = EDGE_CURVE ( 'NONE', #278, #224, #178, .T. ) ;
#80 = ORIENTED_EDGE ( 'NONE', *, *, #219, .F. ) ;
#81 = AXIS2_PLACEMENT_3D ( 'NONE', #217, #1, #59 ) ;
#82 = DIRECTION ( 'NONE',  ( 1.000000000000000000, 0.000000000000000000, 0.000000000000000000 ) ) ;
#83 = LINE ( 'NONE', #176, #151 ) ;
#84 = DIRECTION ( 'NONE',  ( 0.000000000000000000, 0.000000000000000000, 1.000000000000000000 ) ) ;
#85 = CIRCLE ( 'NONE', #343, 5.000000000000000000 ) ;
#86 = CIRCLE ( 'NONE', #373, 7.700000000000001066 ) ;
#87 = PRODUCT_DEFINITION_FORMATION_WITH_SPECIFIED_SOURCE ( 'LIBOVOLNÝ', '', #143, .NOT_KNOWN. ) ;
#88 = EDGE_CURVE ( 'NONE', #278, #48, #38, .T. ) ;
#89 = DIRECTION ( 'NONE',  ( -0.000000000000000000, -0.000000000000000000, -1.000000000000000000 ) ) ;
#90 = CC_DESIGN_DATE_AND_TIME_ASSIGNMENT ( #64, #157, ( #146 ) ) ;
#91 = DIRECTION ( 'NONE',  ( 1.000000000000000000, 0.000000000000000000, 0.000000000000000000 ) ) ;
#92 = AXIS2_PLACEMENT_3D ( 'NONE', #24, #21, #181 ) ;
#93 = VECTOR ( 'NONE', #7, 1000.000000000000000 ) ;
#94 = SECURITY_CLASSIFICATION_LEVEL ( 'unclassified' ) ;
#95 = FACE_OUTER_BOUND ( 'NONE', #78, .T. ) ;
#96 = LOCAL_TIME ( 16, 24, 39.00000000000000000, #34 ) ;
#97 = DIRECTION ( 'NONE',  ( -0.000000000000000000, -0.000000000000000000, -1.000000000000000000 ) ) ;
#98 = DATE_AND_TIME ( #244, #296 ) ;
#99 = DIRECTION ( 'NONE',  ( -0.000000000000000000, -0.000000000000000000, -1.000000000000000000 ) ) ;
#100 = AXIS2_PLACEMENT_3D ( 'NONE', #26, #152, #266 ) ;
#101 = CALENDAR_DATE ( 2022, 8, 7 ) ;
#102 = VECTOR ( 'NONE', #323, 1000.000000000000000 ) ;
#103 = CARTESIAN_POINT ( 'NONE',  ( 0.000000000000000000, 0.000000000000000000, 7.000000000000000000 ) ) ;
#104 = PLANE ( 'NONE',  #22 ) ;
#105 = EDGE_CURVE ( 'NONE', #11, #137, #124, .T. ) ;
#106 = ORIENTED_EDGE ( 'NONE', *, *, #346, .F. ) ;
#107 = DIRECTION ( 'NONE',  ( 0.000000000000000000, 0.000000000000000000, 1.000000000000000000 ) ) ;
#108 = VERTEX_POINT ( 'NONE', #119 ) ;
#109 = CC_DESIGN_APPROVAL ( #369, ( #146 ) ) ;
#110 = APPLICATION_PROTOCOL_DEFINITION ( 'international standard', 'config_control_design', 1994, #74 ) ;
#111 = VERTEX_POINT ( 'NONE', #145 ) ;
#112 = EDGE_CURVE ( 'NONE', #108, #42, #2, .T. ) ;
#113 = ORIENTED_EDGE ( 'NONE', *, *, #60, .T. ) ;
#114 = VECTOR ( 'NONE', #292, 1000.000000000000000 ) ;
#115 = AXIS2_PLACEMENT_3D ( 'NONE', #23, #5, #348 ) ;
#116 = VERTEX_POINT ( 'NONE', #238 ) ;
#117 = DIRECTION ( 'NONE',  ( -0.000000000000000000, -0.000000000000000000, -1.000000000000000000 ) ) ;
#118 = DIRECTION ( 'NONE',  ( -1.000000000000000000, 0.000000000000000000, 0.000000000000000000 ) ) ;
#119 = CARTESIAN_POINT ( 'NONE',  ( -11.00000000000000000, 0.000000000000000000, 0.000000000000000000 ) ) ;
#120 = DIRECTION ( 'NONE',  ( 0.000000000000000000, 0.000000000000000000, -1.000000000000000000 ) ) ;
#121 = CC_DESIGN_PERSON_AND_ORGANIZATION_ASSIGNMENT ( #17, #303, ( #374 ) ) ;
#122 = CARTESIAN_POINT ( 'NONE',  ( 0.000000000000000000, 0.000000000000000000, 0.000000000000000000 ) ) ;
#123 = FACE_BOUND ( 'NONE', #174, .T. ) ;
#124 = CIRCLE ( 'NONE', #211, 7.700000000000001066 ) ;
#125 = CIRCLE ( 'NONE', #183, 5.000000000000000000 ) ;
#126 = PERSON_AND_ORGANIZATION ( #62, #144 ) ;
#127 = DIRECTION ( 'NONE',  ( -1.000000000000000000, 0.000000000000000000, 0.000000000000000000 ) ) ;
#128 = PERSON_AND_ORGANIZATION ( #62, #144 ) ;
#129 = CARTESIAN_POINT ( 'NONE',  ( 5.000000000000000000, 6.123233995736766282E-16, 0.000000000000000000 ) ) ;
#130 = CC_DESIGN_PERSON_AND_ORGANIZATION_ASSIGNMENT ( #126, #325, ( #146 ) ) ;
#131 = CARTESIAN_POINT ( 'NONE',  ( 0.000000000000000000, 0.000000000000000000, 7.000000000000000000 ) ) ;
#132 = PERSON_AND_ORGANIZATION ( #62, #144 ) ;
#133 = AXIS2_PLACEMENT_3D ( 'NONE', #280, #331, #13 ) ;
#134 = LINE ( 'NONE', #39, #339 ) ;
#135 = EDGE_CURVE ( 'NONE', #224, #116, #85, .T. ) ;
#136 = APPLICATION_PROTOCOL_DEFINITION ( 'international standard', 'config_control_design', 1994, #363 ) ;
#137 = VERTEX_POINT ( 'NONE', #235 ) ;
#138 = VERTEX_POINT ( 'NONE', #381 ) ;
#139 = AXIS2_PLACEMENT_3D ( 'NONE', #148, #55, #342 ) ;
#140 = ORIENTED_EDGE ( 'NONE', *, *, #27, .T. ) ;
#141 = ORIENTED_EDGE ( 'NONE', *, *, #264, .F. ) ;
#142 = EDGE_LOOP ( 'NONE', ( #336, #201 ) ) ;
#143 = PRODUCT ( '75ed', '75ed', '', ( #367 ) ) ;
#144 = ORGANIZATION ( 'NEURÈENÝ', 'NEURÈENÝ', '' ) ;
#145 = CARTESIAN_POINT ( 'NONE',  ( -7.000000000000000888, 0.000000000000000000, 7.699999999999998401 ) ) ;
#146 = SECURITY_CLASSIFICATION ( '', '', #94 ) ;
#147 = ADVANCED_FACE ( 'NONE', ( #261 ), #237, .T. ) ;
#148 = CARTESIAN_POINT ( 'NONE',  ( 0.000000000000000000, 0.000000000000000000, 0.000000000000000000 ) ) ;
#149 = VERTEX_POINT ( 'NONE', #376 ) ;
#150 = EDGE_LOOP ( 'NONE', ( #338, #25, #265, #50 ) ) ;
#151 = VECTOR ( 'NONE', #177, 1000.000000000000000 ) ;
#152 = DIRECTION ( 'NONE',  ( 0.000000000000000000, 0.000000000000000000, 1.000000000000000000 ) ) ;
#153 = CIRCLE ( 'NONE', #378, 0.7000000000000000666 ) ;
#154 = ADVANCED_FACE ( 'NONE', ( #310 ), #52, .T. ) ;
#155 = DIRECTION ( 'NONE',  ( 1.000000000000000000, 0.000000000000000000, 0.000000000000000000 ) ) ;
#156 = DIRECTION ( 'NONE',  ( 1.000000000000000000, 0.000000000000000000, 0.000000000000000000 ) ) ;
#157 = DATE_TIME_ROLE ( 'classification_date' ) ;
#158 = DIRECTION ( 'NONE',  ( 0.000000000000000000, 0.000000000000000000, 1.000000000000000000 ) ) ;
#159 = CALENDAR_DATE ( 2022, 8, 7 ) ;
#160 = EDGE_CURVE ( 'NONE', #48, #116, #234, .T. ) ;
#161 = DIRECTION ( 'NONE',  ( 0.000000000000000000, 0.000000000000000000, 1.000000000000000000 ) ) ;
#162 = CARTESIAN_POINT ( 'NONE',  ( -11.00000000000000000, 0.000000000000000000, 7.000000000000000000 ) ) ;
#163 = COORDINATED_UNIVERSAL_TIME_OFFSET ( 1, 0, .AHEAD. ) ;
#164 = CARTESIAN_POINT ( 'NONE',  ( 0.000000000000000000, 0.000000000000000000, 0.000000000000000000 ) ) ;
#165 = APPROVAL_ROLE ( '' ) ;
#166 = VECTOR ( 'NONE', #288, 1000.000000000000000 ) ;
#167 = DIRECTION ( 'NONE',  ( -0.000000000000000000, -0.000000000000000000, -1.000000000000000000 ) ) ;
#168 = ORIENTED_EDGE ( 'NONE', *, *, #33, .F. ) ;
#169 = CC_DESIGN_APPROVAL ( #14, ( #87 ) ) ;
#170 = ORIENTED_EDGE ( 'NONE', *, *, #198, .T. ) ;
#171 = ORIENTED_EDGE ( 'NONE', *, *, #60, .F. ) ;
#172 = DIRECTION ( 'NONE',  ( 1.000000000000000000, 0.000000000000000000, 0.000000000000000000 ) ) ;
#173 = AXIS2_PLACEMENT_3D ( 'NONE', #164, #9, #239 ) ;
#174 = EDGE_LOOP ( 'NONE', ( #334, #370 ) ) ;
#175 = ORIENTED_EDGE ( 'NONE', *, *, #135, .F. ) ;
#176 = CARTESIAN_POINT ( 'NONE',  ( 7.000000000000000888, 8.572527594031474176E-16, 82.00000000000000000 ) ) ;
#177 = DIRECTION ( 'NONE',  ( -0.000000000000000000, -0.000000000000000000, -1.000000000000000000 ) ) ;
#178 = LINE ( 'NONE', #291, #114 ) ;
#179 = ORIENTED_EDGE ( 'NONE', *, *, #209, .T. ) ;
#180 = DIRECTION ( 'NONE',  ( 0.000000000000000000, 0.000000000000000000, 1.000000000000000000 ) ) ;
#181 = DIRECTION ( 'NONE',  ( -1.000000000000000000, 0.000000000000000000, 0.000000000000000000 ) ) ;
#182 = AXIS2_PLACEMENT_3D ( 'NONE', #270, #294, #156 ) ;
#183 = AXIS2_PLACEMENT_3D ( 'NONE', #184, #99, #352 ) ;
#184 = CARTESIAN_POINT ( 'NONE',  ( 0.000000000000000000, 0.000000000000000000, 0.000000000000000000 ) ) ;
#185 = EDGE_CURVE ( 'NONE', #111, #290, #31, .T. ) ;
#186 = FACE_OUTER_BOUND ( 'NONE', #142, .T. ) ;
#187 = LOCAL_TIME ( 16, 24, 39.00000000000000000, #69 ) ;
#188 = FACE_OUTER_BOUND ( 'NONE', #19, .T. ) ;
#189 = FACE_BOUND ( 'NONE', #18, .T. ) ;
#190 = CC_DESIGN_DATE_AND_TIME_ASSIGNMENT ( #66, #354, ( #374 ) ) ;
#191 = DIRECTION ( 'NONE',  ( 0.000000000000000000, 0.000000000000000000, 1.000000000000000000 ) ) ;
#192 = ORIENTED_EDGE ( 'NONE', *, *, #214, .T. ) ;
#193 = AXIS2_PLACEMENT_3D ( 'NONE', #223, #251, #47 ) ;
#194 = APPROVAL_DATE_TIME ( #306, #324 ) ;
#195 = VERTEX_POINT ( 'NONE', #162 ) ;
#196 =( LENGTH_UNIT ( ) NAMED_UNIT ( * ) SI_UNIT ( .MILLI., .METRE. ) );
#197 = ORIENTED_EDGE ( 'NONE', *, *, #228, .F. ) ;
#198 = EDGE_CURVE ( 'NONE', #290, #111, #250, .T. ) ;
#199 = PERSON_AND_ORGANIZATION ( #62, #144 ) ;
#200 = EDGE_LOOP ( 'NONE', ( #106, #12, #364, #366 ) ) ;
#201 = ORIENTED_EDGE ( 'NONE', *, *, #219, .T. ) ;
#202 = DIRECTION ( 'NONE',  ( -0.000000000000000000, -0.000000000000000000, -1.000000000000000000 ) ) ;
#203 = PRODUCT_RELATED_PRODUCT_CATEGORY ( 'detail', '', ( #143 ) ) ;
#204 = MANIFOLD_SOLID_BREP ( 'Odebrat vysunutím3', #46 ) ;
#205 = CARTESIAN_POINT ( 'NONE',  ( 0.000000000000000000, 0.000000000000000000, 82.00000000000000000 ) ) ;
#206 = PRODUCT_DEFINITION_SHAPE ( 'NONE', 'NONE',  #374 ) ;
#207 = DIRECTION ( 'NONE',  ( 1.000000000000000000, 0.000000000000000000, 0.000000000000000000 ) ) ;
#208 = FACE_OUTER_BOUND ( 'NONE', #71, .T. ) ;
#209 = EDGE_CURVE ( 'NONE', #116, #224, #125, .T. ) ;
#210 = CARTESIAN_POINT ( 'NONE',  ( -5.000000000000000000, 0.000000000000000000, 82.00000000000000000 ) ) ;
#211 = AXIS2_PLACEMENT_3D ( 'NONE', #380, #314, #263 ) ;
#212 = FACE_BOUND ( 'NONE', #76, .T. ) ;
#213 = TOROIDAL_SURFACE ( 'NONE', #16, 7.700000000000001066, 0.6999999999999999556 ) ;
#214 = EDGE_CURVE ( 'NONE', #195, #108, #293, .T. ) ;
#215 = CARTESIAN_POINT ( 'NONE',  ( -11.00000000000000000, 0.000000000000000000, 7.000000000000000000 ) ) ;
#216 = PERSON_AND_ORGANIZATION_ROLE ( 'design_supplier' ) ;
#217 = CARTESIAN_POINT ( 'NONE',  ( 0.000000000000000000, 0.000000000000000000, 7.699999999999998401 ) ) ;
#218 = DATE_AND_TIME ( #356, #187 ) ;
#219 = EDGE_CURVE ( 'NONE', #305, #195, #277, .T. ) ;
#220 = PLANE ( 'NONE',  #236 ) ;
#221 = PERSON_AND_ORGANIZATION ( #62, #144 ) ;
#222 = DIRECTION ( 'NONE',  ( 1.000000000000000000, 0.000000000000000000, -0.000000000000000000 ) ) ;
#223 = CARTESIAN_POINT ( 'NONE',  ( 7.700000000000001066, 0.000000000000000000, 7.699999999999998401 ) ) ;
#224 = VERTEX_POINT ( 'NONE', #129 ) ;
#225 = TOROIDAL_SURFACE ( 'NONE', #81, 7.700000000000001066, 0.6999999999999999556 ) ;
#226 = DIRECTION ( 'NONE',  ( 1.224646799147353207E-16, 1.000000000000000000, -0.000000000000000000 ) ) ;
#227 = EDGE_LOOP ( 'NONE', ( #140, #113 ) ) ;
#228 = EDGE_CURVE ( 'NONE', #305, #42, #30, .T. ) ;
#229 = ORIENTED_EDGE ( 'NONE', *, *, #160, .T. ) ;
#230 = ORIENTED_EDGE ( 'NONE', *, *, #88, .F. ) ;
#231 = CIRCLE ( 'NONE', #36, 7.000000000000000888 ) ;
#232 = LOCAL_TIME ( 16, 24, 39.00000000000000000, #72 ) ;
#233 = ORIENTED_EDGE ( 'NONE', *, *, #214, .F. ) ;
#234 = LINE ( 'NONE', #311, #166 ) ;
#235 = CARTESIAN_POINT ( 'NONE',  ( 7.700000000000001066, 0.000000000000000000, 6.999999999999999112 ) ) ;
#236 = AXIS2_PLACEMENT_3D ( 'NONE', #326, #161, #297 ) ;
#237 = CYLINDRICAL_SURFACE ( 'NONE', #49, 7.000000000000000888 ) ;
#238 = CARTESIAN_POINT ( 'NONE',  ( -5.000000000000000000, 0.000000000000000000, 0.000000000000000000 ) ) ;
#239 = DIRECTION ( 'NONE',  ( 1.000000000000000000, 0.000000000000000000, -0.000000000000000000 ) ) ;
#240 = CIRCLE ( 'NONE', #139, 11.00000000000000000 ) ;
#241 = ADVANCED_FACE ( 'NONE', ( #188 ), #358, .F. ) ;
#242 = CARTESIAN_POINT ( 'NONE',  ( 11.00000000000000000, 1.347111479062088405E-15, 7.000000000000000000 ) ) ;
#243 = DIRECTION ( 'NONE',  ( 1.000000000000000000, 0.000000000000000000, 0.000000000000000000 ) ) ;
#244 = CALENDAR_DATE ( 2022, 8, 7 ) ;
#245 = DIRECTION ( 'NONE',  ( 0.000000000000000000, 0.000000000000000000, 1.000000000000000000 ) ) ;
#246 = APPROVAL_ROLE ( '' ) ;
#247 = CIRCLE ( 'NONE', #371, 7.000000000000000888 ) ;
#248 = CYLINDRICAL_SURFACE ( 'NONE', #65, 11.00000000000000000 ) ;
#249 = ORIENTED_EDGE ( 'NONE', *, *, #88, .T. ) ;
#250 = CIRCLE ( 'NONE', #3, 7.000000000000000888 ) ;
#251 = DIRECTION ( 'NONE',  ( 0.000000000000000000, -1.000000000000000000, 0.000000000000000000 ) ) ;
#252 = ORIENTED_EDGE ( 'NONE', *, *, #79, .F. ) ;
#253 = EDGE_LOOP ( 'NONE', ( #260, #45, #15, #73 ) ) ;
#254 = AXIS2_PLACEMENT_3D ( 'NONE', #28, #84, #155 ) ;
#255 = AXIS2_PLACEMENT_3D ( 'NONE', #29, #273, #32 ) ;
#256 = ORIENTED_EDGE ( 'NONE', *, *, #353, .F. ) ;
#257 = APPROVAL_ROLE ( '' ) ;
#258 = ORIENTED_EDGE ( 'NONE', *, *, #346, .T. ) ;
#259 = ADVANCED_FACE ( 'NONE', ( #321 ), #225, .F. ) ;
#260 = ORIENTED_EDGE ( 'NONE', *, *, #264, .T. ) ;
#261 = FACE_OUTER_BOUND ( 'NONE', #281, .T. ) ;
#262 = DIRECTION ( 'NONE',  ( 0.000000000000000000, 0.000000000000000000, 1.000000000000000000 ) ) ;
#263 = DIRECTION ( 'NONE',  ( 1.000000000000000000, 0.000000000000000000, 0.000000000000000000 ) ) ;
#264 = EDGE_CURVE ( 'NONE', #48, #278, #313, .T. ) ;
#265 = ORIENTED_EDGE ( 'NONE', *, *, #360, .T. ) ;
#266 = DIRECTION ( 'NONE',  ( 1.000000000000000000, 0.000000000000000000, 0.000000000000000000 ) ) ;
#267 = ORIENTED_EDGE ( 'NONE', *, *, #112, .F. ) ;
#268 = ADVANCED_FACE ( 'NONE', ( #4 ), #213, .F. ) ;
#269 = DIRECTION ( 'NONE',  ( 1.000000000000000000, 0.000000000000000000, 0.000000000000000000 ) ) ;
#270 = CARTESIAN_POINT ( 'NONE',  ( 0.000000000000000000, 0.000000000000000000, 82.00000000000000000 ) ) ;
#271 = PERSON_AND_ORGANIZATION_ROLE ( 'creator' ) ;
#272 = LOCAL_TIME ( 16, 24, 39.00000000000000000, #163 ) ;
#273 = DIRECTION ( 'NONE',  ( 0.000000000000000000, 0.000000000000000000, -1.000000000000000000 ) ) ;
#274 = APPROVAL_STATUS ( 'not_yet_approved' ) ;
#275 = CARTESIAN_POINT ( 'NONE',  ( 0.000000000000000000, 0.000000000000000000, 7.699999999999998401 ) ) ;
#276 = CARTESIAN_POINT ( 'NONE',  ( 0.000000000000000000, 0.000000000000000000, 7.699999999999998401 ) ) ;
#277 = CIRCLE ( 'NONE', #349, 11.00000000000000000 ) ;
#278 = VERTEX_POINT ( 'NONE', #295 ) ;
#279 = ORIENTED_EDGE ( 'NONE', *, *, #20, .T. ) ;
#280 = CARTESIAN_POINT ( 'NONE',  ( 0.000000000000000000, 0.000000000000000000, 0.000000000000000000 ) ) ;
#281 = EDGE_LOOP ( 'NONE', ( #171, #279, #170, #333 ) ) ;
#282 = CC_DESIGN_APPROVAL ( #324, ( #374 ) ) ;
#283 = PERSON_AND_ORGANIZATION ( #62, #144 ) ;
#284 = ORIENTED_EDGE ( 'NONE', *, *, #337, .F. ) ;
#285 = EDGE_CURVE ( 'NONE', #137, #11, #86, .T. ) ;
#286 = EDGE_LOOP ( 'NONE', ( #267, #168 ) ) ;
#287 = DIRECTION ( 'NONE',  ( -1.000000000000000000, 0.000000000000000000, 0.000000000000000000 ) ) ;
#288 = DIRECTION ( 'NONE',  ( 0.000000000000000000, 0.000000000000000000, -1.000000000000000000 ) ) ;
#289 = ADVANCED_FACE ( 'NONE', ( #95 ), #248, .T. ) ;
#290 = VERTEX_POINT ( 'NONE', #61 ) ;
#291 = CARTESIAN_POINT ( 'NONE',  ( 5.000000000000000000, 6.123233995736766282E-16, 82.00000000000000000 ) ) ;
#292 = DIRECTION ( 'NONE',  ( 0.000000000000000000, 0.000000000000000000, -1.000000000000000000 ) ) ;
#293 = LINE ( 'NONE', #215, #93 ) ;
#294 = DIRECTION ( 'NONE',  ( 0.000000000000000000, 0.000000000000000000, 1.000000000000000000 ) ) ;
#295 = CARTESIAN_POINT ( 'NONE',  ( 5.000000000000000000, 6.123233995736766282E-16, 82.00000000000000000 ) ) ;
#296 = LOCAL_TIME ( 16, 24, 39.00000000000000000, #37 ) ;
#297 = DIRECTION ( 'NONE',  ( 1.000000000000000000, 0.000000000000000000, -0.000000000000000000 ) ) ;
#298 = FACE_OUTER_BOUND ( 'NONE', #286, .T. ) ;
#299 = CARTESIAN_POINT ( 'NONE',  ( -7.700000000000001066, 9.429780353434621002E-16, 7.699999999999998401 ) ) ;
#300 = ORIENTED_EDGE ( 'NONE', *, *, #185, .F. ) ;
#301 =( GEOMETRIC_REPRESENTATION_CONTEXT ( 3 ) GLOBAL_UNCERTAINTY_ASSIGNED_CONTEXT ( ( #351 ) ) GLOBAL_UNIT_ASSIGNED_CONTEXT ( ( #196, #44, #361 ) ) REPRESENTATION_CONTEXT ( 'NONE', 'WORKASPACE' ) );
#302 = ADVANCED_FACE ( 'NONE', ( #123, #186 ), #220, .T. ) ;
#303 = PERSON_AND_ORGANIZATION_ROLE ( 'creator' ) ;
#304 = ORIENTED_EDGE ( 'NONE', *, *, #33, .T. ) ;
#305 = VERTEX_POINT ( 'NONE', #242 ) ;
#306 = DATE_AND_TIME ( #335, #232 ) ;
#307 = ORIENTED_EDGE ( 'NONE', *, *, #209, .F. ) ;
#308 = CIRCLE ( 'NONE', #40, 11.00000000000000000 ) ;
#309 = EDGE_LOOP ( 'NONE', ( #300, #258, #368, #256 ) ) ;
#310 = FACE_OUTER_BOUND ( 'NONE', #150, .T. ) ;
#311 = CARTESIAN_POINT ( 'NONE',  ( -5.000000000000000000, 0.000000000000000000, 82.00000000000000000 ) ) ;
#312 = ADVANCED_FACE ( 'NONE', ( #189, #298 ), #35, .F. ) ;
#313 = CIRCLE ( 'NONE', #182, 5.000000000000000000 ) ;
#314 = DIRECTION ( 'NONE',  ( -0.000000000000000000, -0.000000000000000000, -1.000000000000000000 ) ) ;
#315 = CC_DESIGN_SECURITY_CLASSIFICATION ( #146, ( #87 ) ) ;
#316 = FACE_OUTER_BOUND ( 'NONE', #253, .T. ) ;
#317 = ADVANCED_FACE ( 'NONE', ( #212, #320 ), #104, .T. ) ;
#318 = CARTESIAN_POINT ( 'NONE',  ( 11.00000000000000000, 1.347111479062088405E-15, 0.000000000000000000 ) ) ;
#319 = CIRCLE ( 'NONE', #193, 0.7000000000000000666 ) ;
#320 = FACE_OUTER_BOUND ( 'NONE', #227, .T. ) ;
#321 = FACE_OUTER_BOUND ( 'NONE', #309, .T. ) ;
#322 = PERSON_AND_ORGANIZATION ( #62, #144 ) ;
#323 = DIRECTION ( 'NONE',  ( -0.000000000000000000, -0.000000000000000000, -1.000000000000000000 ) ) ;
#324 = APPROVAL ( #332, 'NEURÈENÝ' ) ;
#325 = PERSON_AND_ORGANIZATION_ROLE ( 'classification_officer' ) ;
#326 = CARTESIAN_POINT ( 'NONE',  ( 0.000000000000000000, 0.000000000000000000, 7.000000000000000000 ) ) ;
#327 = AXIS2_PLACEMENT_3D ( 'NONE', #375, #117, #118 ) ;
#328 = SHAPE_DEFINITION_REPRESENTATION ( #206, #362 ) ;
#329 = DIRECTION ( 'NONE',  ( -0.000000000000000000, -0.000000000000000000, -1.000000000000000000 ) ) ;
#330 = APPROVAL_STATUS ( 'not_yet_approved' ) ;
#331 = DIRECTION ( 'NONE',  ( 0.000000000000000000, 0.000000000000000000, 1.000000000000000000 ) ) ;
#332 = APPROVAL_STATUS ( 'not_yet_approved' ) ;
#333 = ORIENTED_EDGE ( 'NONE', *, *, #360, .F. ) ;
#334 = ORIENTED_EDGE ( 'NONE', *, *, #285, .T. ) ;
#335 = CALENDAR_DATE ( 2022, 8, 7 ) ;
#336 = ORIENTED_EDGE ( 'NONE', *, *, #337, .T. ) ;
#337 = EDGE_CURVE ( 'NONE', #195, #305, #308, .T. ) ;
#338 = ORIENTED_EDGE ( 'NONE', *, *, #20, .F. ) ;
#339 = VECTOR ( 'NONE', #167, 1000.000000000000000 ) ;
#340 = DIRECTION ( 'NONE',  ( -1.000000000000000000, 0.000000000000000000, 0.000000000000000000 ) ) ;
#341 = CARTESIAN_POINT ( 'NONE',  ( 0.000000000000000000, 0.000000000000000000, 82.00000000000000000 ) ) ;
#342 = DIRECTION ( 'NONE',  ( 1.000000000000000000, 0.000000000000000000, 0.000000000000000000 ) ) ;
#343 = AXIS2_PLACEMENT_3D ( 'NONE', #122, #202, #207 ) ;
#344 = APPROVAL_PERSON_ORGANIZATION ( #322, #369, #165 ) ;
#345 = CARTESIAN_POINT ( 'NONE',  ( 0.000000000000000000, 0.000000000000000000, 82.00000000000000000 ) ) ;
#346 = EDGE_CURVE ( 'NONE', #111, #11, #153, .T. ) ;
#347 = CARTESIAN_POINT ( 'NONE',  ( -7.700000000000001066, 9.429780353434621002E-16, 6.999999999999999112 ) ) ;
#348 = DIRECTION ( 'NONE',  ( 1.000000000000000000, 0.000000000000000000, 0.000000000000000000 ) ) ;
#349 = AXIS2_PLACEMENT_3D ( 'NONE', #350, #158, #91 ) ;
#350 = CARTESIAN_POINT ( 'NONE',  ( 0.000000000000000000, 0.000000000000000000, 7.000000000000000000 ) ) ;
#351 = UNCERTAINTY_MEASURE_WITH_UNIT (LENGTH_MEASURE( 1.000000000000000082E-05 ), #196, 'distance_accuracy_value', 'NONE');
#352 = DIRECTION ( 'NONE',  ( 1.000000000000000000, 0.000000000000000000, 0.000000000000000000 ) ) ;
#353 = EDGE_CURVE ( 'NONE', #290, #137, #319, .T. ) ;
#354 = DATE_TIME_ROLE ( 'creation_date' ) ;
#355 = CARTESIAN_POINT ( 'NONE',  ( 11.00000000000000000, 1.347111479062088405E-15, 7.000000000000000000 ) ) ;
#356 = CALENDAR_DATE ( 2022, 8, 7 ) ;
#357 = AXIS2_PLACEMENT_3D ( 'NONE', #341, #120, #287 ) ;
#358 = CYLINDRICAL_SURFACE ( 'NONE', #255, 5.000000000000000000 ) ;
#359 = APPROVAL_DATE_TIME ( #98, #14 ) ;
#360 = EDGE_CURVE ( 'NONE', #138, #111, #134, .T. ) ;
#361 =( NAMED_UNIT ( * ) SI_UNIT ( $, .STERADIAN. ) SOLID_ANGLE_UNIT ( ) );
#362 = ADVANCED_BREP_SHAPE_REPRESENTATION ( '75ed', ( #204, #133 ), #301 ) ;
#363 = APPLICATION_CONTEXT ( 'configuration controlled 3d designs of mechanical parts and assemblies' ) ;
#364 = ORIENTED_EDGE ( 'NONE', *, *, #353, .T. ) ;
#365 = DIRECTION ( 'NONE',  ( -1.000000000000000000, 1.224646799147351975E-16, 0.000000000000000000 ) ) ;
#366 = ORIENTED_EDGE ( 'NONE', *, *, #105, .F. ) ;
#367 = MECHANICAL_CONTEXT ( 'NONE', #363, 'mechanical' ) ;
#368 = ORIENTED_EDGE ( 'NONE', *, *, #285, .F. ) ;
#369 = APPROVAL ( #330, 'NEURÈENÝ' ) ;
#370 = ORIENTED_EDGE ( 'NONE', *, *, #105, .T. ) ;
#371 = AXIS2_PLACEMENT_3D ( 'NONE', #57, #180, #377 ) ;
#372 = ORIENTED_EDGE ( 'NONE', *, *, #112, .T. ) ;
#373 = AXIS2_PLACEMENT_3D ( 'NONE', #131, #97, #269 ) ;
#374 = PRODUCT_DEFINITION ( 'NEZNÁMÝ', '', #87, #53 ) ;
#375 = CARTESIAN_POINT ( 'NONE',  ( 0.000000000000000000, 0.000000000000000000, 82.00000000000000000 ) ) ;
#376 = CARTESIAN_POINT ( 'NONE',  ( 7.000000000000000888, 8.572527594031474176E-16, 82.00000000000000000 ) ) ;
#377 = DIRECTION ( 'NONE',  ( 1.000000000000000000, 0.000000000000000000, 0.000000000000000000 ) ) ;
#378 = AXIS2_PLACEMENT_3D ( 'NONE', #299, #226, #365 ) ;
#379 = APPROVAL_PERSON_ORGANIZATION ( #132, #14, #246 ) ;
#380 = CARTESIAN_POINT ( 'NONE',  ( 0.000000000000000000, 0.000000000000000000, 7.000000000000000000 ) ) ;
#381 = CARTESIAN_POINT ( 'NONE',  ( -7.000000000000000888, 0.000000000000000000, 82.00000000000000000 ) ) ;
ENDSEC;
END-ISO-10303-21;
