ISO-10303-21;
HEADER;
FILE_DESCRIPTION (( 'STEP AP203' ),
    '1' );
FILE_NAME ('8abf.STEP',
    '2022-07-08T14:42:04',
    ( '' ),
    ( '' ),
    'SwSTEP 2.0',
    'SolidWorks 2019',
    '' );
FILE_SCHEMA (( 'CONFIG_CONTROL_DESIGN' ));
ENDSEC;

DATA;
#1 = ORIENTED_EDGE ( 'NONE', *, *, #133, .T. ) ;
#2 = SECURITY_CLASSIFICATION_LEVEL ( 'unclassified' ) ;
#3 = AXIS2_PLACEMENT_3D ( 'NONE', #279, #44, #282 ) ;
#4 = DIRECTION ( 'NONE',  ( -0.000000000000000000, -0.000000000000000000, -1.000000000000000000 ) ) ;
#5 = DIRECTION ( 'NONE',  ( 0.000000000000000000, 0.000000000000000000, 1.000000000000000000 ) ) ;
#6 = EDGE_CURVE ( 'NONE', #247, #156, #368, .T. ) ;
#7 = LOCAL_TIME ( 16, 42, 4.000000000000000000, #264 ) ;
#8 = LINE ( 'NONE', #246, #269 ) ;
#9 = APPLICATION_CONTEXT ( 'configuration controlled 3d designs of mechanical parts and assemblies' ) ;
#10 = DIRECTION ( 'NONE',  ( -1.000000000000000000, 0.000000000000000000, 0.000000000000000000 ) ) ;
#11 = VERTEX_POINT ( 'NONE', #21 ) ;
#12 = CARTESIAN_POINT ( 'NONE',  ( 0.000000000000000000, 0.000000000000000000, 7.000000000000000000 ) ) ;
#13 = EDGE_LOOP ( 'NONE', ( #255, #105 ) ) ;
#14 = APPLICATION_PROTOCOL_DEFINITION ( 'international standard', 'config_control_design', 1994, #9 ) ;
#15 = LOCAL_TIME ( 16, 42, 4.000000000000000000, #268 ) ;
#16 = VERTEX_POINT ( 'NONE', #52 ) ;
#17 = DIRECTION ( 'NONE',  ( 0.000000000000000000, 0.000000000000000000, -1.000000000000000000 ) ) ;
#18 = VERTEX_POINT ( 'NONE', #197 ) ;
#19 = AXIS2_PLACEMENT_3D ( 'NONE', #145, #116, #351 ) ;
#20 = CIRCLE ( 'NONE', #291, 6.000000000000000888 ) ;
#21 = CARTESIAN_POINT ( 'NONE',  ( 3.250000000000000444, 3.980102097228898231E-16, 0.000000000000000000 ) ) ;
#22 = CARTESIAN_POINT ( 'NONE',  ( 0.000000000000000000, 0.000000000000000000, 7.500000000000007105 ) ) ;
#23 = VERTEX_POINT ( 'NONE', #341 ) ;
#24 = PLANE ( 'NONE',  #358 ) ;
#25 = CC_DESIGN_PERSON_AND_ORGANIZATION_ASSIGNMENT ( #317, #276, ( #85 ) ) ;
#26 = VECTOR ( 'NONE', #328, 1000.000000000000000 ) ;
#27 = APPROVAL_DATE_TIME ( #232, #104 ) ;
#28 = AXIS2_PLACEMENT_3D ( 'NONE', #39, #334, #63 ) ;
#29 = CARTESIAN_POINT ( 'NONE',  ( 0.000000000000000000, 0.000000000000000000, 282.0000000000000000 ) ) ;
#30 = APPLICATION_CONTEXT ( 'configuration controlled 3d designs of mechanical parts and assemblies' ) ;
#31 = LOCAL_TIME ( 16, 42, 4.000000000000000000, #177 ) ;
#32 = CARTESIAN_POINT ( 'NONE',  ( -6.000000000000000888, 0.000000000000000000, 282.0000000000000000 ) ) ;
#33 = CARTESIAN_POINT ( 'NONE',  ( 10.00000000000000000, 1.224646799147353256E-15, 0.000000000000000000 ) ) ;
#34 = CC_DESIGN_DATE_AND_TIME_ASSIGNMENT ( #320, #352, ( #144 ) ) ;
#35 = DIRECTION ( 'NONE',  ( -0.000000000000000000, -0.000000000000000000, -1.000000000000000000 ) ) ;
#36 = CARTESIAN_POINT ( 'NONE',  ( -3.250000000000000444, 0.000000000000000000, 282.0000000000000000 ) ) ;
#37 = DIRECTION ( 'NONE',  ( -0.000000000000000000, -0.000000000000000000, -1.000000000000000000 ) ) ;
#38 = ORIENTED_EDGE ( 'NONE', *, *, #350, .T. ) ;
#39 = CARTESIAN_POINT ( 'NONE',  ( 0.000000000000000000, 0.000000000000000000, 7.000000000000000000 ) ) ;
#40 = CIRCLE ( 'NONE', #329, 6.500000000000000888 ) ;
#41 = AXIS2_PLACEMENT_3D ( 'NONE', #162, #138, #286 ) ;
#42 = DIRECTION ( 'NONE',  ( 1.000000000000000000, 0.000000000000000000, 0.000000000000000000 ) ) ;
#43 = ORIENTED_EDGE ( 'NONE', *, *, #363, .T. ) ;
#44 = DIRECTION ( 'NONE',  ( -0.000000000000000000, -0.000000000000000000, -1.000000000000000000 ) ) ;
#45 = ORIENTED_EDGE ( 'NONE', *, *, #292, .T. ) ;
#46 = CC_DESIGN_PERSON_AND_ORGANIZATION_ASSIGNMENT ( #112, #169, ( #144 ) ) ;
#47 = CARTESIAN_POINT ( 'NONE',  ( 0.000000000000000000, 0.000000000000000000, 282.0000000000000000 ) ) ;
#48 = CIRCLE ( 'NONE', #165, 3.250000000000000444 ) ;
#49 = FACE_OUTER_BOUND ( 'NONE', #77, .T. ) ;
#50 = EDGE_LOOP ( 'NONE', ( #359, #336 ) ) ;
#51 = EDGE_CURVE ( 'NONE', #16, #312, #376, .T. ) ;
#52 = CARTESIAN_POINT ( 'NONE',  ( 3.250000000000000444, 3.980102097228898231E-16, 282.0000000000000000 ) ) ;
#53 = ORIENTED_EDGE ( 'NONE', *, *, #90, .F. ) ;
#54 = APPROVAL_PERSON_ORGANIZATION ( #266, #379, #83 ) ;
#55 = PERSON_AND_ORGANIZATION_ROLE ( 'creator' ) ;
#56 = APPROVAL ( #337, 'NEURÈENÝ' ) ;
#57 = CALENDAR_DATE ( 2022, 8, 7 ) ;
#58 = DIRECTION ( 'NONE',  ( 1.000000000000000000, 0.000000000000000000, 0.000000000000000000 ) ) ;
#59 = APPROVAL_PERSON_ORGANIZATION ( #252, #56, #311 ) ;
#60 = ADVANCED_FACE ( 'NONE', ( #206, #107 ), #139, .T. ) ;
#61 = DIRECTION ( 'NONE',  ( -1.000000000000000000, 0.000000000000000000, 0.000000000000000000 ) ) ;
#62 = FACE_OUTER_BOUND ( 'NONE', #330, .T. ) ;
#63 = DIRECTION ( 'NONE',  ( 1.000000000000000000, 0.000000000000000000, 0.000000000000000000 ) ) ;
#64 = MANIFOLD_SOLID_BREP ( 'Odebrat vysunutím3', #130 ) ;
#65 = AXIS2_PLACEMENT_3D ( 'NONE', #203, #319, #137 ) ;
#66 = CARTESIAN_POINT ( 'NONE',  ( 0.000000000000000000, 0.000000000000000000, 282.0000000000000000 ) ) ;
#67 = ORIENTED_EDGE ( 'NONE', *, *, #202, .F. ) ;
#68 = CARTESIAN_POINT ( 'NONE',  ( 10.00000000000000000, 1.224646799147353256E-15, 7.000000000000000000 ) ) ;
#69 = LINE ( 'NONE', #364, #285 ) ;
#70 = AXIS2_PLACEMENT_3D ( 'NONE', #81, #263, #110 ) ;
#71 = VERTEX_POINT ( 'NONE', #200 ) ;
#72 = AXIS2_PLACEMENT_3D ( 'NONE', #124, #273, #299 ) ;
#73 = ADVANCED_FACE ( 'NONE', ( #168, #195 ), #24, .F. ) ;
#74 = ADVANCED_FACE ( 'NONE', ( #114 ), #82, .T. ) ;
#75 = ORIENTED_EDGE ( 'NONE', *, *, #188, .T. ) ;
#76 = DIRECTION ( 'NONE',  ( 1.224646799147353207E-16, 1.000000000000000000, -0.000000000000000000 ) ) ;
#77 = EDGE_LOOP ( 'NONE', ( #372, #274, #250, #67 ) ) ;
#78 = DIRECTION ( 'NONE',  ( 0.000000000000000000, 0.000000000000000000, 1.000000000000000000 ) ) ;
#79 = ORIENTED_EDGE ( 'NONE', *, *, #257, .T. ) ;
#80 = CC_DESIGN_APPROVAL ( #56, ( #182 ) ) ;
#81 = CARTESIAN_POINT ( 'NONE',  ( 0.000000000000000000, 0.000000000000000000, 0.000000000000000000 ) ) ;
#82 = CYLINDRICAL_SURFACE ( 'NONE', #65, 10.00000000000000000 ) ;
#83 = APPROVAL_ROLE ( '' ) ;
#84 = CIRCLE ( 'NONE', #72, 0.5000000000000004441 ) ;
#85 = PRODUCT ( '8abf', '8abf', '', ( #307 ) ) ;
#86 = ADVANCED_FACE ( 'NONE', ( #261 ), #248, .F. ) ;
#87 = APPROVAL_ROLE ( '' ) ;
#88 = CALENDAR_DATE ( 2022, 8, 7 ) ;
#89 = VERTEX_POINT ( 'NONE', #32 ) ;
#90 = EDGE_CURVE ( 'NONE', #89, #111, #290, .T. ) ;
#91 = DIRECTION ( 'NONE',  ( 1.000000000000000000, 0.000000000000000000, 0.000000000000000000 ) ) ;
#92 = CC_DESIGN_APPROVAL ( #104, ( #179 ) ) ;
#93 = CARTESIAN_POINT ( 'NONE',  ( 10.00000000000000000, 1.224646799147353256E-15, 7.000000000000000000 ) ) ;
#94 = DIRECTION ( 'NONE',  ( 1.000000000000000000, 0.000000000000000000, 0.000000000000000000 ) ) ;
#95 = ORIENTED_EDGE ( 'NONE', *, *, #356, .T. ) ;
#96 = FACE_BOUND ( 'NONE', #13, .T. ) ;
#97 = CC_DESIGN_PERSON_AND_ORGANIZATION_ASSIGNMENT ( #140, #236, ( #179 ) ) ;
#98 = ORIENTED_EDGE ( 'NONE', *, *, #51, .T. ) ;
#99 = CC_DESIGN_APPROVAL ( #379, ( #144 ) ) ;
#100 = DIRECTION ( 'NONE',  ( 0.000000000000000000, 0.000000000000000000, 1.000000000000000000 ) ) ;
#101 = VERTEX_POINT ( 'NONE', #178 ) ;
#102 = CC_DESIGN_PERSON_AND_ORGANIZATION_ASSIGNMENT ( #121, #149, ( #182 ) ) ;
#103 = DIRECTION ( 'NONE',  ( 1.000000000000000000, 0.000000000000000000, 0.000000000000000000 ) ) ;
#104 = APPROVAL ( #115, 'NEURÈENÝ' ) ;
#105 = ORIENTED_EDGE ( 'NONE', *, *, #51, .F. ) ;
#106 = CARTESIAN_POINT ( 'NONE',  ( 0.000000000000000000, 0.000000000000000000, 0.000000000000000000 ) ) ;
#107 = FACE_OUTER_BOUND ( 'NONE', #128, .T. ) ;
#108 = APPLICATION_PROTOCOL_DEFINITION ( 'international standard', 'config_control_design', 1994, #30 ) ;
#109 = PERSON ( 'NEURÈENÝ', 'NEURÈENÝ', 'NEURÈENÝ', ('NEURÈENÝ'), ('NEURÈENÝ'), ('NEURÈENÝ') ) ;
#110 = DIRECTION ( 'NONE',  ( 1.000000000000000000, 0.000000000000000000, 0.000000000000000000 ) ) ;
#111 = VERTEX_POINT ( 'NONE', #296 ) ;
#112 = PERSON_AND_ORGANIZATION ( #109, #277 ) ;
#113 = AXIS2_PLACEMENT_3D ( 'NONE', #22, #166, #103 ) ;
#114 = FACE_OUTER_BOUND ( 'NONE', #306, .T. ) ;
#115 = APPROVAL_STATUS ( 'not_yet_approved' ) ;
#116 = DIRECTION ( 'NONE',  ( 0.000000000000000000, 0.000000000000000000, 1.000000000000000000 ) ) ;
#117 = CALENDAR_DATE ( 2022, 8, 7 ) ;
#118 = PRODUCT_RELATED_PRODUCT_CATEGORY ( 'detail', '', ( #85 ) ) ;
#119 = AXIS2_PLACEMENT_3D ( 'NONE', #354, #152, #153 ) ;
#120 = CIRCLE ( 'NONE', #377, 10.00000000000000000 ) ;
#121 = PERSON_AND_ORGANIZATION ( #109, #277 ) ;
#122 = ADVANCED_FACE ( 'NONE', ( #151 ), #212, .T. ) ;
#123 = DIRECTION ( 'NONE',  ( 0.000000000000000000, 0.000000000000000000, -1.000000000000000000 ) ) ;
#124 = CARTESIAN_POINT ( 'NONE',  ( 6.500000000000000888, 0.000000000000000000, 7.500000000000007105 ) ) ;
#125 = AXIS2_PLACEMENT_3D ( 'NONE', #66, #37, #61 ) ;
#126 = CARTESIAN_POINT ( 'NONE',  ( 0.000000000000000000, 0.000000000000000000, 7.000000000000000000 ) ) ;
#127 = CYLINDRICAL_SURFACE ( 'NONE', #150, 10.00000000000000000 ) ;
#128 = EDGE_LOOP ( 'NONE', ( #338, #315 ) ) ;
#129 = DIRECTION ( 'NONE',  ( -1.000000000000000000, 0.000000000000000000, 0.000000000000000000 ) ) ;
#130 = CLOSED_SHELL ( 'NONE', ( #241, #297, #225, #74, #242, #60, #73, #122, #280, #86, #210 ) ) ;
#131 = VECTOR ( 'NONE', #373, 1000.000000000000000 ) ;
#132 =( NAMED_UNIT ( * ) SI_UNIT ( $, .STERADIAN. ) SOLID_ANGLE_UNIT ( ) );
#133 = EDGE_CURVE ( 'NONE', #101, #18, #40, .T. ) ;
#134 = ORIENTED_EDGE ( 'NONE', *, *, #349, .T. ) ;
#135 = DIRECTION ( 'NONE',  ( 1.000000000000000000, 0.000000000000000000, 0.000000000000000000 ) ) ;
#136 = AXIS2_PLACEMENT_3D ( 'NONE', #217, #123, #208 ) ;
#137 = DIRECTION ( 'NONE',  ( -1.000000000000000000, 0.000000000000000000, 0.000000000000000000 ) ) ;
#138 = DIRECTION ( 'NONE',  ( 0.000000000000000000, 0.000000000000000000, 1.000000000000000000 ) ) ;
#139 = PLANE ( 'NONE',  #207 ) ;
#140 = PERSON_AND_ORGANIZATION ( #109, #277 ) ;
#141 = DIRECTION ( 'NONE',  ( 0.000000000000000000, 0.000000000000000000, 1.000000000000000000 ) ) ;
#142 = AXIS2_PLACEMENT_3D ( 'NONE', #47, #141, #345 ) ;
#143 = CALENDAR_DATE ( 2022, 8, 7 ) ;
#144 = SECURITY_CLASSIFICATION ( '', '', #2 ) ;
#145 = CARTESIAN_POINT ( 'NONE',  ( 0.000000000000000000, 0.000000000000000000, 7.500000000000007105 ) ) ;
#146 = EDGE_CURVE ( 'NONE', #312, #71, #298, .T. ) ;
#147 = ADVANCED_BREP_SHAPE_REPRESENTATION ( '8abf', ( #64, #198 ), #361 ) ;
#148 = PRODUCT_DEFINITION_SHAPE ( 'NONE', 'NONE',  #182 ) ;
#149 = PERSON_AND_ORGANIZATION_ROLE ( 'creator' ) ;
#150 = AXIS2_PLACEMENT_3D ( 'NONE', #187, #35, #129 ) ;
#151 = FACE_OUTER_BOUND ( 'NONE', #348, .T. ) ;
#152 = DIRECTION ( 'NONE',  ( -0.000000000000000000, -0.000000000000000000, -1.000000000000000000 ) ) ;
#153 = DIRECTION ( 'NONE',  ( -1.000000000000000000, 0.000000000000000000, 0.000000000000000000 ) ) ;
#154 = AXIS2_PLACEMENT_3D ( 'NONE', #327, #249, #10 ) ;
#155 = DIRECTION ( 'NONE',  ( 1.000000000000000000, 0.000000000000000000, 0.000000000000000000 ) ) ;
#156 = VERTEX_POINT ( 'NONE', #33 ) ;
#157 = PLANE ( 'NONE',  #223 ) ;
#158 = ORIENTED_EDGE ( 'NONE', *, *, #6, .T. ) ;
#159 = ORIENTED_EDGE ( 'NONE', *, *, #238, .T. ) ;
#160 = AXIS2_PLACEMENT_3D ( 'NONE', #106, #254, #42 ) ;
#161 = DIRECTION ( 'NONE',  ( 0.000000000000000000, 0.000000000000000000, 1.000000000000000000 ) ) ;
#162 = CARTESIAN_POINT ( 'NONE',  ( 0.000000000000000000, 0.000000000000000000, 7.500000000000007105 ) ) ;
#163 = ORIENTED_EDGE ( 'NONE', *, *, #302, .F. ) ;
#164 = CARTESIAN_POINT ( 'NONE',  ( 0.000000000000000000, 0.000000000000000000, 7.000000000000000000 ) ) ;
#165 = AXIS2_PLACEMENT_3D ( 'NONE', #331, #300, #91 ) ;
#166 = DIRECTION ( 'NONE',  ( 0.000000000000000000, 0.000000000000000000, 1.000000000000000000 ) ) ;
#167 = CC_DESIGN_PERSON_AND_ORGANIZATION_ASSIGNMENT ( #204, #55, ( #179 ) ) ;
#168 = FACE_BOUND ( 'NONE', #50, .T. ) ;
#169 = PERSON_AND_ORGANIZATION_ROLE ( 'classification_officer' ) ;
#170 = DIRECTION ( 'NONE',  ( 0.000000000000000000, 0.000000000000000000, 1.000000000000000000 ) ) ;
#171 = APPROVAL_DATE_TIME ( #323, #56 ) ;
#172 = EDGE_CURVE ( 'NONE', #284, #156, #360, .T. ) ;
#173 = ORIENTED_EDGE ( 'NONE', *, *, #350, .F. ) ;
#174 = EDGE_CURVE ( 'NONE', #312, #16, #48, .T. ) ;
#175 = CIRCLE ( 'NONE', #3, 3.250000000000000444 ) ;
#176 = APPROVAL_STATUS ( 'not_yet_approved' ) ;
#177 = COORDINATED_UNIVERSAL_TIME_OFFSET ( 1, 0, .AHEAD. ) ;
#178 = CARTESIAN_POINT ( 'NONE',  ( 6.500000000000000888, 0.000000000000000000, 7.000000000000002665 ) ) ;
#179 = PRODUCT_DEFINITION_FORMATION_WITH_SPECIFIED_SOURCE ( 'LIBOVOLNÝ', '', #85, .NOT_KNOWN. ) ;
#180 = DIRECTION ( 'NONE',  ( 1.000000000000000000, 0.000000000000000000, 0.000000000000000000 ) ) ;
#181 = FACE_OUTER_BOUND ( 'NONE', #278, .T. ) ;
#182 = PRODUCT_DEFINITION ( 'NEZNÁMÝ', '', #179, #251 ) ;
#183 = CYLINDRICAL_SURFACE ( 'NONE', #136, 3.250000000000000444 ) ;
#184 = CIRCLE ( 'NONE', #332, 0.5000000000000004441 ) ;
#185 = FACE_OUTER_BOUND ( 'NONE', #370, .T. ) ;
#186 = ORIENTED_EDGE ( 'NONE', *, *, #380, .F. ) ;
#187 = CARTESIAN_POINT ( 'NONE',  ( 0.000000000000000000, 0.000000000000000000, 7.000000000000000000 ) ) ;
#188 = EDGE_CURVE ( 'NONE', #18, #101, #322, .T. ) ;
#189 = ORIENTED_EDGE ( 'NONE', *, *, #172, .F. ) ;
#190 = VERTEX_POINT ( 'NONE', #245 ) ;
#191 = VECTOR ( 'NONE', #194, 1000.000000000000000 ) ;
#192 =( NAMED_UNIT ( * ) PLANE_ANGLE_UNIT ( ) SI_UNIT ( $, .RADIAN. ) );
#193 = ORIENTED_EDGE ( 'NONE', *, *, #90, .T. ) ;
#194 = DIRECTION ( 'NONE',  ( -0.000000000000000000, -0.000000000000000000, -1.000000000000000000 ) ) ;
#195 = FACE_OUTER_BOUND ( 'NONE', #367, .T. ) ;
#196 = DIRECTION ( 'NONE',  ( 1.000000000000000000, 0.000000000000000000, 0.000000000000000000 ) ) ;
#197 = CARTESIAN_POINT ( 'NONE',  ( -6.500000000000000888, 7.960204194457796463E-16, 7.000000000000002665 ) ) ;
#198 = AXIS2_PLACEMENT_3D ( 'NONE', #344, #260, #135 ) ;
#199 = CARTESIAN_POINT ( 'NONE',  ( -10.00000000000000000, 0.000000000000000000, 7.000000000000000000 ) ) ;
#200 = CARTESIAN_POINT ( 'NONE',  ( -3.250000000000000444, 0.000000000000000000, 0.000000000000000000 ) ) ;
#201 = EDGE_CURVE ( 'NONE', #284, #289, #259, .T. ) ;
#202 = EDGE_CURVE ( 'NONE', #190, #101, #84, .T. ) ;
#203 = CARTESIAN_POINT ( 'NONE',  ( 0.000000000000000000, 0.000000000000000000, 7.000000000000000000 ) ) ;
#204 = PERSON_AND_ORGANIZATION ( #109, #277 ) ;
#205 = DATE_TIME_ROLE ( 'creation_date' ) ;
#206 = FACE_BOUND ( 'NONE', #253, .T. ) ;
#207 = AXIS2_PLACEMENT_3D ( 'NONE', #164, #170, #318 ) ;
#208 = DIRECTION ( 'NONE',  ( -1.000000000000000000, 0.000000000000000000, 0.000000000000000000 ) ) ;
#209 = AXIS2_PLACEMENT_3D ( 'NONE', #270, #355, #94 ) ;
#210 = ADVANCED_FACE ( 'NONE', ( #62 ), #183, .F. ) ;
#211 = CYLINDRICAL_SURFACE ( 'NONE', #154, 3.250000000000000444 ) ;
#212 = CYLINDRICAL_SURFACE ( 'NONE', #119, 6.000000000000000888 ) ;
#213 = ORIENTED_EDGE ( 'NONE', *, *, #371, .T. ) ;
#214 = VECTOR ( 'NONE', #305, 1000.000000000000000 ) ;
#215 = FACE_OUTER_BOUND ( 'NONE', #281, .T. ) ;
#216 = ORIENTED_EDGE ( 'NONE', *, *, #202, .T. ) ;
#217 = CARTESIAN_POINT ( 'NONE',  ( 0.000000000000000000, 0.000000000000000000, 282.0000000000000000 ) ) ;
#218 = ORIENTED_EDGE ( 'NONE', *, *, #201, .F. ) ;
#219 = CARTESIAN_POINT ( 'NONE',  ( -6.500000000000000888, 7.960204194457796463E-16, 7.500000000000007105 ) ) ;
#220 = ORIENTED_EDGE ( 'NONE', *, *, #230, .F. ) ;
#221 =( LENGTH_UNIT ( ) NAMED_UNIT ( * ) SI_UNIT ( .MILLI., .METRE. ) );
#222 = ORIENTED_EDGE ( 'NONE', *, *, #174, .T. ) ;
#223 = AXIS2_PLACEMENT_3D ( 'NONE', #275, #100, #353 ) ;
#224 = CARTESIAN_POINT ( 'NONE',  ( -10.00000000000000000, 0.000000000000000000, 7.000000000000000000 ) ) ;
#225 = ADVANCED_FACE ( 'NONE', ( #215 ), #303, .T. ) ;
#226 = ORIENTED_EDGE ( 'NONE', *, *, #349, .F. ) ;
#227 = CARTESIAN_POINT ( 'NONE',  ( -6.000000000000000888, 0.000000000000000000, 282.0000000000000000 ) ) ;
#228 = ORIENTED_EDGE ( 'NONE', *, *, #309, .F. ) ;
#229 = ORIENTED_EDGE ( 'NONE', *, *, #230, .T. ) ;
#230 = EDGE_CURVE ( 'NONE', #111, #89, #308, .T. ) ;
#231 = AXIS2_PLACEMENT_3D ( 'NONE', #340, #161, #342 ) ;
#232 = DATE_AND_TIME ( #57, #15 ) ;
#233 = ORIENTED_EDGE ( 'NONE', *, *, #172, .T. ) ;
#234 = COORDINATED_UNIVERSAL_TIME_OFFSET ( 1, 0, .AHEAD. ) ;
#235 = ORIENTED_EDGE ( 'NONE', *, *, #380, .T. ) ;
#236 = PERSON_AND_ORGANIZATION_ROLE ( 'design_supplier' ) ;
#237 = CIRCLE ( 'NONE', #231, 10.00000000000000000 ) ;
#238 = EDGE_CURVE ( 'NONE', #190, #23, #20, .T. ) ;
#239 = PERSON_AND_ORGANIZATION ( #109, #277 ) ;
#240 = FACE_OUTER_BOUND ( 'NONE', #362, .T. ) ;
#241 = ADVANCED_FACE ( 'NONE', ( #185 ), #211, .F. ) ;
#242 = ADVANCED_FACE ( 'NONE', ( #181 ), #127, .T. ) ;
#243 = DIRECTION ( 'NONE',  ( 1.000000000000000000, 0.000000000000000000, 0.000000000000000000 ) ) ;
#244 = LOCAL_TIME ( 16, 42, 4.000000000000000000, #375 ) ;
#245 = CARTESIAN_POINT ( 'NONE',  ( 6.000000000000000888, 7.347880794884120722E-16, 7.500000000000007105 ) ) ;
#246 = CARTESIAN_POINT ( 'NONE',  ( 6.000000000000000888, 7.347880794884120722E-16, 282.0000000000000000 ) ) ;
#247 = VERTEX_POINT ( 'NONE', #272 ) ;
#248 = TOROIDAL_SURFACE ( 'NONE', #19, 6.500000000000000888, 0.5000000000000000000 ) ;
#249 = DIRECTION ( 'NONE',  ( 0.000000000000000000, 0.000000000000000000, -1.000000000000000000 ) ) ;
#250 = ORIENTED_EDGE ( 'NONE', *, *, #133, .F. ) ;
#251 = DESIGN_CONTEXT ( 'detailed design', #9, 'design' ) ;
#252 = PERSON_AND_ORGANIZATION ( #109, #277 ) ;
#253 = EDGE_LOOP ( 'NONE', ( #1, #75 ) ) ;
#254 = DIRECTION ( 'NONE',  ( -0.000000000000000000, -0.000000000000000000, -1.000000000000000000 ) ) ;
#255 = ORIENTED_EDGE ( 'NONE', *, *, #174, .F. ) ;
#256 = CARTESIAN_POINT ( 'NONE',  ( -3.250000000000000444, 0.000000000000000000, 282.0000000000000000 ) ) ;
#257 = EDGE_CURVE ( 'NONE', #111, #190, #8, .T. ) ;
#258 = ORIENTED_EDGE ( 'NONE', *, *, #188, .F. ) ;
#259 = CIRCLE ( 'NONE', #28, 10.00000000000000000 ) ;
#260 = DIRECTION ( 'NONE',  ( 0.000000000000000000, 0.000000000000000000, 1.000000000000000000 ) ) ;
#261 = FACE_OUTER_BOUND ( 'NONE', #304, .T. ) ;
#262 = LINE ( 'NONE', #199, #191 ) ;
#263 = DIRECTION ( 'NONE',  ( 0.000000000000000000, 0.000000000000000000, 1.000000000000000000 ) ) ;
#264 = COORDINATED_UNIVERSAL_TIME_OFFSET ( 1, 0, .AHEAD. ) ;
#265 = ORIENTED_EDGE ( 'NONE', *, *, #257, .F. ) ;
#266 = PERSON_AND_ORGANIZATION ( #109, #277 ) ;
#267 = DIRECTION ( 'NONE',  ( 0.000000000000000000, 0.000000000000000000, 1.000000000000000000 ) ) ;
#268 = COORDINATED_UNIVERSAL_TIME_OFFSET ( 1, 0, .AHEAD. ) ;
#269 = VECTOR ( 'NONE', #357, 1000.000000000000000 ) ;
#270 = CARTESIAN_POINT ( 'NONE',  ( 0.000000000000000000, 0.000000000000000000, 282.0000000000000000 ) ) ;
#271 = CARTESIAN_POINT ( 'NONE',  ( 0.000000000000000000, 0.000000000000000000, 7.500000000000007105 ) ) ;
#272 = CARTESIAN_POINT ( 'NONE',  ( -10.00000000000000000, 0.000000000000000000, 0.000000000000000000 ) ) ;
#273 = DIRECTION ( 'NONE',  ( 0.000000000000000000, -1.000000000000000000, 0.000000000000000000 ) ) ;
#274 = ORIENTED_EDGE ( 'NONE', *, *, #309, .T. ) ;
#275 = CARTESIAN_POINT ( 'NONE',  ( 0.000000000000000000, 0.000000000000000000, 282.0000000000000000 ) ) ;
#276 = PERSON_AND_ORGANIZATION_ROLE ( 'design_owner' ) ;
#277 = ORGANIZATION ( 'NEURÈENÝ', 'NEURÈENÝ', '' ) ;
#278 = EDGE_LOOP ( 'NONE', ( #189, #163, #235, #158 ) ) ;
#279 = CARTESIAN_POINT ( 'NONE',  ( 0.000000000000000000, 0.000000000000000000, 0.000000000000000000 ) ) ;
#280 = ADVANCED_FACE ( 'NONE', ( #96, #240 ), #157, .T. ) ;
#281 = EDGE_LOOP ( 'NONE', ( #220, #79, #159, #226 ) ) ;
#282 = DIRECTION ( 'NONE',  ( 1.000000000000000000, 0.000000000000000000, 0.000000000000000000 ) ) ;
#283 = AXIS2_PLACEMENT_3D ( 'NONE', #29, #324, #58 ) ;
#284 = VERTEX_POINT ( 'NONE', #68 ) ;
#285 = VECTOR ( 'NONE', #17, 1000.000000000000000 ) ;
#286 = DIRECTION ( 'NONE',  ( 1.000000000000000000, 0.000000000000000000, 0.000000000000000000 ) ) ;
#287 = ORIENTED_EDGE ( 'NONE', *, *, #146, .F. ) ;
#288 = DATE_AND_TIME ( #294, #7 ) ;
#289 = VERTEX_POINT ( 'NONE', #224 ) ;
#290 = CIRCLE ( 'NONE', #283, 6.000000000000000888 ) ;
#291 = AXIS2_PLACEMENT_3D ( 'NONE', #271, #5, #243 ) ;
#292 = EDGE_CURVE ( 'NONE', #11, #71, #316, .T. ) ;
#293 = SHAPE_DEFINITION_REPRESENTATION ( #148, #147 ) ;
#294 = CALENDAR_DATE ( 2022, 8, 7 ) ;
#295 = LOCAL_TIME ( 16, 42, 4.000000000000000000, #234 ) ;
#296 = CARTESIAN_POINT ( 'NONE',  ( 6.000000000000000888, 7.347880794884120722E-16, 282.0000000000000000 ) ) ;
#297 = ADVANCED_FACE ( 'NONE', ( #49 ), #369, .F. ) ;
#298 = LINE ( 'NONE', #36, #26 ) ;
#299 = DIRECTION ( 'NONE',  ( 0.000000000000000000, 0.000000000000000000, -1.000000000000000000 ) ) ;
#300 = DIRECTION ( 'NONE',  ( 0.000000000000000000, 0.000000000000000000, 1.000000000000000000 ) ) ;
#301 = AXIS2_PLACEMENT_3D ( 'NONE', #12, #326, #155 ) ;
#302 = EDGE_CURVE ( 'NONE', #289, #284, #237, .T. ) ;
#303 = CYLINDRICAL_SURFACE ( 'NONE', #125, 6.000000000000000888 ) ;
#304 = EDGE_LOOP ( 'NONE', ( #228, #313, #216, #258 ) ) ;
#305 = DIRECTION ( 'NONE',  ( -0.000000000000000000, -0.000000000000000000, -1.000000000000000000 ) ) ;
#306 = EDGE_LOOP ( 'NONE', ( #218, #233, #95, #186 ) ) ;
#307 = MECHANICAL_CONTEXT ( 'NONE', #30, 'mechanical' ) ;
#308 = CIRCLE ( 'NONE', #209, 6.000000000000000888 ) ;
#309 = EDGE_CURVE ( 'NONE', #23, #18, #184, .T. ) ;
#310 = CC_DESIGN_SECURITY_CLASSIFICATION ( #144, ( #179 ) ) ;
#311 = APPROVAL_ROLE ( '' ) ;
#312 = VERTEX_POINT ( 'NONE', #256 ) ;
#313 = ORIENTED_EDGE ( 'NONE', *, *, #238, .F. ) ;
#314 = CARTESIAN_POINT ( 'NONE',  ( 0.000000000000000000, 0.000000000000000000, 0.000000000000000000 ) ) ;
#315 = ORIENTED_EDGE ( 'NONE', *, *, #201, .T. ) ;
#316 = CIRCLE ( 'NONE', #160, 3.250000000000000444 ) ;
#317 = PERSON_AND_ORGANIZATION ( #109, #277 ) ;
#318 = DIRECTION ( 'NONE',  ( 1.000000000000000000, 0.000000000000000000, -0.000000000000000000 ) ) ;
#319 = DIRECTION ( 'NONE',  ( -0.000000000000000000, -0.000000000000000000, -1.000000000000000000 ) ) ;
#320 = DATE_AND_TIME ( #143, #244 ) ;
#321 = CC_DESIGN_DATE_AND_TIME_ASSIGNMENT ( #381, #205, ( #182 ) ) ;
#322 = CIRCLE ( 'NONE', #301, 6.500000000000000888 ) ;
#323 = DATE_AND_TIME ( #117, #31 ) ;
#324 = DIRECTION ( 'NONE',  ( 0.000000000000000000, 0.000000000000000000, 1.000000000000000000 ) ) ;
#325 = APPROVAL_PERSON_ORGANIZATION ( #239, #104, #87 ) ;
#326 = DIRECTION ( 'NONE',  ( -0.000000000000000000, -0.000000000000000000, -1.000000000000000000 ) ) ;
#327 = CARTESIAN_POINT ( 'NONE',  ( 0.000000000000000000, 0.000000000000000000, 282.0000000000000000 ) ) ;
#328 = DIRECTION ( 'NONE',  ( 0.000000000000000000, 0.000000000000000000, -1.000000000000000000 ) ) ;
#329 = AXIS2_PLACEMENT_3D ( 'NONE', #126, #4, #180 ) ;
#330 = EDGE_LOOP ( 'NONE', ( #173, #98, #333, #43 ) ) ;
#331 = CARTESIAN_POINT ( 'NONE',  ( 0.000000000000000000, 0.000000000000000000, 282.0000000000000000 ) ) ;
#332 = AXIS2_PLACEMENT_3D ( 'NONE', #219, #76, #335 ) ;
#333 = ORIENTED_EDGE ( 'NONE', *, *, #146, .T. ) ;
#334 = DIRECTION ( 'NONE',  ( 0.000000000000000000, 0.000000000000000000, 1.000000000000000000 ) ) ;
#335 = DIRECTION ( 'NONE',  ( -1.000000000000000000, 1.224646799147351482E-16, 0.000000000000000000 ) ) ;
#336 = ORIENTED_EDGE ( 'NONE', *, *, #292, .F. ) ;
#337 = APPROVAL_STATUS ( 'not_yet_approved' ) ;
#338 = ORIENTED_EDGE ( 'NONE', *, *, #302, .T. ) ;
#339 = UNCERTAINTY_MEASURE_WITH_UNIT (LENGTH_MEASURE( 1.000000000000000082E-05 ), #221, 'distance_accuracy_value', 'NONE');
#340 = CARTESIAN_POINT ( 'NONE',  ( 0.000000000000000000, 0.000000000000000000, 7.000000000000000000 ) ) ;
#341 = CARTESIAN_POINT ( 'NONE',  ( -6.000000000000000888, 0.000000000000000000, 7.500000000000007105 ) ) ;
#342 = DIRECTION ( 'NONE',  ( 1.000000000000000000, 0.000000000000000000, 0.000000000000000000 ) ) ;
#343 = ORIENTED_EDGE ( 'NONE', *, *, #6, .F. ) ;
#344 = CARTESIAN_POINT ( 'NONE',  ( 0.000000000000000000, 0.000000000000000000, 0.000000000000000000 ) ) ;
#345 = DIRECTION ( 'NONE',  ( 1.000000000000000000, 0.000000000000000000, 0.000000000000000000 ) ) ;
#346 = CIRCLE ( 'NONE', #41, 6.000000000000000888 ) ;
#347 = APPROVAL_DATE_TIME ( #288, #379 ) ;
#348 = EDGE_LOOP ( 'NONE', ( #265, #53, #134, #213 ) ) ;
#349 = EDGE_CURVE ( 'NONE', #89, #23, #366, .T. ) ;
#350 = EDGE_CURVE ( 'NONE', #16, #11, #69, .T. ) ;
#351 = DIRECTION ( 'NONE',  ( 1.000000000000000000, 0.000000000000000000, 0.000000000000000000 ) ) ;
#352 = DATE_TIME_ROLE ( 'classification_date' ) ;
#353 = DIRECTION ( 'NONE',  ( 1.000000000000000000, 0.000000000000000000, -0.000000000000000000 ) ) ;
#354 = CARTESIAN_POINT ( 'NONE',  ( 0.000000000000000000, 0.000000000000000000, 282.0000000000000000 ) ) ;
#355 = DIRECTION ( 'NONE',  ( 0.000000000000000000, 0.000000000000000000, 1.000000000000000000 ) ) ;
#356 = EDGE_CURVE ( 'NONE', #156, #247, #120, .T. ) ;
#357 = DIRECTION ( 'NONE',  ( -0.000000000000000000, -0.000000000000000000, -1.000000000000000000 ) ) ;
#358 = AXIS2_PLACEMENT_3D ( 'NONE', #374, #267, #378 ) ;
#359 = ORIENTED_EDGE ( 'NONE', *, *, #363, .F. ) ;
#360 = LINE ( 'NONE', #93, #214 ) ;
#361 =( GEOMETRIC_REPRESENTATION_CONTEXT ( 3 ) GLOBAL_UNCERTAINTY_ASSIGNED_CONTEXT ( ( #339 ) ) GLOBAL_UNIT_ASSIGNED_CONTEXT ( ( #221, #192, #132 ) ) REPRESENTATION_CONTEXT ( 'NONE', 'WORKASPACE' ) );
#362 = EDGE_LOOP ( 'NONE', ( #193, #229 ) ) ;
#363 = EDGE_CURVE ( 'NONE', #71, #11, #175, .T. ) ;
#364 = CARTESIAN_POINT ( 'NONE',  ( 3.250000000000000444, 3.980102097228898231E-16, 282.0000000000000000 ) ) ;
#365 = ORIENTED_EDGE ( 'NONE', *, *, #356, .F. ) ;
#366 = LINE ( 'NONE', #227, #131 ) ;
#367 = EDGE_LOOP ( 'NONE', ( #343, #365 ) ) ;
#368 = CIRCLE ( 'NONE', #70, 10.00000000000000000 ) ;
#369 = TOROIDAL_SURFACE ( 'NONE', #113, 6.500000000000000888, 0.5000000000000000000 ) ;
#370 = EDGE_LOOP ( 'NONE', ( #222, #38, #45, #287 ) ) ;
#371 = EDGE_CURVE ( 'NONE', #23, #190, #346, .T. ) ;
#372 = ORIENTED_EDGE ( 'NONE', *, *, #371, .F. ) ;
#373 = DIRECTION ( 'NONE',  ( -0.000000000000000000, -0.000000000000000000, -1.000000000000000000 ) ) ;
#374 = CARTESIAN_POINT ( 'NONE',  ( 0.000000000000000000, 0.000000000000000000, 0.000000000000000000 ) ) ;
#375 = COORDINATED_UNIVERSAL_TIME_OFFSET ( 1, 0, .AHEAD. ) ;
#376 = CIRCLE ( 'NONE', #142, 3.250000000000000444 ) ;
#377 = AXIS2_PLACEMENT_3D ( 'NONE', #314, #78, #196 ) ;
#378 = DIRECTION ( 'NONE',  ( 1.000000000000000000, 0.000000000000000000, -0.000000000000000000 ) ) ;
#379 = APPROVAL ( #176, 'NEURÈENÝ' ) ;
#380 = EDGE_CURVE ( 'NONE', #289, #247, #262, .T. ) ;
#381 = DATE_AND_TIME ( #88, #295 ) ;
ENDSEC;
END-ISO-10303-21;
