ISO-10303-21;
HEADER;
FILE_DESCRIPTION (( 'STEP AP203' ),
    '1' );
FILE_NAME ('875f.STEP',
    '2022-07-08T14:49:32',
    ( '' ),
    ( '' ),
    'SwSTEP 2.0',
    'SolidWorks 2019',
    '' );
FILE_SCHEMA (( 'CONFIG_CONTROL_DESIGN' ));
ENDSEC;

DATA;
#1 = DIRECTION ( 'NONE',  ( -0.000000000000000000, -0.000000000000000000, -1.000000000000000000 ) ) ;
#2 = ORIENTED_EDGE ( 'NONE', *, *, #130, .T. ) ;
#3 = CARTESIAN_POINT ( 'NONE',  ( 8.000000000000000000, 9.797174393178825657E-16, 0.000000000000000000 ) ) ;
#4 = AXIS2_PLACEMENT_3D ( 'NONE', #269, #183, #302 ) ;
#5 = CARTESIAN_POINT ( 'NONE',  ( -8.000000000000000000, 0.000000000000000000, 0.000000000000000000 ) ) ;
#6 = VERTEX_POINT ( 'NONE', #306 ) ;
#7 = ADVANCED_FACE ( 'NONE', ( #364 ), #69, .F. ) ;
#8 = CARTESIAN_POINT ( 'NONE',  ( 5.500000000000000000, 0.000000000000000000, 5.500000000000005329 ) ) ;
#9 = AXIS2_PLACEMENT_3D ( 'NONE', #59, #257, #298 ) ;
#10 = CARTESIAN_POINT ( 'NONE',  ( 0.000000000000000000, 0.000000000000000000, 0.000000000000000000 ) ) ;
#11 = DIRECTION ( 'NONE',  ( 0.000000000000000000, 0.000000000000000000, 1.000000000000000000 ) ) ;
#12 = CARTESIAN_POINT ( 'NONE',  ( 0.000000000000000000, 0.000000000000000000, 5.000000000000000000 ) ) ;
#13 = PLANE ( 'NONE',  #181 ) ;
#14 = CARTESIAN_POINT ( 'NONE',  ( 0.000000000000000000, 0.000000000000000000, 355.0000000000000000 ) ) ;
#15 = CIRCLE ( 'NONE', #276, 0.5000000000000004441 ) ;
#16 = DATE_AND_TIME ( #315, #314 ) ;
#17 = CARTESIAN_POINT ( 'NONE',  ( -3.100000000000000089, 0.000000000000000000, 0.000000000000000000 ) ) ;
#18 = CIRCLE ( 'NONE', #172, 3.100000000000000089 ) ;
#19 = EDGE_CURVE ( 'NONE', #352, #30, #155, .T. ) ;
#20 = PERSON_AND_ORGANIZATION ( #349, #259 ) ;
#21 = DIRECTION ( 'NONE',  ( 1.000000000000000000, 0.000000000000000000, -0.000000000000000000 ) ) ;
#22 = EDGE_LOOP ( 'NONE', ( #240, #356, #81, #235 ) ) ;
#23 = DIRECTION ( 'NONE',  ( -0.000000000000000000, -0.000000000000000000, -1.000000000000000000 ) ) ;
#24 = APPROVAL_ROLE ( '' ) ;
#25 = CIRCLE ( 'NONE', #9, 5.500000000000000000 ) ;
#26 = VERTEX_POINT ( 'NONE', #41 ) ;
#27 = PERSON_AND_ORGANIZATION ( #349, #259 ) ;
#28 = VECTOR ( 'NONE', #71, 1000.000000000000000 ) ;
#29 = LINE ( 'NONE', #210, #175 ) ;
#30 = VERTEX_POINT ( 'NONE', #188 ) ;
#31 = DIRECTION ( 'NONE',  ( 1.000000000000000000, 0.000000000000000000, 0.000000000000000000 ) ) ;
#32 = VERTEX_POINT ( 'NONE', #17 ) ;
#33 = PRODUCT_DEFINITION ( 'NEZNÁMÝ', '', #145, #55 ) ;
#34 = LOCAL_TIME ( 16, 49, 32.00000000000000000, #372 ) ;
#35 = CARTESIAN_POINT ( 'NONE',  ( -3.100000000000000089, 0.000000000000000000, 355.0000000000000000 ) ) ;
#36 = ORIENTED_EDGE ( 'NONE', *, *, #237, .F. ) ;
#37 = DIRECTION ( 'NONE',  ( 0.000000000000000000, 0.000000000000000000, 1.000000000000000000 ) ) ;
#38 = CYLINDRICAL_SURFACE ( 'NONE', #305, 8.000000000000000000 ) ;
#39 = ADVANCED_FACE ( 'NONE', ( #46 ), #38, .T. ) ;
#40 = FACE_OUTER_BOUND ( 'NONE', #359, .T. ) ;
#41 = CARTESIAN_POINT ( 'NONE',  ( -5.500000000000000000, 6.735557395310442023E-16, 5.000000000000002665 ) ) ;
#42 = AXIS2_PLACEMENT_3D ( 'NONE', #94, #37, #97 ) ;
#43 = CARTESIAN_POINT ( 'NONE',  ( 0.000000000000000000, 0.000000000000000000, 0.000000000000000000 ) ) ;
#44 = COORDINATED_UNIVERSAL_TIME_OFFSET ( 1, 0, .AHEAD. ) ;
#45 = EDGE_CURVE ( 'NONE', #291, #348, #15, .T. ) ;
#46 = FACE_OUTER_BOUND ( 'NONE', #54, .T. ) ;
#47 = PERSON_AND_ORGANIZATION ( #349, #259 ) ;
#48 = CARTESIAN_POINT ( 'NONE',  ( 0.000000000000000000, 0.000000000000000000, 355.0000000000000000 ) ) ;
#49 = CALENDAR_DATE ( 2022, 8, 7 ) ;
#50 = FACE_BOUND ( 'NONE', #203, .T. ) ;
#51 = ORIENTED_EDGE ( 'NONE', *, *, #361, .T. ) ;
#52 = ADVANCED_FACE ( 'NONE', ( #98 ), #215, .T. ) ;
#53 = PERSON_AND_ORGANIZATION ( #349, #259 ) ;
#54 = EDGE_LOOP ( 'NONE', ( #92, #265, #290, #246 ) ) ;
#55 = DESIGN_CONTEXT ( 'detailed design', #284, 'design' ) ;
#56 = AXIS2_PLACEMENT_3D ( 'NONE', #68, #11, #151 ) ;
#57 = DIRECTION ( 'NONE',  ( 0.000000000000000000, 0.000000000000000000, 1.000000000000000000 ) ) ;
#58 = PRODUCT_RELATED_PRODUCT_CATEGORY ( 'detail', '', ( #185 ) ) ;
#59 = CARTESIAN_POINT ( 'NONE',  ( 0.000000000000000000, 0.000000000000000000, 5.000000000000000000 ) ) ;
#60 = EDGE_LOOP ( 'NONE', ( #121, #165, #262, #281 ) ) ;
#61 = LOCAL_TIME ( 16, 49, 32.00000000000000000, #343 ) ;
#62 = CARTESIAN_POINT ( 'NONE',  ( -5.500000000000000000, 6.735557395310442023E-16, 5.500000000000005329 ) ) ;
#63 = ORIENTED_EDGE ( 'NONE', *, *, #158, .T. ) ;
#64 = ADVANCED_FACE ( 'NONE', ( #218 ), #340, .T. ) ;
#65 = CARTESIAN_POINT ( 'NONE',  ( 0.000000000000000000, 0.000000000000000000, 5.500000000000005329 ) ) ;
#66 = DIRECTION ( 'NONE',  ( 0.000000000000000000, 0.000000000000000000, 1.000000000000000000 ) ) ;
#67 = CARTESIAN_POINT ( 'NONE',  ( 5.000000000000000000, 6.123233995736766282E-16, 5.500000000000005329 ) ) ;
#68 = CARTESIAN_POINT ( 'NONE',  ( 0.000000000000000000, 0.000000000000000000, 5.500000000000005329 ) ) ;
#69 = CYLINDRICAL_SURFACE ( 'NONE', #134, 3.100000000000000089 ) ;
#70 = AXIS2_PLACEMENT_3D ( 'NONE', #299, #180, #206 ) ;
#71 = DIRECTION ( 'NONE',  ( 0.000000000000000000, 0.000000000000000000, -1.000000000000000000 ) ) ;
#72 = EDGE_CURVE ( 'NONE', #105, #6, #333, .T. ) ;
#73 =( LENGTH_UNIT ( ) NAMED_UNIT ( * ) SI_UNIT ( .MILLI., .METRE. ) );
#74 = DIRECTION ( 'NONE',  ( -1.000000000000000000, 0.000000000000000000, 0.000000000000000000 ) ) ;
#75 = CIRCLE ( 'NONE', #149, 5.000000000000000000 ) ;
#76 = APPROVAL_ROLE ( '' ) ;
#77 = APPROVAL_PERSON_ORGANIZATION ( #27, #258, #76 ) ;
#78 = ORIENTED_EDGE ( 'NONE', *, *, #136, .T. ) ;
#79 = DATE_AND_TIME ( #370, #150 ) ;
#80 = CARTESIAN_POINT ( 'NONE',  ( 0.000000000000000000, 0.000000000000000000, 0.000000000000000000 ) ) ;
#81 = ORIENTED_EDGE ( 'NONE', *, *, #173, .T. ) ;
#82 = DIRECTION ( 'NONE',  ( 1.000000000000000000, 0.000000000000000000, 0.000000000000000000 ) ) ;
#83 = ADVANCED_FACE ( 'NONE', ( #107 ), #351, .T. ) ;
#84 = EDGE_LOOP ( 'NONE', ( #123, #63, #267, #304 ) ) ;
#85 = DIRECTION ( 'NONE',  ( 1.000000000000000000, 0.000000000000000000, 0.000000000000000000 ) ) ;
#86 = AXIS2_PLACEMENT_3D ( 'NONE', #160, #336, #271 ) ;
#87 = CARTESIAN_POINT ( 'NONE',  ( 3.100000000000000089, 3.796405077356794918E-16, 355.0000000000000000 ) ) ;
#88 = EDGE_LOOP ( 'NONE', ( #36, #231, #243, #148 ) ) ;
#89 = CC_DESIGN_PERSON_AND_ORGANIZATION_ASSIGNMENT ( #47, #137, ( #33 ) ) ;
#90 = SECURITY_CLASSIFICATION ( '', '', #169 ) ;
#91 = DIRECTION ( 'NONE',  ( 0.000000000000000000, 0.000000000000000000, 1.000000000000000000 ) ) ;
#92 = ORIENTED_EDGE ( 'NONE', *, *, #171, .F. ) ;
#93 = DIRECTION ( 'NONE',  ( 0.000000000000000000, 0.000000000000000000, -1.000000000000000000 ) ) ;
#94 = CARTESIAN_POINT ( 'NONE',  ( 0.000000000000000000, 0.000000000000000000, 355.0000000000000000 ) ) ;
#95 = CLOSED_SHELL ( 'NONE', ( #114, #375, #64, #83, #39, #110, #327, #52, #280, #312, #7 ) ) ;
#96 = APPROVAL_PERSON_ORGANIZATION ( #222, #214, #24 ) ;
#97 = DIRECTION ( 'NONE',  ( 1.000000000000000000, 0.000000000000000000, 0.000000000000000000 ) ) ;
#98 = FACE_OUTER_BOUND ( 'NONE', #60, .T. ) ;
#99 = EDGE_CURVE ( 'NONE', #283, #32, #377, .T. ) ;
#100 = AXIS2_PLACEMENT_3D ( 'NONE', #43, #159, #365 ) ;
#101 = DIRECTION ( 'NONE',  ( 0.000000000000000000, 0.000000000000000000, 1.000000000000000000 ) ) ;
#102 = PERSON_AND_ORGANIZATION_ROLE ( 'creator' ) ;
#103 = EDGE_CURVE ( 'NONE', #291, #329, #75, .T. ) ;
#104 = CYLINDRICAL_SURFACE ( 'NONE', #140, 3.100000000000000089 ) ;
#105 = VERTEX_POINT ( 'NONE', #369 ) ;
#106 = VECTOR ( 'NONE', #1, 1000.000000000000000 ) ;
#107 = FACE_OUTER_BOUND ( 'NONE', #22, .T. ) ;
#108 = UNCERTAINTY_MEASURE_WITH_UNIT (LENGTH_MEASURE( 1.000000000000000082E-05 ), #73, 'distance_accuracy_value', 'NONE');
#109 = ORIENTED_EDGE ( 'NONE', *, *, #173, .F. ) ;
#110 = ADVANCED_FACE ( 'NONE', ( #50, #223 ), #344, .T. ) ;
#111 = AXIS2_PLACEMENT_3D ( 'NONE', #156, #131, #74 ) ;
#112 = AXIS2_PLACEMENT_3D ( 'NONE', #174, #294, #31 ) ;
#113 = PERSON_AND_ORGANIZATION ( #349, #259 ) ;
#114 = ADVANCED_FACE ( 'NONE', ( #371 ), #104, .F. ) ;
#115 = DIRECTION ( 'NONE',  ( 1.000000000000000000, 0.000000000000000000, 0.000000000000000000 ) ) ;
#116 = EDGE_LOOP ( 'NONE', ( #287, #313 ) ) ;
#117 = MANIFOLD_SOLID_BREP ( 'Odebrat vysunutím3', #95 ) ;
#118 = FACE_OUTER_BOUND ( 'NONE', #378, .T. ) ;
#119 = ORIENTED_EDGE ( 'NONE', *, *, #103, .F. ) ;
#120 = AXIS2_PLACEMENT_3D ( 'NONE', #238, #66, #208 ) ;
#121 = ORIENTED_EDGE ( 'NONE', *, *, #158, .F. ) ;
#122 = DIRECTION ( 'NONE',  ( 1.000000000000000000, 0.000000000000000000, 0.000000000000000000 ) ) ;
#123 = ORIENTED_EDGE ( 'NONE', *, *, #72, .F. ) ;
#124 = APPROVAL ( #252, 'NEURÈENÝ' ) ;
#125 = DIRECTION ( 'NONE',  ( 0.000000000000000000, 0.000000000000000000, -1.000000000000000000 ) ) ;
#126 = PRODUCT_DEFINITION_SHAPE ( 'NONE', 'NONE',  #33 ) ;
#127 = CC_DESIGN_APPROVAL ( #124, ( #90 ) ) ;
#128 = DIRECTION ( 'NONE',  ( 1.000000000000000000, 0.000000000000000000, -0.000000000000000000 ) ) ;
#129 = CARTESIAN_POINT ( 'NONE',  ( -8.000000000000000000, 0.000000000000000000, 5.000000000000000000 ) ) ;
#130 = EDGE_CURVE ( 'NONE', #329, #26, #225, .T. ) ;
#131 = DIRECTION ( 'NONE',  ( -0.000000000000000000, -0.000000000000000000, -1.000000000000000000 ) ) ;
#132 = DIRECTION ( 'NONE',  ( 0.000000000000000000, 0.000000000000000000, 1.000000000000000000 ) ) ;
#133 = CARTESIAN_POINT ( 'NONE',  ( 0.000000000000000000, 0.000000000000000000, 355.0000000000000000 ) ) ;
#134 = AXIS2_PLACEMENT_3D ( 'NONE', #14, #277, #182 ) ;
#135 = CIRCLE ( 'NONE', #4, 8.000000000000000000 ) ;
#136 = EDGE_CURVE ( 'NONE', #26, #348, #358, .T. ) ;
#137 = PERSON_AND_ORGANIZATION_ROLE ( 'creator' ) ;
#138 = APPROVAL_STATUS ( 'not_yet_approved' ) ;
#139 = CALENDAR_DATE ( 2022, 8, 7 ) ;
#140 = AXIS2_PLACEMENT_3D ( 'NONE', #194, #316, #167 ) ;
#141 = ORIENTED_EDGE ( 'NONE', *, *, #142, .F. ) ;
#142 = EDGE_CURVE ( 'NONE', #32, #283, #157, .T. ) ;
#143 = DIRECTION ( 'NONE',  ( 0.000000000000000000, 0.000000000000000000, 1.000000000000000000 ) ) ;
#144 = DIRECTION ( 'NONE',  ( 1.224646799147353207E-16, 1.000000000000000000, -0.000000000000000000 ) ) ;
#145 = PRODUCT_DEFINITION_FORMATION_WITH_SPECIFIED_SOURCE ( 'LIBOVOLNÝ', '', #185, .NOT_KNOWN. ) ;
#146 = VERTEX_POINT ( 'NONE', #5 ) ;
#147 = DIRECTION ( 'NONE',  ( -0.000000000000000000, -0.000000000000000000, -1.000000000000000000 ) ) ;
#148 = ORIENTED_EDGE ( 'NONE', *, *, #142, .T. ) ;
#149 = AXIS2_PLACEMENT_3D ( 'NONE', #202, #57, #288 ) ;
#150 = LOCAL_TIME ( 16, 49, 32.00000000000000000, #347 ) ;
#151 = DIRECTION ( 'NONE',  ( 1.000000000000000000, 0.000000000000000000, 0.000000000000000000 ) ) ;
#152 = VERTEX_POINT ( 'NONE', #357 ) ;
#153 = CC_DESIGN_PERSON_AND_ORGANIZATION_ASSIGNMENT ( #113, #278, ( #145 ) ) ;
#154 = DIRECTION ( 'NONE',  ( -0.000000000000000000, -0.000000000000000000, -1.000000000000000000 ) ) ;
#155 = CIRCLE ( 'NONE', #86, 8.000000000000000000 ) ;
#156 = CARTESIAN_POINT ( 'NONE',  ( 0.000000000000000000, 0.000000000000000000, 355.0000000000000000 ) ) ;
#157 = CIRCLE ( 'NONE', #368, 3.100000000000000089 ) ;
#158 = EDGE_CURVE ( 'NONE', #105, #291, #29, .T. ) ;
#159 = DIRECTION ( 'NONE',  ( 0.000000000000000000, 0.000000000000000000, 1.000000000000000000 ) ) ;
#160 = CARTESIAN_POINT ( 'NONE',  ( 0.000000000000000000, 0.000000000000000000, 5.000000000000000000 ) ) ;
#161 =( NAMED_UNIT ( * ) SI_UNIT ( $, .STERADIAN. ) SOLID_ANGLE_UNIT ( ) );
#162 = APPROVAL_STATUS ( 'not_yet_approved' ) ;
#163 = PERSON_AND_ORGANIZATION ( #349, #259 ) ;
#164 = CARTESIAN_POINT ( 'NONE',  ( 0.000000000000000000, 0.000000000000000000, 5.000000000000000000 ) ) ;
#165 = ORIENTED_EDGE ( 'NONE', *, *, #198, .F. ) ;
#166 = DATE_TIME_ROLE ( 'classification_date' ) ;
#167 = DIRECTION ( 'NONE',  ( -1.000000000000000000, 0.000000000000000000, 0.000000000000000000 ) ) ;
#168 = ORIENTED_EDGE ( 'NONE', *, *, #136, .F. ) ;
#169 = SECURITY_CLASSIFICATION_LEVEL ( 'unclassified' ) ;
#170 = APPROVAL_DATE_TIME ( #79, #258 ) ;
#171 = EDGE_CURVE ( 'NONE', #30, #256, #296, .T. ) ;
#172 = AXIS2_PLACEMENT_3D ( 'NONE', #248, #132, #275 ) ;
#173 = EDGE_CURVE ( 'NONE', #256, #146, #285, .T. ) ;
#174 = CARTESIAN_POINT ( 'NONE',  ( 0.000000000000000000, 0.000000000000000000, 5.000000000000000000 ) ) ;
#175 = VECTOR ( 'NONE', #380, 1000.000000000000000 ) ;
#176 = ORIENTED_EDGE ( 'NONE', *, *, #179, .T. ) ;
#177 = DIRECTION ( 'NONE',  ( -0.000000000000000000, -0.000000000000000000, -1.000000000000000000 ) ) ;
#178 = ORIENTED_EDGE ( 'NONE', *, *, #268, .F. ) ;
#179 = EDGE_CURVE ( 'NONE', #348, #26, #25, .T. ) ;
#180 = DIRECTION ( 'NONE',  ( 0.000000000000000000, 0.000000000000000000, 1.000000000000000000 ) ) ;
#181 = AXIS2_PLACEMENT_3D ( 'NONE', #10, #342, #128 ) ;
#182 = DIRECTION ( 'NONE',  ( -1.000000000000000000, 0.000000000000000000, 0.000000000000000000 ) ) ;
#183 = DIRECTION ( 'NONE',  ( 0.000000000000000000, 0.000000000000000000, 1.000000000000000000 ) ) ;
#184 = DIRECTION ( 'NONE',  ( -0.000000000000000000, -0.000000000000000000, -1.000000000000000000 ) ) ;
#185 = PRODUCT ( '875f', '875f', '', ( #339 ) ) ;
#186 = AXIS2_PLACEMENT_3D ( 'NONE', #263, #91, #115 ) ;
#187 =( NAMED_UNIT ( * ) PLANE_ANGLE_UNIT ( ) SI_UNIT ( $, .RADIAN. ) );
#188 = CARTESIAN_POINT ( 'NONE',  ( 8.000000000000000000, 9.797174393178825657E-16, 5.000000000000000000 ) ) ;
#189 = DATE_AND_TIME ( #250, #61 ) ;
#190 = CC_DESIGN_DATE_AND_TIME_ASSIGNMENT ( #311, #166, ( #90 ) ) ;
#191 = AXIS2_PLACEMENT_3D ( 'NONE', #133, #220, #199 ) ;
#192 = ORIENTED_EDGE ( 'NONE', *, *, #99, .F. ) ;
#193 = PERSON_AND_ORGANIZATION ( #349, #259 ) ;
#194 = CARTESIAN_POINT ( 'NONE',  ( 0.000000000000000000, 0.000000000000000000, 355.0000000000000000 ) ) ;
#195 = APPLICATION_CONTEXT ( 'configuration controlled 3d designs of mechanical parts and assemblies' ) ;
#196 = PERSON_AND_ORGANIZATION_ROLE ( 'design_owner' ) ;
#197 = ORIENTED_EDGE ( 'NONE', *, *, #237, .T. ) ;
#198 = EDGE_CURVE ( 'NONE', #6, #105, #335, .T. ) ;
#199 = DIRECTION ( 'NONE',  ( -1.000000000000000000, 0.000000000000000000, 0.000000000000000000 ) ) ;
#200 = AXIS2_PLACEMENT_3D ( 'NONE', #164, #279, #21 ) ;
#201 = APPROVAL_PERSON_ORGANIZATION ( #163, #124, #282 ) ;
#202 = CARTESIAN_POINT ( 'NONE',  ( 0.000000000000000000, 0.000000000000000000, 5.500000000000005329 ) ) ;
#203 = EDGE_LOOP ( 'NONE', ( #176, #78 ) ) ;
#204 = CARTESIAN_POINT ( 'NONE',  ( 8.000000000000000000, 9.797174393178825657E-16, 5.000000000000000000 ) ) ;
#205 = CARTESIAN_POINT ( 'NONE',  ( 0.000000000000000000, 0.000000000000000000, 0.000000000000000000 ) ) ;
#206 = DIRECTION ( 'NONE',  ( 1.000000000000000000, 0.000000000000000000, 0.000000000000000000 ) ) ;
#207 = CIRCLE ( 'NONE', #379, 5.000000000000000000 ) ;
#208 = DIRECTION ( 'NONE',  ( 1.000000000000000000, 0.000000000000000000, 0.000000000000000000 ) ) ;
#209 = ORIENTED_EDGE ( 'NONE', *, *, #72, .T. ) ;
#210 = CARTESIAN_POINT ( 'NONE',  ( 5.000000000000000000, 6.123233995736766282E-16, 355.0000000000000000 ) ) ;
#211 = AXIS2_PLACEMENT_3D ( 'NONE', #227, #23, #229 ) ;
#212 = CIRCLE ( 'NONE', #42, 3.100000000000000089 ) ;
#213 = CARTESIAN_POINT ( 'NONE',  ( -5.000000000000000000, 0.000000000000000000, 5.500000000000005329 ) ) ;
#214 = APPROVAL ( #162, 'NEURÈENÝ' ) ;
#215 = CYLINDRICAL_SURFACE ( 'NONE', #111, 5.000000000000000000 ) ;
#216 = APPLICATION_PROTOCOL_DEFINITION ( 'international standard', 'config_control_design', 1994, #195 ) ;
#217 = AXIS2_PLACEMENT_3D ( 'NONE', #48, #373, #255 ) ;
#218 = FACE_OUTER_BOUND ( 'NONE', #84, .T. ) ;
#219 = FACE_OUTER_BOUND ( 'NONE', #346, .T. ) ;
#220 = DIRECTION ( 'NONE',  ( -0.000000000000000000, -0.000000000000000000, -1.000000000000000000 ) ) ;
#221 = CC_DESIGN_PERSON_AND_ORGANIZATION_ASSIGNMENT ( #20, #196, ( #185 ) ) ;
#222 = PERSON_AND_ORGANIZATION ( #349, #259 ) ;
#223 = FACE_OUTER_BOUND ( 'NONE', #224, .T. ) ;
#224 = EDGE_LOOP ( 'NONE', ( #381, #295 ) ) ;
#225 = CIRCLE ( 'NONE', #328, 0.5000000000000004441 ) ;
#226 = APPROVAL_DATE_TIME ( #189, #214 ) ;
#227 = CARTESIAN_POINT ( 'NONE',  ( 0.000000000000000000, 0.000000000000000000, 5.000000000000000000 ) ) ;
#228 = CC_DESIGN_PERSON_AND_ORGANIZATION_ASSIGNMENT ( #193, #233, ( #90 ) ) ;
#229 = DIRECTION ( 'NONE',  ( -1.000000000000000000, 0.000000000000000000, 0.000000000000000000 ) ) ;
#230 = DIRECTION ( 'NONE',  ( 0.000000000000000000, 0.000000000000000000, 1.000000000000000000 ) ) ;
#231 = ORIENTED_EDGE ( 'NONE', *, *, #308, .T. ) ;
#232 = CARTESIAN_POINT ( 'NONE',  ( 0.000000000000000000, 0.000000000000000000, 355.0000000000000000 ) ) ;
#233 = PERSON_AND_ORGANIZATION_ROLE ( 'classification_officer' ) ;
#234 = CARTESIAN_POINT ( 'NONE',  ( -5.000000000000000000, 0.000000000000000000, 355.0000000000000000 ) ) ;
#235 = ORIENTED_EDGE ( 'NONE', *, *, #354, .F. ) ;
#236 = CIRCLE ( 'NONE', #70, 8.000000000000000000 ) ;
#237 = EDGE_CURVE ( 'NONE', #152, #283, #261, .T. ) ;
#238 = CARTESIAN_POINT ( 'NONE',  ( 0.000000000000000000, 0.000000000000000000, 355.0000000000000000 ) ) ;
#239 = CARTESIAN_POINT ( 'NONE',  ( 0.000000000000000000, 0.000000000000000000, 5.500000000000005329 ) ) ;
#240 = ORIENTED_EDGE ( 'NONE', *, *, #334, .F. ) ;
#241 = EDGE_CURVE ( 'NONE', #6, #329, #332, .T. ) ;
#242 = AXIS2_PLACEMENT_3D ( 'NONE', #80, #320, #82 ) ;
#243 = ORIENTED_EDGE ( 'NONE', *, *, #289, .T. ) ;
#244 = TOROIDAL_SURFACE ( 'NONE', #300, 5.500000000000000000, 0.5000000000000000000 ) ;
#245 = CARTESIAN_POINT ( 'NONE',  ( -3.100000000000000089, 0.000000000000000000, 355.0000000000000000 ) ) ;
#246 = ORIENTED_EDGE ( 'NONE', *, *, #253, .T. ) ;
#247 = DIRECTION ( 'NONE',  ( 0.000000000000000000, -1.000000000000000000, 0.000000000000000000 ) ) ;
#248 = CARTESIAN_POINT ( 'NONE',  ( 0.000000000000000000, 0.000000000000000000, 355.0000000000000000 ) ) ;
#249 = CC_DESIGN_PERSON_AND_ORGANIZATION_ASSIGNMENT ( #53, #102, ( #145 ) ) ;
#250 = CALENDAR_DATE ( 2022, 8, 7 ) ;
#251 = DATE_TIME_ROLE ( 'creation_date' ) ;
#252 = APPROVAL_STATUS ( 'not_yet_approved' ) ;
#253 = EDGE_CURVE ( 'NONE', #146, #256, #236, .T. ) ;
#254 = DATE_AND_TIME ( #139, #34 ) ;
#255 = DIRECTION ( 'NONE',  ( 1.000000000000000000, 0.000000000000000000, 0.000000000000000000 ) ) ;
#256 = VERTEX_POINT ( 'NONE', #3 ) ;
#257 = DIRECTION ( 'NONE',  ( -0.000000000000000000, -0.000000000000000000, -1.000000000000000000 ) ) ;
#258 = APPROVAL ( #138, 'NEURÈENÝ' ) ;
#259 = ORGANIZATION ( 'NEURÈENÝ', 'NEURÈENÝ', '' ) ;
#260 = DIRECTION ( 'NONE',  ( 1.000000000000000000, 0.000000000000000000, 0.000000000000000000 ) ) ;
#261 = LINE ( 'NONE', #87, #341 ) ;
#262 = ORIENTED_EDGE ( 'NONE', *, *, #241, .T. ) ;
#263 = CARTESIAN_POINT ( 'NONE',  ( 0.000000000000000000, 0.000000000000000000, 0.000000000000000000 ) ) ;
#264 = VECTOR ( 'NONE', #184, 1000.000000000000000 ) ;
#265 = ORIENTED_EDGE ( 'NONE', *, *, #19, .F. ) ;
#266 = CARTESIAN_POINT ( 'NONE',  ( 5.500000000000000000, 0.000000000000000000, 5.000000000000002665 ) ) ;
#267 = ORIENTED_EDGE ( 'NONE', *, *, #103, .T. ) ;
#268 = EDGE_CURVE ( 'NONE', #329, #291, #207, .T. ) ;
#269 = CARTESIAN_POINT ( 'NONE',  ( 0.000000000000000000, 0.000000000000000000, 5.000000000000000000 ) ) ;
#270 = EDGE_LOOP ( 'NONE', ( #323, #109 ) ) ;
#271 = DIRECTION ( 'NONE',  ( 1.000000000000000000, 0.000000000000000000, 0.000000000000000000 ) ) ;
#272 = CC_DESIGN_APPROVAL ( #258, ( #145 ) ) ;
#273 = FACE_BOUND ( 'NONE', #301, .T. ) ;
#274 = ORIENTED_EDGE ( 'NONE', *, *, #99, .T. ) ;
#275 = DIRECTION ( 'NONE',  ( 1.000000000000000000, 0.000000000000000000, 0.000000000000000000 ) ) ;
#276 = AXIS2_PLACEMENT_3D ( 'NONE', #8, #247, #125 ) ;
#277 = DIRECTION ( 'NONE',  ( 0.000000000000000000, 0.000000000000000000, -1.000000000000000000 ) ) ;
#278 = PERSON_AND_ORGANIZATION_ROLE ( 'design_supplier' ) ;
#279 = DIRECTION ( 'NONE',  ( 0.000000000000000000, 0.000000000000000000, 1.000000000000000000 ) ) ;
#280 = ADVANCED_FACE ( 'NONE', ( #376, #118 ), #330, .T. ) ;
#281 = ORIENTED_EDGE ( 'NONE', *, *, #268, .T. ) ;
#282 = APPROVAL_ROLE ( '' ) ;
#283 = VERTEX_POINT ( 'NONE', #326 ) ;
#284 = APPLICATION_CONTEXT ( 'configuration controlled 3d designs of mechanical parts and assemblies' ) ;
#285 = CIRCLE ( 'NONE', #186, 8.000000000000000000 ) ;
#286 = SHAPE_DEFINITION_REPRESENTATION ( #126, #317 ) ;
#287 = ORIENTED_EDGE ( 'NONE', *, *, #361, .F. ) ;
#288 = DIRECTION ( 'NONE',  ( 1.000000000000000000, 0.000000000000000000, 0.000000000000000000 ) ) ;
#289 = EDGE_CURVE ( 'NONE', #366, #32, #337, .T. ) ;
#290 = ORIENTED_EDGE ( 'NONE', *, *, #354, .T. ) ;
#291 = VERTEX_POINT ( 'NONE', #67 ) ;
#292 = AXIS2_PLACEMENT_3D ( 'NONE', #232, #230, #353 ) ;
#293 =( GEOMETRIC_REPRESENTATION_CONTEXT ( 3 ) GLOBAL_UNCERTAINTY_ASSIGNED_CONTEXT ( ( #108 ) ) GLOBAL_UNIT_ASSIGNED_CONTEXT ( ( #73, #187, #161 ) ) REPRESENTATION_CONTEXT ( 'NONE', 'WORKASPACE' ) );
#294 = DIRECTION ( 'NONE',  ( -0.000000000000000000, -0.000000000000000000, -1.000000000000000000 ) ) ;
#295 = ORIENTED_EDGE ( 'NONE', *, *, #334, .T. ) ;
#296 = LINE ( 'NONE', #204, #106 ) ;
#297 = ORIENTED_EDGE ( 'NONE', *, *, #45, .T. ) ;
#298 = DIRECTION ( 'NONE',  ( 1.000000000000000000, 0.000000000000000000, 0.000000000000000000 ) ) ;
#299 = CARTESIAN_POINT ( 'NONE',  ( 0.000000000000000000, 0.000000000000000000, 0.000000000000000000 ) ) ;
#300 = AXIS2_PLACEMENT_3D ( 'NONE', #239, #101, #122 ) ;
#301 = EDGE_LOOP ( 'NONE', ( #141, #192 ) ) ;
#302 = DIRECTION ( 'NONE',  ( 1.000000000000000000, 0.000000000000000000, 0.000000000000000000 ) ) ;
#303 = LINE ( 'NONE', #129, #264 ) ;
#304 = ORIENTED_EDGE ( 'NONE', *, *, #241, .F. ) ;
#305 = AXIS2_PLACEMENT_3D ( 'NONE', #12, #154, #338 ) ;
#306 = CARTESIAN_POINT ( 'NONE',  ( -5.000000000000000000, 0.000000000000000000, 355.0000000000000000 ) ) ;
#307 = TOROIDAL_SURFACE ( 'NONE', #56, 5.500000000000000000, 0.5000000000000000000 ) ;
#308 = EDGE_CURVE ( 'NONE', #152, #366, #18, .T. ) ;
#309 = ORIENTED_EDGE ( 'NONE', *, *, #45, .F. ) ;
#310 = APPLICATION_PROTOCOL_DEFINITION ( 'international standard', 'config_control_design', 1994, #284 ) ;
#311 = DATE_AND_TIME ( #49, #363 ) ;
#312 = ADVANCED_FACE ( 'NONE', ( #219 ), #307, .F. ) ;
#313 = ORIENTED_EDGE ( 'NONE', *, *, #308, .F. ) ;
#314 = LOCAL_TIME ( 16, 49, 32.00000000000000000, #44 ) ;
#315 = CALENDAR_DATE ( 2022, 8, 7 ) ;
#316 = DIRECTION ( 'NONE',  ( 0.000000000000000000, 0.000000000000000000, -1.000000000000000000 ) ) ;
#317 = ADVANCED_BREP_SHAPE_REPRESENTATION ( '875f', ( #117, #100 ), #293 ) ;
#318 = ORIENTED_EDGE ( 'NONE', *, *, #289, .F. ) ;
#319 = COORDINATED_UNIVERSAL_TIME_OFFSET ( 1, 0, .AHEAD. ) ;
#320 = DIRECTION ( 'NONE',  ( -0.000000000000000000, -0.000000000000000000, -1.000000000000000000 ) ) ;
#321 = EDGE_LOOP ( 'NONE', ( #51, #197, #274, #318 ) ) ;
#322 = APPROVAL_DATE_TIME ( #254, #124 ) ;
#323 = ORIENTED_EDGE ( 'NONE', *, *, #253, .F. ) ;
#324 = CC_DESIGN_APPROVAL ( #214, ( #33 ) ) ;
#325 = CC_DESIGN_DATE_AND_TIME_ASSIGNMENT ( #16, #251, ( #33 ) ) ;
#326 = CARTESIAN_POINT ( 'NONE',  ( 3.100000000000000089, 3.796405077356794918E-16, 0.000000000000000000 ) ) ;
#327 = ADVANCED_FACE ( 'NONE', ( #273, #362 ), #13, .F. ) ;
#328 = AXIS2_PLACEMENT_3D ( 'NONE', #62, #144, #355 ) ;
#329 = VERTEX_POINT ( 'NONE', #213 ) ;
#330 = PLANE ( 'NONE',  #292 ) ;
#331 = ORIENTED_EDGE ( 'NONE', *, *, #130, .F. ) ;
#332 = LINE ( 'NONE', #234, #374 ) ;
#333 = CIRCLE ( 'NONE', #217, 5.000000000000000000 ) ;
#334 = EDGE_CURVE ( 'NONE', #30, #352, #135, .T. ) ;
#335 = CIRCLE ( 'NONE', #120, 5.000000000000000000 ) ;
#336 = DIRECTION ( 'NONE',  ( 0.000000000000000000, 0.000000000000000000, 1.000000000000000000 ) ) ;
#337 = LINE ( 'NONE', #35, #28 ) ;
#338 = DIRECTION ( 'NONE',  ( -1.000000000000000000, 0.000000000000000000, 0.000000000000000000 ) ) ;
#339 = MECHANICAL_CONTEXT ( 'NONE', #195, 'mechanical' ) ;
#340 = CYLINDRICAL_SURFACE ( 'NONE', #191, 5.000000000000000000 ) ;
#341 = VECTOR ( 'NONE', #93, 1000.000000000000000 ) ;
#342 = DIRECTION ( 'NONE',  ( 0.000000000000000000, 0.000000000000000000, 1.000000000000000000 ) ) ;
#343 = COORDINATED_UNIVERSAL_TIME_OFFSET ( 1, 0, .AHEAD. ) ;
#344 = PLANE ( 'NONE',  #200 ) ;
#345 = CC_DESIGN_SECURITY_CLASSIFICATION ( #90, ( #145 ) ) ;
#346 = EDGE_LOOP ( 'NONE', ( #331, #119, #297, #168 ) ) ;
#347 = COORDINATED_UNIVERSAL_TIME_OFFSET ( 1, 0, .AHEAD. ) ;
#348 = VERTEX_POINT ( 'NONE', #266 ) ;
#349 = PERSON ( 'NEURÈENÝ', 'NEURÈENÝ', 'NEURÈENÝ', ('NEURÈENÝ'), ('NEURÈENÝ'), ('NEURÈENÝ') ) ;
#350 = ORIENTED_EDGE ( 'NONE', *, *, #198, .T. ) ;
#351 = CYLINDRICAL_SURFACE ( 'NONE', #211, 8.000000000000000000 ) ;
#352 = VERTEX_POINT ( 'NONE', #367 ) ;
#353 = DIRECTION ( 'NONE',  ( 1.000000000000000000, 0.000000000000000000, -0.000000000000000000 ) ) ;
#354 = EDGE_CURVE ( 'NONE', #352, #146, #303, .T. ) ;
#355 = DIRECTION ( 'NONE',  ( -1.000000000000000000, 1.224646799147351482E-16, 0.000000000000000000 ) ) ;
#356 = ORIENTED_EDGE ( 'NONE', *, *, #171, .T. ) ;
#357 = CARTESIAN_POINT ( 'NONE',  ( 3.100000000000000089, 3.796405077356794918E-16, 355.0000000000000000 ) ) ;
#358 = CIRCLE ( 'NONE', #112, 5.500000000000000000 ) ;
#359 = EDGE_LOOP ( 'NONE', ( #178, #2, #360, #309 ) ) ;
#360 = ORIENTED_EDGE ( 'NONE', *, *, #179, .F. ) ;
#361 = EDGE_CURVE ( 'NONE', #366, #152, #212, .T. ) ;
#362 = FACE_OUTER_BOUND ( 'NONE', #270, .T. ) ;
#363 = LOCAL_TIME ( 16, 49, 32.00000000000000000, #319 ) ;
#364 = FACE_OUTER_BOUND ( 'NONE', #88, .T. ) ;
#365 = DIRECTION ( 'NONE',  ( 1.000000000000000000, 0.000000000000000000, 0.000000000000000000 ) ) ;
#366 = VERTEX_POINT ( 'NONE', #245 ) ;
#367 = CARTESIAN_POINT ( 'NONE',  ( -8.000000000000000000, 0.000000000000000000, 5.000000000000000000 ) ) ;
#368 = AXIS2_PLACEMENT_3D ( 'NONE', #205, #177, #260 ) ;
#369 = CARTESIAN_POINT ( 'NONE',  ( 5.000000000000000000, 6.123233995736766282E-16, 355.0000000000000000 ) ) ;
#370 = CALENDAR_DATE ( 2022, 8, 7 ) ;
#371 = FACE_OUTER_BOUND ( 'NONE', #321, .T. ) ;
#372 = COORDINATED_UNIVERSAL_TIME_OFFSET ( 1, 0, .AHEAD. ) ;
#373 = DIRECTION ( 'NONE',  ( 0.000000000000000000, 0.000000000000000000, 1.000000000000000000 ) ) ;
#374 = VECTOR ( 'NONE', #147, 1000.000000000000000 ) ;
#375 = ADVANCED_FACE ( 'NONE', ( #40 ), #244, .F. ) ;
#376 = FACE_BOUND ( 'NONE', #116, .T. ) ;
#377 = CIRCLE ( 'NONE', #242, 3.100000000000000089 ) ;
#378 = EDGE_LOOP ( 'NONE', ( #350, #209 ) ) ;
#379 = AXIS2_PLACEMENT_3D ( 'NONE', #65, #143, #85 ) ;
#380 = DIRECTION ( 'NONE',  ( -0.000000000000000000, -0.000000000000000000, -1.000000000000000000 ) ) ;
#381 = ORIENTED_EDGE ( 'NONE', *, *, #19, .T. ) ;
ENDSEC;
END-ISO-10303-21;
