ISO-10303-21;
HEADER;
FILE_DESCRIPTION (( 'STEP AP203' ),
    '1' );
FILE_NAME ('668e.STEP',
    '2022-07-08T14:52:01',
    ( '' ),
    ( '' ),
    'SwSTEP 2.0',
    'SolidWorks 2019',
    '' );
FILE_SCHEMA (( 'CONFIG_CONTROL_DESIGN' ));
ENDSEC;

DATA;
#1 = ORIENTED_EDGE ( 'NONE', *, *, #73, .T. ) ;
#2 = EDGE_CURVE ( 'NONE', #265, #273, #118, .T. ) ;
#3 = ORIENTED_EDGE ( 'NONE', *, *, #2, .F. ) ;
#4 = AXIS2_PLACEMENT_3D ( 'NONE', #38, #164, #137 ) ;
#5 = VERTEX_POINT ( 'NONE', #339 ) ;
#6 = FACE_BOUND ( 'NONE', #330, .T. ) ;
#7 = ORIENTED_EDGE ( 'NONE', *, *, #54, .T. ) ;
#8 = CARTESIAN_POINT ( 'NONE',  ( 0.000000000000000000, 0.000000000000000000, 7.499999999999951150 ) ) ;
#9 = EDGE_LOOP ( 'NONE', ( #296, #274 ) ) ;
#10 = DIRECTION ( 'NONE',  ( 1.224646799147353207E-16, 1.000000000000000000, -0.000000000000000000 ) ) ;
#11 = CIRCLE ( 'NONE', #323, 10.00000000000000000 ) ;
#12 = FACE_OUTER_BOUND ( 'NONE', #29, .T. ) ;
#13 = CARTESIAN_POINT ( 'NONE',  ( 6.000000000000000888, 7.347880794884120722E-16, 807.0000000000000000 ) ) ;
#14 = EDGE_CURVE ( 'NONE', #34, #5, #222, .T. ) ;
#15 = CARTESIAN_POINT ( 'NONE',  ( 0.000000000000000000, 0.000000000000000000, 0.000000000000000000 ) ) ;
#16 = DIRECTION ( 'NONE',  ( -0.000000000000000000, -0.000000000000000000, -1.000000000000000000 ) ) ;
#17 = CLOSED_SHELL ( 'NONE', ( #280, #290, #66, #189, #90, #159, #352, #200, #337, #125, #99 ) ) ;
#18 = CARTESIAN_POINT ( 'NONE',  ( 0.000000000000000000, 0.000000000000000000, 7.000000000000000000 ) ) ;
#19 = CARTESIAN_POINT ( 'NONE',  ( 0.000000000000000000, 0.000000000000000000, 807.0000000000000000 ) ) ;
#20 = CIRCLE ( 'NONE', #284, 3.000000000000000444 ) ;
#21 = CARTESIAN_POINT ( 'NONE',  ( 0.000000000000000000, 0.000000000000000000, 807.0000000000000000 ) ) ;
#22 = EDGE_CURVE ( 'NONE', #65, #359, #37, .T. ) ;
#23 = CARTESIAN_POINT ( 'NONE',  ( 0.000000000000000000, 0.000000000000000000, 7.000000000000000000 ) ) ;
#24 = SECURITY_CLASSIFICATION_LEVEL ( 'unclassified' ) ;
#25 = CIRCLE ( 'NONE', #231, 6.000000000000000888 ) ;
#26 = PERSON_AND_ORGANIZATION ( #43, #270 ) ;
#27 = AXIS2_PLACEMENT_3D ( 'NONE', #83, #167, #345 ) ;
#28 = ORIENTED_EDGE ( 'NONE', *, *, #196, .F. ) ;
#29 = EDGE_LOOP ( 'NONE', ( #364, #325, #188, #100 ) ) ;
#30 = SHAPE_DEFINITION_REPRESENTATION ( #48, #105 ) ;
#31 = EDGE_LOOP ( 'NONE', ( #333, #213, #361, #246 ) ) ;
#32 = CIRCLE ( 'NONE', #332, 6.500000000000000888 ) ;
#33 = CARTESIAN_POINT ( 'NONE',  ( 6.500000000000000888, 0.000000000000000000, 7.499999999999951150 ) ) ;
#34 = VERTEX_POINT ( 'NONE', #45 ) ;
#35 = CC_DESIGN_PERSON_AND_ORGANIZATION_ASSIGNMENT ( #26, #263, ( #343 ) ) ;
#36 = CARTESIAN_POINT ( 'NONE',  ( 0.000000000000000000, 0.000000000000000000, 0.000000000000000000 ) ) ;
#37 = LINE ( 'NONE', #194, #60 ) ;
#38 = CARTESIAN_POINT ( 'NONE',  ( 0.000000000000000000, 0.000000000000000000, 0.000000000000000000 ) ) ;
#39 = CARTESIAN_POINT ( 'NONE',  ( 6.500000000000000888, 0.000000000000000000, 6.999999999999975131 ) ) ;
#40 = EDGE_CURVE ( 'NONE', #93, #301, #311, .T. ) ;
#41 = CARTESIAN_POINT ( 'NONE',  ( 6.000000000000000888, 7.347880794884120722E-16, 7.499999999999951150 ) ) ;
#42 = DIRECTION ( 'NONE',  ( 0.000000000000000000, 0.000000000000000000, 1.000000000000000000 ) ) ;
#43 = PERSON ( 'NEURÈENÝ', 'NEURÈENÝ', 'NEURÈENÝ', ('NEURÈENÝ'), ('NEURÈENÝ'), ('NEURÈENÝ') ) ;
#44 = CARTESIAN_POINT ( 'NONE',  ( -6.000000000000000888, 0.000000000000000000, 7.499999999999951150 ) ) ;
#45 = CARTESIAN_POINT ( 'NONE',  ( 10.00000000000000000, 1.224646799147353256E-15, 7.000000000000000000 ) ) ;
#46 = AXIS2_PLACEMENT_3D ( 'NONE', #342, #228, #75 ) ;
#47 = APPROVAL_PERSON_ORGANIZATION ( #117, #88, #236 ) ;
#48 = PRODUCT_DEFINITION_SHAPE ( 'NONE', 'NONE',  #234 ) ;
#49 = EDGE_CURVE ( 'NONE', #301, #359, #161, .T. ) ;
#50 = CARTESIAN_POINT ( 'NONE',  ( 0.000000000000000000, 0.000000000000000000, 0.000000000000000000 ) ) ;
#51 = VERTEX_POINT ( 'NONE', #39 ) ;
#52 = CIRCLE ( 'NONE', #316, 10.00000000000000000 ) ;
#53 = CIRCLE ( 'NONE', #238, 6.500000000000000888 ) ;
#54 = EDGE_CURVE ( 'NONE', #328, #273, #108, .T. ) ;
#55 = EDGE_CURVE ( 'NONE', #242, #328, #304, .T. ) ;
#56 = APPLICATION_CONTEXT ( 'configuration controlled 3d designs of mechanical parts and assemblies' ) ;
#57 = ORIENTED_EDGE ( 'NONE', *, *, #327, .T. ) ;
#58 = DATE_AND_TIME ( #355, #277 ) ;
#59 = COORDINATED_UNIVERSAL_TIME_OFFSET ( 1, 0, .AHEAD. ) ;
#60 = VECTOR ( 'NONE', #162, 1000.000000000000000 ) ;
#61 = EDGE_LOOP ( 'NONE', ( #218, #197 ) ) ;
#62 = LOCAL_TIME ( 16, 52, 1.000000000000000000, #286 ) ;
#63 = DATE_AND_TIME ( #122, #366 ) ;
#64 = ORIENTED_EDGE ( 'NONE', *, *, #120, .F. ) ;
#65 = VERTEX_POINT ( 'NONE', #13 ) ;
#66 = ADVANCED_FACE ( 'NONE', ( #141 ), #283, .T. ) ;
#67 = DIRECTION ( 'NONE',  ( 0.000000000000000000, 0.000000000000000000, 1.000000000000000000 ) ) ;
#68 = CIRCLE ( 'NONE', #312, 0.5000000000000004441 ) ;
#69 = DIRECTION ( 'NONE',  ( 1.000000000000000000, 0.000000000000000000, 0.000000000000000000 ) ) ;
#70 = EDGE_LOOP ( 'NONE', ( #154, #64, #303, #309 ) ) ;
#71 = DIRECTION ( 'NONE',  ( -0.000000000000000000, -0.000000000000000000, -1.000000000000000000 ) ) ;
#72 = CARTESIAN_POINT ( 'NONE',  ( 3.000000000000000444, 3.673940397442060361E-16, 807.0000000000000000 ) ) ;
#73 = EDGE_CURVE ( 'NONE', #240, #34, #52, .T. ) ;
#74 = CARTESIAN_POINT ( 'NONE',  ( 3.000000000000000444, 3.673940397442060361E-16, 807.0000000000000000 ) ) ;
#75 = DIRECTION ( 'NONE',  ( 1.000000000000000000, 0.000000000000000000, 0.000000000000000000 ) ) ;
#76 = VECTOR ( 'NONE', #220, 1000.000000000000000 ) ;
#77 = DIRECTION ( 'NONE',  ( 0.000000000000000000, 0.000000000000000000, 1.000000000000000000 ) ) ;
#78 = AXIS2_PLACEMENT_3D ( 'NONE', #92, #329, #183 ) ;
#79 = DIRECTION ( 'NONE',  ( -0.000000000000000000, -0.000000000000000000, -1.000000000000000000 ) ) ;
#80 = FACE_OUTER_BOUND ( 'NONE', #91, .T. ) ;
#81 = CARTESIAN_POINT ( 'NONE',  ( 0.000000000000000000, 0.000000000000000000, 7.000000000000000000 ) ) ;
#82 = CARTESIAN_POINT ( 'NONE',  ( 0.000000000000000000, 0.000000000000000000, 807.0000000000000000 ) ) ;
#83 = CARTESIAN_POINT ( 'NONE',  ( 0.000000000000000000, 0.000000000000000000, 7.499999999999951150 ) ) ;
#84 = CIRCLE ( 'NONE', #211, 3.000000000000000444 ) ;
#85 =( NAMED_UNIT ( * ) PLANE_ANGLE_UNIT ( ) SI_UNIT ( $, .RADIAN. ) );
#86 = DIRECTION ( 'NONE',  ( 0.000000000000000000, 0.000000000000000000, 1.000000000000000000 ) ) ;
#87 = CIRCLE ( 'NONE', #227, 10.00000000000000000 ) ;
#88 = APPROVAL ( #237, 'NEURÈENÝ' ) ;
#89 = PERSON_AND_ORGANIZATION ( #43, #270 ) ;
#90 = ADVANCED_FACE ( 'NONE', ( #136 ), #225, .T. ) ;
#91 = EDGE_LOOP ( 'NONE', ( #320, #158 ) ) ;
#92 = CARTESIAN_POINT ( 'NONE',  ( 0.000000000000000000, 0.000000000000000000, 7.000000000000000000 ) ) ;
#93 = VERTEX_POINT ( 'NONE', #131 ) ;
#94 = TOROIDAL_SURFACE ( 'NONE', #287, 6.500000000000000888, 0.5000000000000000000 ) ;
#95 = DIRECTION ( 'NONE',  ( -1.000000000000000000, 1.224646799147351482E-16, 0.000000000000000000 ) ) ;
#96 = ORIENTED_EDGE ( 'NONE', *, *, #22, .T. ) ;
#97 = APPROVAL_ROLE ( '' ) ;
#98 = DIRECTION ( 'NONE',  ( 0.000000000000000000, 0.000000000000000000, -1.000000000000000000 ) ) ;
#99 = ADVANCED_FACE ( 'NONE', ( #12 ), #134, .F. ) ;
#100 = ORIENTED_EDGE ( 'NONE', *, *, #2, .T. ) ;
#101 = DIRECTION ( 'NONE',  ( 0.000000000000000000, 0.000000000000000000, 1.000000000000000000 ) ) ;
#102 = EDGE_LOOP ( 'NONE', ( #128, #271, #150, #28 ) ) ;
#103 = SECURITY_CLASSIFICATION ( '', '', #24 ) ;
#104 = FACE_OUTER_BOUND ( 'NONE', #156, .T. ) ;
#105 = ADVANCED_BREP_SHAPE_REPRESENTATION ( '668e', ( #135, #307 ), #155 ) ;
#106 = CARTESIAN_POINT ( 'NONE',  ( 0.000000000000000000, 0.000000000000000000, 807.0000000000000000 ) ) ;
#107 = CARTESIAN_POINT ( 'NONE',  ( -3.000000000000000444, 0.000000000000000000, 807.0000000000000000 ) ) ;
#108 = LINE ( 'NONE', #72, #76 ) ;
#109 = CARTESIAN_POINT ( 'NONE',  ( -3.000000000000000444, 0.000000000000000000, 0.000000000000000000 ) ) ;
#110 = DIRECTION ( 'NONE',  ( 1.000000000000000000, 0.000000000000000000, 0.000000000000000000 ) ) ;
#111 = DIRECTION ( 'NONE',  ( 1.000000000000000000, 0.000000000000000000, 0.000000000000000000 ) ) ;
#112 = FACE_OUTER_BOUND ( 'NONE', #300, .T. ) ;
#113 = VECTOR ( 'NONE', #250, 1000.000000000000000 ) ;
#114 = VECTOR ( 'NONE', #71, 1000.000000000000000 ) ;
#115 = EDGE_CURVE ( 'NONE', #65, #93, #25, .T. ) ;
#116 = CALENDAR_DATE ( 2022, 8, 7 ) ;
#117 = PERSON_AND_ORGANIZATION ( #43, #270 ) ;
#118 = CIRCLE ( 'NONE', #46, 3.000000000000000444 ) ;
#119 = AXIS2_PLACEMENT_3D ( 'NONE', #21, #143, #221 ) ;
#120 = EDGE_CURVE ( 'NONE', #93, #65, #377, .T. ) ;
#121 = ORIENTED_EDGE ( 'NONE', *, *, #73, .F. ) ;
#122 = CALENDAR_DATE ( 2022, 8, 7 ) ;
#123 = CARTESIAN_POINT ( 'NONE',  ( 0.000000000000000000, 0.000000000000000000, 7.000000000000000000 ) ) ;
#124 = ORIENTED_EDGE ( 'NONE', *, *, #115, .F. ) ;
#125 = ADVANCED_FACE ( 'NONE', ( #272 ), #94, .F. ) ;
#126 = DIRECTION ( 'NONE',  ( -0.000000000000000000, -0.000000000000000000, -1.000000000000000000 ) ) ;
#127 = ORIENTED_EDGE ( 'NONE', *, *, #282, .T. ) ;
#128 = ORIENTED_EDGE ( 'NONE', *, *, #310, .F. ) ;
#129 = CC_DESIGN_DATE_AND_TIME_ASSIGNMENT ( #177, #293, ( #103 ) ) ;
#130 = CYLINDRICAL_SURFACE ( 'NONE', #78, 10.00000000000000000 ) ;
#131 = CARTESIAN_POINT ( 'NONE',  ( -6.000000000000000888, 0.000000000000000000, 807.0000000000000000 ) ) ;
#132 = APPROVAL_PERSON_ORGANIZATION ( #175, #340, #289 ) ;
#133 = LOCAL_TIME ( 16, 52, 1.000000000000000000, #59 ) ;
#134 = CYLINDRICAL_SURFACE ( 'NONE', #224, 3.000000000000000444 ) ;
#135 = MANIFOLD_SOLID_BREP ( 'Odebrat vysunutím3', #17 ) ;
#136 = FACE_OUTER_BOUND ( 'NONE', #184, .T. ) ;
#137 = DIRECTION ( 'NONE',  ( 1.000000000000000000, 0.000000000000000000, 0.000000000000000000 ) ) ;
#138 = DIRECTION ( 'NONE',  ( 0.000000000000000000, 0.000000000000000000, 1.000000000000000000 ) ) ;
#139 = DIRECTION ( 'NONE',  ( 0.000000000000000000, 0.000000000000000000, 1.000000000000000000 ) ) ;
#140 = CC_DESIGN_APPROVAL ( #202, ( #103 ) ) ;
#141 = FACE_OUTER_BOUND ( 'NONE', #297, .T. ) ;
#142 = PRODUCT ( '668e', '668e', '', ( #145 ) ) ;
#143 = DIRECTION ( 'NONE',  ( 0.000000000000000000, 0.000000000000000000, -1.000000000000000000 ) ) ;
#144 = DIRECTION ( 'NONE',  ( 1.000000000000000000, 0.000000000000000000, 0.000000000000000000 ) ) ;
#145 = MECHANICAL_CONTEXT ( 'NONE', #278, 'mechanical' ) ;
#146 = DIRECTION ( 'NONE',  ( 1.000000000000000000, 0.000000000000000000, 0.000000000000000000 ) ) ;
#147 = DESIGN_CONTEXT ( 'detailed design', #56, 'design' ) ;
#148 = PERSON_AND_ORGANIZATION ( #43, #270 ) ;
#149 = APPROVAL_PERSON_ORGANIZATION ( #258, #202, #97 ) ;
#150 = ORIENTED_EDGE ( 'NONE', *, *, #181, .T. ) ;
#151 = DIRECTION ( 'NONE',  ( 0.000000000000000000, -1.000000000000000000, 0.000000000000000000 ) ) ;
#152 = ORIENTED_EDGE ( 'NONE', *, *, #174, .T. ) ;
#153 = LINE ( 'NONE', #365, #114 ) ;
#154 = ORIENTED_EDGE ( 'NONE', *, *, #22, .F. ) ;
#155 =( GEOMETRIC_REPRESENTATION_CONTEXT ( 3 ) GLOBAL_UNCERTAINTY_ASSIGNED_CONTEXT ( ( #173 ) ) GLOBAL_UNIT_ASSIGNED_CONTEXT ( ( #203, #85, #318 ) ) REPRESENTATION_CONTEXT ( 'NONE', 'WORKASPACE' ) );
#156 = EDGE_LOOP ( 'NONE', ( #212, #7, #127, #216 ) ) ;
#157 = DIRECTION ( 'NONE',  ( 0.000000000000000000, 0.000000000000000000, 1.000000000000000000 ) ) ;
#158 = ORIENTED_EDGE ( 'NONE', *, *, #115, .T. ) ;
#159 = ADVANCED_FACE ( 'NONE', ( #6, #245 ), #360, .T. ) ;
#160 = DIRECTION ( 'NONE',  ( -0.000000000000000000, -0.000000000000000000, -1.000000000000000000 ) ) ;
#161 = CIRCLE ( 'NONE', #259, 6.000000000000000888 ) ;
#162 = DIRECTION ( 'NONE',  ( -0.000000000000000000, -0.000000000000000000, -1.000000000000000000 ) ) ;
#163 = CC_DESIGN_APPROVAL ( #88, ( #343 ) ) ;
#164 = DIRECTION ( 'NONE',  ( 0.000000000000000000, 0.000000000000000000, 1.000000000000000000 ) ) ;
#165 = CARTESIAN_POINT ( 'NONE',  ( 0.000000000000000000, 0.000000000000000000, 7.499999999999951150 ) ) ;
#166 = CARTESIAN_POINT ( 'NONE',  ( 0.000000000000000000, 0.000000000000000000, 807.0000000000000000 ) ) ;
#167 = DIRECTION ( 'NONE',  ( 0.000000000000000000, 0.000000000000000000, 1.000000000000000000 ) ) ;
#168 = DIRECTION ( 'NONE',  ( 1.000000000000000000, 0.000000000000000000, 0.000000000000000000 ) ) ;
#169 = AXIS2_PLACEMENT_3D ( 'NONE', #165, #139, #229 ) ;
#170 = DIRECTION ( 'NONE',  ( 0.000000000000000000, 0.000000000000000000, 1.000000000000000000 ) ) ;
#171 = PERSON_AND_ORGANIZATION ( #43, #270 ) ;
#172 = AXIS2_PLACEMENT_3D ( 'NONE', #19, #279, #191 ) ;
#173 = UNCERTAINTY_MEASURE_WITH_UNIT (LENGTH_MEASURE( 1.000000000000000082E-05 ), #203, 'distance_accuracy_value', 'NONE');
#174 = EDGE_CURVE ( 'NONE', #319, #51, #53, .T. ) ;
#175 = PERSON_AND_ORGANIZATION ( #43, #270 ) ;
#176 = APPLICATION_PROTOCOL_DEFINITION ( 'international standard', 'config_control_design', 1994, #56 ) ;
#177 = DATE_AND_TIME ( #235, #133 ) ;
#178 = TOROIDAL_SURFACE ( 'NONE', #169, 6.500000000000000888, 0.5000000000000000000 ) ;
#179 = ORIENTED_EDGE ( 'NONE', *, *, #282, .F. ) ;
#180 = CARTESIAN_POINT ( 'NONE',  ( -10.00000000000000000, 0.000000000000000000, 7.000000000000000000 ) ) ;
#181 = EDGE_CURVE ( 'NONE', #5, #206, #87, .T. ) ;
#182 = ORIENTED_EDGE ( 'NONE', *, *, #40, .F. ) ;
#183 = DIRECTION ( 'NONE',  ( -1.000000000000000000, 0.000000000000000000, 0.000000000000000000 ) ) ;
#184 = EDGE_LOOP ( 'NONE', ( #239, #121, #291, #306 ) ) ;
#185 = PRODUCT_RELATED_PRODUCT_CATEGORY ( 'detail', '', ( #142 ) ) ;
#186 = ORIENTED_EDGE ( 'NONE', *, *, #310, .T. ) ;
#187 = DIRECTION ( 'NONE',  ( 1.000000000000000000, 0.000000000000000000, 0.000000000000000000 ) ) ;
#188 = ORIENTED_EDGE ( 'NONE', *, *, #335, .T. ) ;
#189 = ADVANCED_FACE ( 'NONE', ( #269 ), #130, .T. ) ;
#190 = CARTESIAN_POINT ( 'NONE',  ( 0.000000000000000000, 0.000000000000000000, 807.0000000000000000 ) ) ;
#191 = DIRECTION ( 'NONE',  ( 1.000000000000000000, 0.000000000000000000, 0.000000000000000000 ) ) ;
#192 = CARTESIAN_POINT ( 'NONE',  ( 10.00000000000000000, 1.224646799147353256E-15, 7.000000000000000000 ) ) ;
#193 = FACE_BOUND ( 'NONE', #61, .T. ) ;
#194 = CARTESIAN_POINT ( 'NONE',  ( 6.000000000000000888, 7.347880794884120722E-16, 807.0000000000000000 ) ) ;
#195 = EDGE_CURVE ( 'NONE', #359, #51, #349, .T. ) ;
#196 = EDGE_CURVE ( 'NONE', #240, #206, #153, .T. ) ;
#197 = ORIENTED_EDGE ( 'NONE', *, *, #262, .F. ) ;
#198 = PLANE ( 'NONE',  #199 ) ;
#199 = AXIS2_PLACEMENT_3D ( 'NONE', #82, #170, #338 ) ;
#200 = ADVANCED_FACE ( 'NONE', ( #266 ), #243, .T. ) ;
#201 = PERSON_AND_ORGANIZATION ( #43, #270 ) ;
#202 = APPROVAL ( #315, 'NEURÈENÝ' ) ;
#203 =( LENGTH_UNIT ( ) NAMED_UNIT ( * ) SI_UNIT ( .MILLI., .METRE. ) );
#204 = COORDINATED_UNIVERSAL_TIME_OFFSET ( 1, 0, .AHEAD. ) ;
#205 = VECTOR ( 'NONE', #313, 1000.000000000000000 ) ;
#206 = VERTEX_POINT ( 'NONE', #215 ) ;
#207 = PERSON_AND_ORGANIZATION_ROLE ( 'classification_officer' ) ;
#208 = ORIENTED_EDGE ( 'NONE', *, *, #195, .F. ) ;
#209 = DIRECTION ( 'NONE',  ( -1.000000000000000000, 0.000000000000000000, 0.000000000000000000 ) ) ;
#210 = AXIS2_PLACEMENT_3D ( 'NONE', #369, #219, #69 ) ;
#211 = AXIS2_PLACEMENT_3D ( 'NONE', #15, #305, #376 ) ;
#212 = ORIENTED_EDGE ( 'NONE', *, *, #55, .T. ) ;
#213 = ORIENTED_EDGE ( 'NONE', *, *, #327, .F. ) ;
#214 = CC_DESIGN_PERSON_AND_ORGANIZATION_ASSIGNMENT ( #89, #207, ( #103 ) ) ;
#215 = CARTESIAN_POINT ( 'NONE',  ( -10.00000000000000000, 0.000000000000000000, 0.000000000000000000 ) ) ;
#216 = ORIENTED_EDGE ( 'NONE', *, *, #335, .F. ) ;
#217 = DIRECTION ( 'NONE',  ( 1.000000000000000000, 0.000000000000000000, 0.000000000000000000 ) ) ;
#218 = ORIENTED_EDGE ( 'NONE', *, *, #55, .F. ) ;
#219 = DIRECTION ( 'NONE',  ( 0.000000000000000000, 0.000000000000000000, 1.000000000000000000 ) ) ;
#220 = DIRECTION ( 'NONE',  ( 0.000000000000000000, 0.000000000000000000, -1.000000000000000000 ) ) ;
#221 = DIRECTION ( 'NONE',  ( -1.000000000000000000, 0.000000000000000000, 0.000000000000000000 ) ) ;
#222 = LINE ( 'NONE', #192, #230 ) ;
#223 = PLANE ( 'NONE',  #374 ) ;
#224 = AXIS2_PLACEMENT_3D ( 'NONE', #166, #281, #367 ) ;
#225 = CYLINDRICAL_SURFACE ( 'NONE', #253, 10.00000000000000000 ) ;
#226 = AXIS2_PLACEMENT_3D ( 'NONE', #123, #157, #331 ) ;
#227 = AXIS2_PLACEMENT_3D ( 'NONE', #36, #101, #187 ) ;
#228 = DIRECTION ( 'NONE',  ( -0.000000000000000000, -0.000000000000000000, -1.000000000000000000 ) ) ;
#229 = DIRECTION ( 'NONE',  ( 1.000000000000000000, 0.000000000000000000, 0.000000000000000000 ) ) ;
#230 = VECTOR ( 'NONE', #16, 1000.000000000000000 ) ;
#231 = AXIS2_PLACEMENT_3D ( 'NONE', #373, #248, #110 ) ;
#232 = CIRCLE ( 'NONE', #4, 10.00000000000000000 ) ;
#233 = DATE_AND_TIME ( #379, #62 ) ;
#234 = PRODUCT_DEFINITION ( 'NEZNÁMÝ', '', #343, #147 ) ;
#235 = CALENDAR_DATE ( 2022, 8, 7 ) ;
#236 = APPROVAL_ROLE ( '' ) ;
#237 = APPROVAL_STATUS ( 'not_yet_approved' ) ;
#238 = AXIS2_PLACEMENT_3D ( 'NONE', #334, #126, #363 ) ;
#239 = ORIENTED_EDGE ( 'NONE', *, *, #14, .F. ) ;
#240 = VERTEX_POINT ( 'NONE', #180 ) ;
#241 = CARTESIAN_POINT ( 'NONE',  ( -6.500000000000000888, 7.960204194457796463E-16, 7.499999999999951150 ) ) ;
#242 = VERTEX_POINT ( 'NONE', #275 ) ;
#243 = CYLINDRICAL_SURFACE ( 'NONE', #317, 6.000000000000000888 ) ;
#244 = EDGE_LOOP ( 'NONE', ( #3, #179 ) ) ;
#245 = FACE_OUTER_BOUND ( 'NONE', #354, .T. ) ;
#246 = ORIENTED_EDGE ( 'NONE', *, *, #174, .F. ) ;
#247 = DIRECTION ( 'NONE',  ( -0.000000000000000000, -0.000000000000000000, -1.000000000000000000 ) ) ;
#248 = DIRECTION ( 'NONE',  ( 0.000000000000000000, 0.000000000000000000, 1.000000000000000000 ) ) ;
#249 = DIRECTION ( 'NONE',  ( -0.000000000000000000, -0.000000000000000000, -1.000000000000000000 ) ) ;
#250 = DIRECTION ( 'NONE',  ( -0.000000000000000000, -0.000000000000000000, -1.000000000000000000 ) ) ;
#251 = EDGE_CURVE ( 'NONE', #301, #319, #68, .T. ) ;
#252 = DIRECTION ( 'NONE',  ( 1.000000000000000000, 0.000000000000000000, 0.000000000000000000 ) ) ;
#253 = AXIS2_PLACEMENT_3D ( 'NONE', #257, #79, #276 ) ;
#254 = DIRECTION ( 'NONE',  ( 1.000000000000000000, 0.000000000000000000, 0.000000000000000000 ) ) ;
#255 = CIRCLE ( 'NONE', #27, 6.000000000000000888 ) ;
#256 = LINE ( 'NONE', #107, #205 ) ;
#257 = CARTESIAN_POINT ( 'NONE',  ( 0.000000000000000000, 0.000000000000000000, 7.000000000000000000 ) ) ;
#258 = PERSON_AND_ORGANIZATION ( #43, #270 ) ;
#259 = AXIS2_PLACEMENT_3D ( 'NONE', #371, #42, #168 ) ;
#260 = PERSON_AND_ORGANIZATION_ROLE ( 'design_owner' ) ;
#261 = APPLICATION_PROTOCOL_DEFINITION ( 'international standard', 'config_control_design', 1994, #278 ) ;
#262 = EDGE_CURVE ( 'NONE', #328, #242, #20, .T. ) ;
#263 = PERSON_AND_ORGANIZATION_ROLE ( 'creator' ) ;
#264 = LOCAL_TIME ( 16, 52, 1.000000000000000000, #350 ) ;
#265 = VERTEX_POINT ( 'NONE', #109 ) ;
#266 = FACE_OUTER_BOUND ( 'NONE', #70, .T. ) ;
#267 = ORIENTED_EDGE ( 'NONE', *, *, #295, .F. ) ;
#268 = AXIS2_PLACEMENT_3D ( 'NONE', #106, #247, #346 ) ;
#269 = FACE_OUTER_BOUND ( 'NONE', #102, .T. ) ;
#270 = ORGANIZATION ( 'NEURÈENÝ', 'NEURÈENÝ', '' ) ;
#271 = ORIENTED_EDGE ( 'NONE', *, *, #14, .T. ) ;
#272 = FACE_OUTER_BOUND ( 'NONE', #31, .T. ) ;
#273 = VERTEX_POINT ( 'NONE', #285 ) ;
#274 = ORIENTED_EDGE ( 'NONE', *, *, #181, .F. ) ;
#275 = CARTESIAN_POINT ( 'NONE',  ( -3.000000000000000444, 0.000000000000000000, 807.0000000000000000 ) ) ;
#276 = DIRECTION ( 'NONE',  ( -1.000000000000000000, 0.000000000000000000, 0.000000000000000000 ) ) ;
#277 = LOCAL_TIME ( 16, 52, 1.000000000000000000, #204 ) ;
#278 = APPLICATION_CONTEXT ( 'configuration controlled 3d designs of mechanical parts and assemblies' ) ;
#279 = DIRECTION ( 'NONE',  ( 0.000000000000000000, 0.000000000000000000, 1.000000000000000000 ) ) ;
#280 = ADVANCED_FACE ( 'NONE', ( #104 ), #347, .F. ) ;
#281 = DIRECTION ( 'NONE',  ( 0.000000000000000000, 0.000000000000000000, -1.000000000000000000 ) ) ;
#282 = EDGE_CURVE ( 'NONE', #273, #265, #84, .T. ) ;
#283 = CYLINDRICAL_SURFACE ( 'NONE', #268, 6.000000000000000888 ) ;
#284 = AXIS2_PLACEMENT_3D ( 'NONE', #326, #67, #144 ) ;
#285 = CARTESIAN_POINT ( 'NONE',  ( 3.000000000000000444, 3.673940397442060361E-16, 0.000000000000000000 ) ) ;
#286 = COORDINATED_UNIVERSAL_TIME_OFFSET ( 1, 0, .AHEAD. ) ;
#287 = AXIS2_PLACEMENT_3D ( 'NONE', #8, #324, #217 ) ;
#288 = AXIS2_PLACEMENT_3D ( 'NONE', #33, #151, #98 ) ;
#289 = APPROVAL_ROLE ( '' ) ;
#290 = ADVANCED_FACE ( 'NONE', ( #112 ), #178, .F. ) ;
#291 = ORIENTED_EDGE ( 'NONE', *, *, #196, .T. ) ;
#292 = APPROVAL_DATE_TIME ( #58, #88 ) ;
#293 = DATE_TIME_ROLE ( 'classification_date' ) ;
#294 = CC_DESIGN_APPROVAL ( #340, ( #234 ) ) ;
#295 = EDGE_CURVE ( 'NONE', #51, #319, #32, .T. ) ;
#296 = ORIENTED_EDGE ( 'NONE', *, *, #344, .F. ) ;
#297 = EDGE_LOOP ( 'NONE', ( #124, #96, #57, #182 ) ) ;
#298 = ORIENTED_EDGE ( 'NONE', *, *, #295, .T. ) ;
#299 = APPROVAL_DATE_TIME ( #63, #202 ) ;
#300 = EDGE_LOOP ( 'NONE', ( #357, #358, #267, #208 ) ) ;
#301 = VERTEX_POINT ( 'NONE', #44 ) ;
#302 = CC_DESIGN_DATE_AND_TIME_ASSIGNMENT ( #314, #351, ( #234 ) ) ;
#303 = ORIENTED_EDGE ( 'NONE', *, *, #40, .T. ) ;
#304 = CIRCLE ( 'NONE', #172, 3.000000000000000444 ) ;
#305 = DIRECTION ( 'NONE',  ( -0.000000000000000000, -0.000000000000000000, -1.000000000000000000 ) ) ;
#306 = ORIENTED_EDGE ( 'NONE', *, *, #344, .T. ) ;
#307 = AXIS2_PLACEMENT_3D ( 'NONE', #50, #86, #146 ) ;
#308 = DIRECTION ( 'NONE',  ( 1.000000000000000000, 0.000000000000000000, -0.000000000000000000 ) ) ;
#309 = ORIENTED_EDGE ( 'NONE', *, *, #49, .T. ) ;
#310 = EDGE_CURVE ( 'NONE', #34, #240, #11, .T. ) ;
#311 = LINE ( 'NONE', #336, #113 ) ;
#312 = AXIS2_PLACEMENT_3D ( 'NONE', #241, #10, #95 ) ;
#313 = DIRECTION ( 'NONE',  ( 0.000000000000000000, 0.000000000000000000, -1.000000000000000000 ) ) ;
#314 = DATE_AND_TIME ( #116, #264 ) ;
#315 = APPROVAL_STATUS ( 'not_yet_approved' ) ;
#316 = AXIS2_PLACEMENT_3D ( 'NONE', #81, #138, #254 ) ;
#317 = AXIS2_PLACEMENT_3D ( 'NONE', #190, #160, #209 ) ;
#318 =( NAMED_UNIT ( * ) SI_UNIT ( $, .STERADIAN. ) SOLID_ANGLE_UNIT ( ) );
#319 = VERTEX_POINT ( 'NONE', #348 ) ;
#320 = ORIENTED_EDGE ( 'NONE', *, *, #120, .T. ) ;
#321 = CC_DESIGN_PERSON_AND_ORGANIZATION_ASSIGNMENT ( #148, #381, ( #343 ) ) ;
#322 = COORDINATED_UNIVERSAL_TIME_OFFSET ( 1, 0, .AHEAD. ) ;
#323 = AXIS2_PLACEMENT_3D ( 'NONE', #23, #370, #111 ) ;
#324 = DIRECTION ( 'NONE',  ( 0.000000000000000000, 0.000000000000000000, 1.000000000000000000 ) ) ;
#325 = ORIENTED_EDGE ( 'NONE', *, *, #262, .T. ) ;
#326 = CARTESIAN_POINT ( 'NONE',  ( 0.000000000000000000, 0.000000000000000000, 807.0000000000000000 ) ) ;
#327 = EDGE_CURVE ( 'NONE', #359, #301, #255, .T. ) ;
#328 = VERTEX_POINT ( 'NONE', #74 ) ;
#329 = DIRECTION ( 'NONE',  ( -0.000000000000000000, -0.000000000000000000, -1.000000000000000000 ) ) ;
#330 = EDGE_LOOP ( 'NONE', ( #298, #152 ) ) ;
#331 = DIRECTION ( 'NONE',  ( 1.000000000000000000, 0.000000000000000000, -0.000000000000000000 ) ) ;
#332 = AXIS2_PLACEMENT_3D ( 'NONE', #18, #249, #252 ) ;
#333 = ORIENTED_EDGE ( 'NONE', *, *, #251, .F. ) ;
#334 = CARTESIAN_POINT ( 'NONE',  ( 0.000000000000000000, 0.000000000000000000, 7.000000000000000000 ) ) ;
#335 = EDGE_CURVE ( 'NONE', #242, #265, #256, .T. ) ;
#336 = CARTESIAN_POINT ( 'NONE',  ( -6.000000000000000888, 0.000000000000000000, 807.0000000000000000 ) ) ;
#337 = ADVANCED_FACE ( 'NONE', ( #193, #80 ), #198, .T. ) ;
#338 = DIRECTION ( 'NONE',  ( 1.000000000000000000, 0.000000000000000000, -0.000000000000000000 ) ) ;
#339 = CARTESIAN_POINT ( 'NONE',  ( 10.00000000000000000, 1.224646799147353256E-15, 0.000000000000000000 ) ) ;
#340 = APPROVAL ( #380, 'NEURÈENÝ' ) ;
#341 = CARTESIAN_POINT ( 'NONE',  ( 0.000000000000000000, 0.000000000000000000, 0.000000000000000000 ) ) ;
#342 = CARTESIAN_POINT ( 'NONE',  ( 0.000000000000000000, 0.000000000000000000, 0.000000000000000000 ) ) ;
#343 = PRODUCT_DEFINITION_FORMATION_WITH_SPECIFIED_SOURCE ( 'LIBOVOLNÝ', '', #142, .NOT_KNOWN. ) ;
#344 = EDGE_CURVE ( 'NONE', #206, #5, #232, .T. ) ;
#345 = DIRECTION ( 'NONE',  ( 1.000000000000000000, 0.000000000000000000, 0.000000000000000000 ) ) ;
#346 = DIRECTION ( 'NONE',  ( -1.000000000000000000, 0.000000000000000000, 0.000000000000000000 ) ) ;
#347 = CYLINDRICAL_SURFACE ( 'NONE', #119, 3.000000000000000444 ) ;
#348 = CARTESIAN_POINT ( 'NONE',  ( -6.500000000000000888, 7.960204194457796463E-16, 6.999999999999975131 ) ) ;
#349 = CIRCLE ( 'NONE', #288, 0.5000000000000004441 ) ;
#350 = COORDINATED_UNIVERSAL_TIME_OFFSET ( 1, 0, .AHEAD. ) ;
#351 = DATE_TIME_ROLE ( 'creation_date' ) ;
#352 = ADVANCED_FACE ( 'NONE', ( #375, #372 ), #223, .F. ) ;
#353 = APPROVAL_DATE_TIME ( #233, #340 ) ;
#354 = EDGE_LOOP ( 'NONE', ( #1, #186 ) ) ;
#355 = CALENDAR_DATE ( 2022, 8, 7 ) ;
#356 = PERSON_AND_ORGANIZATION_ROLE ( 'creator' ) ;
#357 = ORIENTED_EDGE ( 'NONE', *, *, #49, .F. ) ;
#358 = ORIENTED_EDGE ( 'NONE', *, *, #251, .T. ) ;
#359 = VERTEX_POINT ( 'NONE', #41 ) ;
#360 = PLANE ( 'NONE',  #226 ) ;
#361 = ORIENTED_EDGE ( 'NONE', *, *, #195, .T. ) ;
#362 = CC_DESIGN_PERSON_AND_ORGANIZATION_ASSIGNMENT ( #201, #356, ( #234 ) ) ;
#363 = DIRECTION ( 'NONE',  ( 1.000000000000000000, 0.000000000000000000, 0.000000000000000000 ) ) ;
#364 = ORIENTED_EDGE ( 'NONE', *, *, #54, .F. ) ;
#365 = CARTESIAN_POINT ( 'NONE',  ( -10.00000000000000000, 0.000000000000000000, 7.000000000000000000 ) ) ;
#366 = LOCAL_TIME ( 16, 52, 1.000000000000000000, #322 ) ;
#367 = DIRECTION ( 'NONE',  ( -1.000000000000000000, 0.000000000000000000, 0.000000000000000000 ) ) ;
#368 = CC_DESIGN_PERSON_AND_ORGANIZATION_ASSIGNMENT ( #171, #260, ( #142 ) ) ;
#369 = CARTESIAN_POINT ( 'NONE',  ( 0.000000000000000000, 0.000000000000000000, 807.0000000000000000 ) ) ;
#370 = DIRECTION ( 'NONE',  ( 0.000000000000000000, 0.000000000000000000, 1.000000000000000000 ) ) ;
#371 = CARTESIAN_POINT ( 'NONE',  ( 0.000000000000000000, 0.000000000000000000, 7.499999999999951150 ) ) ;
#372 = FACE_OUTER_BOUND ( 'NONE', #9, .T. ) ;
#373 = CARTESIAN_POINT ( 'NONE',  ( 0.000000000000000000, 0.000000000000000000, 807.0000000000000000 ) ) ;
#374 = AXIS2_PLACEMENT_3D ( 'NONE', #341, #77, #308 ) ;
#375 = FACE_BOUND ( 'NONE', #244, .T. ) ;
#376 = DIRECTION ( 'NONE',  ( 1.000000000000000000, 0.000000000000000000, 0.000000000000000000 ) ) ;
#377 = CIRCLE ( 'NONE', #210, 6.000000000000000888 ) ;
#378 = CC_DESIGN_SECURITY_CLASSIFICATION ( #103, ( #343 ) ) ;
#379 = CALENDAR_DATE ( 2022, 8, 7 ) ;
#380 = APPROVAL_STATUS ( 'not_yet_approved' ) ;
#381 = PERSON_AND_ORGANIZATION_ROLE ( 'design_supplier' ) ;
ENDSEC;
END-ISO-10303-21;
