ISO-10303-21;
HEADER;
FILE_DESCRIPTION (( 'STEP AP203' ),
    '1' );
FILE_NAME ('05be.STEP',
    '2022-07-08T15:38:50',
    ( '' ),
    ( '' ),
    'SwSTEP 2.0',
    'SolidWorks 2019',
    '' );
FILE_SCHEMA (( 'CONFIG_CONTROL_DESIGN' ));
ENDSEC;

DATA;
#1 = VERTEX_POINT ( 'NONE', #193 ) ;
#2 = LINE ( 'NONE', #40, #340 ) ;
#3 = CARTESIAN_POINT ( 'NONE',  ( 0.000000000000000000, 0.000000000000000000, 230.0000000000000000 ) ) ;
#4 = EDGE_CURVE ( 'NONE', #362, #270, #34, .T. ) ;
#5 = CARTESIAN_POINT ( 'NONE',  ( 0.000000000000000000, 0.000000000000000000, 5.500000000000005329 ) ) ;
#6 = AXIS2_PLACEMENT_3D ( 'NONE', #222, #307, #121 ) ;
#7 = APPROVAL_PERSON_ORGANIZATION ( #301, #238, #351 ) ;
#8 = DIRECTION ( 'NONE',  ( 1.000000000000000000, 0.000000000000000000, 0.000000000000000000 ) ) ;
#9 = CARTESIAN_POINT ( 'NONE',  ( 6.000000000000000888, 7.347880794884120722E-16, 5.000000000000000000 ) ) ;
#10 = LOCAL_TIME ( 17, 38, 50.00000000000000000, #314 ) ;
#11 = VERTEX_POINT ( 'NONE', #35 ) ;
#12 = APPLICATION_PROTOCOL_DEFINITION ( 'international standard', 'config_control_design', 1994, #42 ) ;
#13 = DIRECTION ( 'NONE',  ( -0.000000000000000000, -0.000000000000000000, -1.000000000000000000 ) ) ;
#14 = EDGE_LOOP ( 'NONE', ( #181, #26, #171, #178 ) ) ;
#15 = CC_DESIGN_PERSON_AND_ORGANIZATION_ASSIGNMENT ( #179, #318, ( #180 ) ) ;
#16 = DESIGN_CONTEXT ( 'detailed design', #337, 'design' ) ;
#17 = FACE_OUTER_BOUND ( 'NONE', #24, .T. ) ;
#18 = ORIENTED_EDGE ( 'NONE', *, *, #213, .T. ) ;
#19 = CARTESIAN_POINT ( 'NONE',  ( 0.000000000000000000, 0.000000000000000000, 0.000000000000000000 ) ) ;
#20 = ORIENTED_EDGE ( 'NONE', *, *, #344, .F. ) ;
#21 = SECURITY_CLASSIFICATION_LEVEL ( 'unclassified' ) ;
#22 = EDGE_LOOP ( 'NONE', ( #108, #338 ) ) ;
#23 = CIRCLE ( 'NONE', #76, 3.500000000000000444 ) ;
#24 = EDGE_LOOP ( 'NONE', ( #20, #278, #370, #268 ) ) ;
#25 = AXIS2_PLACEMENT_3D ( 'NONE', #163, #82, #71 ) ;
#26 = ORIENTED_EDGE ( 'NONE', *, *, #316, .T. ) ;
#27 = CARTESIAN_POINT ( 'NONE',  ( 6.000000000000000888, 7.347880794884120722E-16, 5.000000000000000000 ) ) ;
#28 = VERTEX_POINT ( 'NONE', #9 ) ;
#29 = ORIENTED_EDGE ( 'NONE', *, *, #126, .T. ) ;
#30 = AXIS2_PLACEMENT_3D ( 'NONE', #67, #38, #65 ) ;
#31 = DIRECTION ( 'NONE',  ( -0.000000000000000000, -0.000000000000000000, -1.000000000000000000 ) ) ;
#32 = FACE_BOUND ( 'NONE', #354, .T. ) ;
#33 = FACE_OUTER_BOUND ( 'NONE', #321, .T. ) ;
#34 = CIRCLE ( 'NONE', #226, 3.000000000000000444 ) ;
#35 = CARTESIAN_POINT ( 'NONE',  ( -3.500000000000000444, 4.286263797015737088E-16, 5.000000000000002665 ) ) ;
#36 = VECTOR ( 'NONE', #285, 1000.000000000000000 ) ;
#37 = AXIS2_PLACEMENT_3D ( 'NONE', #47, #133, #292 ) ;
#38 = DIRECTION ( 'NONE',  ( 0.000000000000000000, 0.000000000000000000, 1.000000000000000000 ) ) ;
#39 = CARTESIAN_POINT ( 'NONE',  ( 0.000000000000000000, 0.000000000000000000, 0.000000000000000000 ) ) ;
#40 = CARTESIAN_POINT ( 'NONE',  ( -6.000000000000000888, 0.000000000000000000, 5.000000000000000000 ) ) ;
#41 = PLANE ( 'NONE',  #74 ) ;
#42 = APPLICATION_CONTEXT ( 'configuration controlled 3d designs of mechanical parts and assemblies' ) ;
#43 = CYLINDRICAL_SURFACE ( 'NONE', #272, 1.750000000000000000 ) ;
#44 = VERTEX_POINT ( 'NONE', #131 ) ;
#45 = VERTEX_POINT ( 'NONE', #223 ) ;
#46 = EDGE_CURVE ( 'NONE', #270, #362, #191, .T. ) ;
#47 = CARTESIAN_POINT ( 'NONE',  ( 0.000000000000000000, 0.000000000000000000, 230.0000000000000000 ) ) ;
#48 = ORIENTED_EDGE ( 'NONE', *, *, #104, .T. ) ;
#49 = LINE ( 'NONE', #206, #253 ) ;
#50 = COORDINATED_UNIVERSAL_TIME_OFFSET ( 1, 0, .AHEAD. ) ;
#51 = CC_DESIGN_PERSON_AND_ORGANIZATION_ASSIGNMENT ( #169, #291, ( #162 ) ) ;
#52 = PERSON_AND_ORGANIZATION ( #197, #356 ) ;
#53 = CC_DESIGN_DATE_AND_TIME_ASSIGNMENT ( #275, #93, ( #180 ) ) ;
#54 = EDGE_CURVE ( 'NONE', #138, #11, #59, .T. ) ;
#55 = CC_DESIGN_SECURITY_CLASSIFICATION ( #180, ( #242 ) ) ;
#56 = ORIENTED_EDGE ( 'NONE', *, *, #213, .F. ) ;
#57 = COORDINATED_UNIVERSAL_TIME_OFFSET ( 1, 0, .AHEAD. ) ;
#58 = VERTEX_POINT ( 'NONE', #284 ) ;
#59 = CIRCLE ( 'NONE', #377, 3.500000000000000444 ) ;
#60 = DIRECTION ( 'NONE',  ( -0.000000000000000000, -0.000000000000000000, -1.000000000000000000 ) ) ;
#61 = CC_DESIGN_APPROVAL ( #238, ( #180 ) ) ;
#62 = EDGE_CURVE ( 'NONE', #332, #45, #225, .T. ) ;
#63 = DIRECTION ( 'NONE',  ( 0.000000000000000000, 0.000000000000000000, -1.000000000000000000 ) ) ;
#64 = EDGE_LOOP ( 'NONE', ( #116, #80, #325, #18 ) ) ;
#65 = DIRECTION ( 'NONE',  ( 1.000000000000000000, 0.000000000000000000, 0.000000000000000000 ) ) ;
#66 = DIRECTION ( 'NONE',  ( 0.000000000000000000, 0.000000000000000000, 1.000000000000000000 ) ) ;
#67 = CARTESIAN_POINT ( 'NONE',  ( 0.000000000000000000, 0.000000000000000000, 5.000000000000000000 ) ) ;
#68 = CARTESIAN_POINT ( 'NONE',  ( 0.000000000000000000, 0.000000000000000000, 5.000000000000000000 ) ) ;
#69 = EDGE_CURVE ( 'NONE', #1, #136, #164, .T. ) ;
#70 = ORIENTED_EDGE ( 'NONE', *, *, #69, .T. ) ;
#71 = DIRECTION ( 'NONE',  ( 1.000000000000000000, 0.000000000000000000, -0.000000000000000000 ) ) ;
#72 = CYLINDRICAL_SURFACE ( 'NONE', #90, 3.000000000000000444 ) ;
#73 = PRODUCT_RELATED_PRODUCT_CATEGORY ( 'detail', '', ( #162 ) ) ;
#74 = AXIS2_PLACEMENT_3D ( 'NONE', #161, #286, #310 ) ;
#75 = ORIENTED_EDGE ( 'NONE', *, *, #69, .F. ) ;
#76 = AXIS2_PLACEMENT_3D ( 'NONE', #378, #247, #8 ) ;
#77 = DIRECTION ( 'NONE',  ( 0.000000000000000000, 0.000000000000000000, -1.000000000000000000 ) ) ;
#78 = APPROVAL_PERSON_ORGANIZATION ( #52, #194, #239 ) ;
#79 = ADVANCED_FACE ( 'NONE', ( #100, #196 ), #41, .F. ) ;
#80 = ORIENTED_EDGE ( 'NONE', *, *, #369, .F. ) ;
#81 = APPROVAL_ROLE ( '' ) ;
#82 = DIRECTION ( 'NONE',  ( 0.000000000000000000, 0.000000000000000000, 1.000000000000000000 ) ) ;
#83 = DIRECTION ( 'NONE',  ( -1.000000000000000000, 0.000000000000000000, 0.000000000000000000 ) ) ;
#84 = ADVANCED_FACE ( 'NONE', ( #335 ), #199, .T. ) ;
#85 = PERSON_AND_ORGANIZATION ( #197, #356 ) ;
#86 = DIRECTION ( 'NONE',  ( 0.000000000000000000, 0.000000000000000000, -1.000000000000000000 ) ) ;
#87 = ORIENTED_EDGE ( 'NONE', *, *, #54, .T. ) ;
#88 = ADVANCED_FACE ( 'NONE', ( #17 ), #72, .T. ) ;
#89 = ORIENTED_EDGE ( 'NONE', *, *, #245, .T. ) ;
#90 = AXIS2_PLACEMENT_3D ( 'NONE', #235, #315, #83 ) ;
#91 = COORDINATED_UNIVERSAL_TIME_OFFSET ( 1, 0, .AHEAD. ) ;
#92 = AXIS2_PLACEMENT_3D ( 'NONE', #216, #152, #277 ) ;
#93 = DATE_TIME_ROLE ( 'classification_date' ) ;
#94 = DIRECTION ( 'NONE',  ( -1.000000000000000000, 0.000000000000000000, 0.000000000000000000 ) ) ;
#95 = DIRECTION ( 'NONE',  ( -1.000000000000000000, 0.000000000000000000, 0.000000000000000000 ) ) ;
#96 = CARTESIAN_POINT ( 'NONE',  ( -1.750000000000000000, 0.000000000000000000, 230.0000000000000000 ) ) ;
#97 =( GEOMETRIC_REPRESENTATION_CONTEXT ( 3 ) GLOBAL_UNCERTAINTY_ASSIGNED_CONTEXT ( ( #305 ) ) GLOBAL_UNIT_ASSIGNED_CONTEXT ( ( #263, #260, #229 ) ) REPRESENTATION_CONTEXT ( 'NONE', 'WORKASPACE' ) );
#98 = FACE_OUTER_BOUND ( 'NONE', #276, .T. ) ;
#99 = DIRECTION ( 'NONE',  ( 0.000000000000000000, 0.000000000000000000, 1.000000000000000000 ) ) ;
#100 = FACE_BOUND ( 'NONE', #299, .T. ) ;
#101 = CIRCLE ( 'NONE', #30, 6.000000000000000888 ) ;
#102 = CARTESIAN_POINT ( 'NONE',  ( 3.500000000000000444, 0.000000000000000000, 5.500000000000005329 ) ) ;
#103 = CARTESIAN_POINT ( 'NONE',  ( 0.000000000000000000, 0.000000000000000000, 5.000000000000000000 ) ) ;
#104 = EDGE_CURVE ( 'NONE', #44, #365, #264, .T. ) ;
#105 = MECHANICAL_CONTEXT ( 'NONE', #42, 'mechanical' ) ;
#106 = DIRECTION ( 'NONE',  ( 0.000000000000000000, 0.000000000000000000, -1.000000000000000000 ) ) ;
#107 = AXIS2_PLACEMENT_3D ( 'NONE', #39, #189, #256 ) ;
#108 = ORIENTED_EDGE ( 'NONE', *, *, #62, .F. ) ;
#109 = ORIENTED_EDGE ( 'NONE', *, *, #54, .F. ) ;
#110 = DATE_AND_TIME ( #140, #10 ) ;
#111 = PERSON_AND_ORGANIZATION_ROLE ( 'design_supplier' ) ;
#112 = ORIENTED_EDGE ( 'NONE', *, *, #336, .F. ) ;
#113 = AXIS2_PLACEMENT_3D ( 'NONE', #3, #306, #331 ) ;
#114 = PERSON_AND_ORGANIZATION ( #197, #356 ) ;
#115 = ADVANCED_FACE ( 'NONE', ( #364 ), #43, .F. ) ;
#116 = ORIENTED_EDGE ( 'NONE', *, *, #126, .F. ) ;
#117 = EDGE_CURVE ( 'NONE', #58, #270, #267, .T. ) ;
#118 = APPROVAL ( #205, 'NEURÈENÝ' ) ;
#119 = CARTESIAN_POINT ( 'NONE',  ( -3.500000000000000444, 4.286263797015737088E-16, 5.500000000000005329 ) ) ;
#120 = EDGE_LOOP ( 'NONE', ( #327, #241, #153, #379 ) ) ;
#121 = DIRECTION ( 'NONE',  ( 1.000000000000000000, 0.000000000000000000, 0.000000000000000000 ) ) ;
#122 = ORIENTED_EDGE ( 'NONE', *, *, #369, .T. ) ;
#123 = FACE_OUTER_BOUND ( 'NONE', #345, .T. ) ;
#124 = CARTESIAN_POINT ( 'NONE',  ( -3.000000000000000444, 0.000000000000000000, 5.500000000000005329 ) ) ;
#125 = CC_DESIGN_APPROVAL ( #194, ( #242 ) ) ;
#126 = EDGE_CURVE ( 'NONE', #28, #44, #170, .T. ) ;
#127 = LINE ( 'NONE', #255, #36 ) ;
#128 = CARTESIAN_POINT ( 'NONE',  ( 0.000000000000000000, 0.000000000000000000, 5.500000000000005329 ) ) ;
#129 = DIRECTION ( 'NONE',  ( 0.000000000000000000, 0.000000000000000000, 1.000000000000000000 ) ) ;
#130 = CARTESIAN_POINT ( 'NONE',  ( -6.000000000000000888, 0.000000000000000000, 0.000000000000000000 ) ) ;
#131 = CARTESIAN_POINT ( 'NONE',  ( 6.000000000000000888, 7.347880794884120722E-16, 0.000000000000000000 ) ) ;
#132 = CIRCLE ( 'NONE', #209, 0.5000000000000004441 ) ;
#133 = DIRECTION ( 'NONE',  ( 0.000000000000000000, 0.000000000000000000, 1.000000000000000000 ) ) ;
#134 = ADVANCED_FACE ( 'NONE', ( #374 ), #319, .F. ) ;
#135 = DIRECTION ( 'NONE',  ( -1.000000000000000000, 0.000000000000000000, 0.000000000000000000 ) ) ;
#136 = VERTEX_POINT ( 'NONE', #211 ) ;
#137 = APPLICATION_PROTOCOL_DEFINITION ( 'international standard', 'config_control_design', 1994, #337 ) ;
#138 = VERTEX_POINT ( 'NONE', #183 ) ;
#139 = ADVANCED_FACE ( 'NONE', ( #147 ), #302, .T. ) ;
#140 = CALENDAR_DATE ( 2022, 8, 7 ) ;
#141 = EDGE_CURVE ( 'NONE', #270, #11, #252, .T. ) ;
#142 = LOCAL_TIME ( 17, 38, 50.00000000000000000, #91 ) ;
#143 = ORIENTED_EDGE ( 'NONE', *, *, #46, .F. ) ;
#144 = CALENDAR_DATE ( 2022, 8, 7 ) ;
#145 = CARTESIAN_POINT ( 'NONE',  ( 0.000000000000000000, 0.000000000000000000, 5.000000000000000000 ) ) ;
#146 = ORIENTED_EDGE ( 'NONE', *, *, #177, .F. ) ;
#147 = FACE_OUTER_BOUND ( 'NONE', #273, .T. ) ;
#148 = ORIENTED_EDGE ( 'NONE', *, *, #271, .F. ) ;
#149 = AXIS2_PLACEMENT_3D ( 'NONE', #297, #375, #348 ) ;
#150 = ORIENTED_EDGE ( 'NONE', *, *, #177, .T. ) ;
#151 = CALENDAR_DATE ( 2022, 8, 7 ) ;
#152 = DIRECTION ( 'NONE',  ( 0.000000000000000000, 0.000000000000000000, 1.000000000000000000 ) ) ;
#153 = ORIENTED_EDGE ( 'NONE', *, *, #4, .T. ) ;
#154 = PRODUCT_DEFINITION_SHAPE ( 'NONE', 'NONE',  #190 ) ;
#155 = VECTOR ( 'NONE', #203, 1000.000000000000000 ) ;
#156 = EDGE_LOOP ( 'NONE', ( #143, #219, #109, #112 ) ) ;
#157 = EDGE_CURVE ( 'NONE', #352, #58, #174, .T. ) ;
#158 = CC_DESIGN_DATE_AND_TIME_ASSIGNMENT ( #322, #269, ( #190 ) ) ;
#159 = DIRECTION ( 'NONE',  ( 0.000000000000000000, 0.000000000000000000, 1.000000000000000000 ) ) ;
#160 = DIRECTION ( 'NONE',  ( 0.000000000000000000, 0.000000000000000000, 1.000000000000000000 ) ) ;
#161 = CARTESIAN_POINT ( 'NONE',  ( 0.000000000000000000, 0.000000000000000000, 0.000000000000000000 ) ) ;
#162 = PRODUCT ( '05be', '05be', '', ( #105 ) ) ;
#163 = CARTESIAN_POINT ( 'NONE',  ( 0.000000000000000000, 0.000000000000000000, 5.000000000000000000 ) ) ;
#164 = CIRCLE ( 'NONE', #107, 1.750000000000000000 ) ;
#165 = CARTESIAN_POINT ( 'NONE',  ( 0.000000000000000000, 0.000000000000000000, 230.0000000000000000 ) ) ;
#166 = CIRCLE ( 'NONE', #37, 1.750000000000000000 ) ;
#167 = DIRECTION ( 'NONE',  ( -0.000000000000000000, -0.000000000000000000, -1.000000000000000000 ) ) ;
#168 = ORIENTED_EDGE ( 'NONE', *, *, #157, .T. ) ;
#169 = PERSON_AND_ORGANIZATION ( #197, #356 ) ;
#170 = LINE ( 'NONE', #27, #215 ) ;
#171 = ORIENTED_EDGE ( 'NONE', *, *, #271, .T. ) ;
#172 = MANIFOLD_SOLID_BREP ( 'Odebrat vysunutím3', #184 ) ;
#173 = DIRECTION ( 'NONE',  ( 1.000000000000000000, 0.000000000000000000, 0.000000000000000000 ) ) ;
#174 = CIRCLE ( 'NONE', #92, 3.000000000000000444 ) ;
#175 = AXIS2_PLACEMENT_3D ( 'NONE', #128, #333, #304 ) ;
#176 = DIRECTION ( 'NONE',  ( -0.000000000000000000, -0.000000000000000000, -1.000000000000000000 ) ) ;
#177 = EDGE_CURVE ( 'NONE', #11, #138, #23, .T. ) ;
#178 = ORIENTED_EDGE ( 'NONE', *, *, #330, .T. ) ;
#179 = PERSON_AND_ORGANIZATION ( #197, #356 ) ;
#180 = SECURITY_CLASSIFICATION ( '', '', #21 ) ;
#181 = ORIENTED_EDGE ( 'NONE', *, *, #245, .F. ) ;
#182 = ORIENTED_EDGE ( 'NONE', *, *, #104, .F. ) ;
#183 = CARTESIAN_POINT ( 'NONE',  ( 3.500000000000000444, 0.000000000000000000, 5.000000000000002665 ) ) ;
#184 = CLOSED_SHELL ( 'NONE', ( #115, #290, #251, #139, #84, #309, #79, #88, #230, #298, #134 ) ) ;
#185 = AXIS2_PLACEMENT_3D ( 'NONE', #195, #99, #249 ) ;
#186 = CIRCLE ( 'NONE', #373, 6.000000000000000888 ) ;
#187 = EDGE_CURVE ( 'NONE', #372, #365, #2, .T. ) ;
#188 = DIRECTION ( 'NONE',  ( -0.000000000000000000, -0.000000000000000000, -1.000000000000000000 ) ) ;
#189 = DIRECTION ( 'NONE',  ( -0.000000000000000000, -0.000000000000000000, -1.000000000000000000 ) ) ;
#190 = PRODUCT_DEFINITION ( 'NEZNÁMÝ', '', #242, #16 ) ;
#191 = CIRCLE ( 'NONE', #240, 3.000000000000000444 ) ;
#192 = FACE_OUTER_BOUND ( 'NONE', #156, .T. ) ;
#193 = CARTESIAN_POINT ( 'NONE',  ( 1.750000000000000000, 2.143131898507868297E-16, 0.000000000000000000 ) ) ;
#194 = APPROVAL ( #218, 'NEURÈENÝ' ) ;
#195 = CARTESIAN_POINT ( 'NONE',  ( 0.000000000000000000, 0.000000000000000000, 230.0000000000000000 ) ) ;
#196 = FACE_OUTER_BOUND ( 'NONE', #262, .T. ) ;
#197 = PERSON ( 'NEURÈENÝ', 'NEURÈENÝ', 'NEURÈENÝ', ('NEURÈENÝ'), ('NEURÈENÝ'), ('NEURÈENÝ') ) ;
#198 = DIRECTION ( 'NONE',  ( 0.000000000000000000, 0.000000000000000000, 1.000000000000000000 ) ) ;
#199 = CYLINDRICAL_SURFACE ( 'NONE', #323, 6.000000000000000888 ) ;
#200 = TOROIDAL_SURFACE ( 'NONE', #341, 3.500000000000000444, 0.5000000000000000000 ) ;
#201 = CC_DESIGN_PERSON_AND_ORGANIZATION_ASSIGNMENT ( #266, #111, ( #242 ) ) ;
#202 = DIRECTION ( 'NONE',  ( 1.000000000000000000, 0.000000000000000000, 0.000000000000000000 ) ) ;
#203 = DIRECTION ( 'NONE',  ( -0.000000000000000000, -0.000000000000000000, -1.000000000000000000 ) ) ;
#204 = ORIENTED_EDGE ( 'NONE', *, *, #4, .F. ) ;
#205 = APPROVAL_STATUS ( 'not_yet_approved' ) ;
#206 = CARTESIAN_POINT ( 'NONE',  ( 3.000000000000000444, 3.673940397442060361E-16, 230.0000000000000000 ) ) ;
#207 = DIRECTION ( 'NONE',  ( -1.000000000000000000, 0.000000000000000000, 0.000000000000000000 ) ) ;
#208 = VECTOR ( 'NONE', #63, 1000.000000000000000 ) ;
#209 = AXIS2_PLACEMENT_3D ( 'NONE', #102, #339, #77 ) ;
#210 = APPROVAL_DATE_TIME ( #376, #194 ) ;
#211 = CARTESIAN_POINT ( 'NONE',  ( -1.750000000000000000, 0.000000000000000000, 0.000000000000000000 ) ) ;
#212 = APPROVAL_DATE_TIME ( #371, #238 ) ;
#213 = EDGE_CURVE ( 'NONE', #365, #44, #380, .T. ) ;
#214 = AXIS2_PLACEMENT_3D ( 'NONE', #19, #261, #368 ) ;
#215 = VECTOR ( 'NONE', #324, 1000.000000000000000 ) ;
#216 = CARTESIAN_POINT ( 'NONE',  ( 0.000000000000000000, 0.000000000000000000, 230.0000000000000000 ) ) ;
#217 = LOCAL_TIME ( 17, 38, 50.00000000000000000, #50 ) ;
#218 = APPROVAL_STATUS ( 'not_yet_approved' ) ;
#219 = ORIENTED_EDGE ( 'NONE', *, *, #141, .T. ) ;
#220 = DIRECTION ( 'NONE',  ( 1.000000000000000000, 0.000000000000000000, 0.000000000000000000 ) ) ;
#221 = CC_DESIGN_PERSON_AND_ORGANIZATION_ASSIGNMENT ( #85, #326, ( #190 ) ) ;
#222 = CARTESIAN_POINT ( 'NONE',  ( 0.000000000000000000, 0.000000000000000000, 0.000000000000000000 ) ) ;
#223 = CARTESIAN_POINT ( 'NONE',  ( 1.750000000000000000, 2.143131898507868297E-16, 230.0000000000000000 ) ) ;
#224 = FACE_BOUND ( 'NONE', #22, .T. ) ;
#225 = CIRCLE ( 'NONE', #113, 1.750000000000000000 ) ;
#226 = AXIS2_PLACEMENT_3D ( 'NONE', #358, #66, #254 ) ;
#227 = CARTESIAN_POINT ( 'NONE',  ( 0.000000000000000000, 0.000000000000000000, 230.0000000000000000 ) ) ;
#228 = DIRECTION ( 'NONE',  ( 1.000000000000000000, 0.000000000000000000, 0.000000000000000000 ) ) ;
#229 =( NAMED_UNIT ( * ) SI_UNIT ( $, .STERADIAN. ) SOLID_ANGLE_UNIT ( ) );
#230 = ADVANCED_FACE ( 'NONE', ( #224, #123 ), #328, .T. ) ;
#231 = CARTESIAN_POINT ( 'NONE',  ( -3.000000000000000444, 0.000000000000000000, 230.0000000000000000 ) ) ;
#232 = ORIENTED_EDGE ( 'NONE', *, *, #243, .T. ) ;
#233 = LOCAL_TIME ( 17, 38, 50.00000000000000000, #244 ) ;
#234 = CARTESIAN_POINT ( 'NONE',  ( 0.000000000000000000, 0.000000000000000000, 0.000000000000000000 ) ) ;
#235 = CARTESIAN_POINT ( 'NONE',  ( 0.000000000000000000, 0.000000000000000000, 230.0000000000000000 ) ) ;
#236 = APPROVAL_DATE_TIME ( #110, #118 ) ;
#237 = EDGE_LOOP ( 'NONE', ( #342, #89, #70, #148 ) ) ;
#238 = APPROVAL ( #346, 'NEURÈENÝ' ) ;
#239 = APPROVAL_ROLE ( '' ) ;
#240 = AXIS2_PLACEMENT_3D ( 'NONE', #361, #129, #228 ) ;
#241 = ORIENTED_EDGE ( 'NONE', *, *, #344, .T. ) ;
#242 = PRODUCT_DEFINITION_FORMATION_WITH_SPECIFIED_SOURCE ( 'LIBOVOLNÝ', '', #162, .NOT_KNOWN. ) ;
#243 = EDGE_CURVE ( 'NONE', #58, #352, #279, .T. ) ;
#244 = COORDINATED_UNIVERSAL_TIME_OFFSET ( 1, 0, .AHEAD. ) ;
#245 = EDGE_CURVE ( 'NONE', #45, #1, #127, .T. ) ;
#246 = DIRECTION ( 'NONE',  ( 1.224646799147353207E-16, 1.000000000000000000, -0.000000000000000000 ) ) ;
#247 = DIRECTION ( 'NONE',  ( -0.000000000000000000, -0.000000000000000000, -1.000000000000000000 ) ) ;
#248 = AXIS2_PLACEMENT_3D ( 'NONE', #366, #167, #202 ) ;
#249 = DIRECTION ( 'NONE',  ( 1.000000000000000000, 0.000000000000000000, -0.000000000000000000 ) ) ;
#250 = LINE ( 'NONE', #96, #208 ) ;
#251 = ADVANCED_FACE ( 'NONE', ( #280 ), #282, .T. ) ;
#252 = CIRCLE ( 'NONE', #355, 0.4999999999999995559 ) ;
#253 = VECTOR ( 'NONE', #176, 1000.000000000000000 ) ;
#254 = DIRECTION ( 'NONE',  ( 1.000000000000000000, 0.000000000000000000, 0.000000000000000000 ) ) ;
#255 = CARTESIAN_POINT ( 'NONE',  ( 1.750000000000000000, 2.143131898507868297E-16, 230.0000000000000000 ) ) ;
#256 = DIRECTION ( 'NONE',  ( 1.000000000000000000, 0.000000000000000000, 0.000000000000000000 ) ) ;
#257 = TOROIDAL_SURFACE ( 'NONE', #175, 3.500000000000000444, 0.5000000000000000000 ) ;
#258 = CARTESIAN_POINT ( 'NONE',  ( 3.000000000000000444, 3.673940397442060361E-16, 5.500000000000005329 ) ) ;
#259 = ORIENTED_EDGE ( 'NONE', *, *, #274, .T. ) ;
#260 =( NAMED_UNIT ( * ) PLANE_ANGLE_UNIT ( ) SI_UNIT ( $, .RADIAN. ) );
#261 = DIRECTION ( 'NONE',  ( 0.000000000000000000, 0.000000000000000000, 1.000000000000000000 ) ) ;
#262 = EDGE_LOOP ( 'NONE', ( #56, #182 ) ) ;
#263 =( LENGTH_UNIT ( ) NAMED_UNIT ( * ) SI_UNIT ( .MILLI., .METRE. ) );
#264 = CIRCLE ( 'NONE', #214, 6.000000000000000888 ) ;
#265 = ORIENTED_EDGE ( 'NONE', *, *, #330, .F. ) ;
#266 = PERSON_AND_ORGANIZATION ( #197, #356 ) ;
#267 = LINE ( 'NONE', #231, #155 ) ;
#268 = ORIENTED_EDGE ( 'NONE', *, *, #46, .T. ) ;
#269 = DATE_TIME_ROLE ( 'creation_date' ) ;
#270 = VERTEX_POINT ( 'NONE', #124 ) ;
#271 = EDGE_CURVE ( 'NONE', #332, #136, #250, .T. ) ;
#272 = AXIS2_PLACEMENT_3D ( 'NONE', #165, #106, #207 ) ;
#273 = EDGE_LOOP ( 'NONE', ( #303, #29, #48, #294 ) ) ;
#274 = EDGE_CURVE ( 'NONE', #28, #372, #101, .T. ) ;
#275 = DATE_AND_TIME ( #151, #217 ) ;
#276 = EDGE_LOOP ( 'NONE', ( #122, #259 ) ) ;
#277 = DIRECTION ( 'NONE',  ( 1.000000000000000000, 0.000000000000000000, 0.000000000000000000 ) ) ;
#278 = ORIENTED_EDGE ( 'NONE', *, *, #243, .F. ) ;
#279 = CIRCLE ( 'NONE', #283, 3.000000000000000444 ) ;
#280 = FACE_OUTER_BOUND ( 'NONE', #120, .T. ) ;
#281 = DIRECTION ( 'NONE',  ( 1.000000000000000000, 0.000000000000000000, 0.000000000000000000 ) ) ;
#282 = CYLINDRICAL_SURFACE ( 'NONE', #360, 3.000000000000000444 ) ;
#283 = AXIS2_PLACEMENT_3D ( 'NONE', #227, #159, #220 ) ;
#284 = CARTESIAN_POINT ( 'NONE',  ( -3.000000000000000444, 0.000000000000000000, 230.0000000000000000 ) ) ;
#285 = DIRECTION ( 'NONE',  ( 0.000000000000000000, 0.000000000000000000, -1.000000000000000000 ) ) ;
#286 = DIRECTION ( 'NONE',  ( 0.000000000000000000, 0.000000000000000000, 1.000000000000000000 ) ) ;
#287 = CC_DESIGN_PERSON_AND_ORGANIZATION_ASSIGNMENT ( #114, #293, ( #242 ) ) ;
#288 = CARTESIAN_POINT ( 'NONE',  ( 3.000000000000000444, 3.673940397442060361E-16, 230.0000000000000000 ) ) ;
#289 = CIRCLE ( 'NONE', #248, 1.750000000000000000 ) ;
#290 = ADVANCED_FACE ( 'NONE', ( #192 ), #257, .F. ) ;
#291 = PERSON_AND_ORGANIZATION_ROLE ( 'design_owner' ) ;
#292 = DIRECTION ( 'NONE',  ( 1.000000000000000000, 0.000000000000000000, 0.000000000000000000 ) ) ;
#293 = PERSON_AND_ORGANIZATION_ROLE ( 'creator' ) ;
#294 = ORIENTED_EDGE ( 'NONE', *, *, #187, .F. ) ;
#295 = CARTESIAN_POINT ( 'NONE',  ( 0.000000000000000000, 0.000000000000000000, 230.0000000000000000 ) ) ;
#296 = CALENDAR_DATE ( 2022, 8, 7 ) ;
#297 = CARTESIAN_POINT ( 'NONE',  ( 0.000000000000000000, 0.000000000000000000, 5.000000000000000000 ) ) ;
#298 = ADVANCED_FACE ( 'NONE', ( #33 ), #200, .F. ) ;
#299 = EDGE_LOOP ( 'NONE', ( #265, #75 ) ) ;
#300 = LOCAL_TIME ( 17, 38, 50.00000000000000000, #57 ) ;
#301 = PERSON_AND_ORGANIZATION ( #197, #356 ) ;
#302 = CYLINDRICAL_SURFACE ( 'NONE', #149, 6.000000000000000888 ) ;
#303 = ORIENTED_EDGE ( 'NONE', *, *, #274, .F. ) ;
#304 = DIRECTION ( 'NONE',  ( 1.000000000000000000, 0.000000000000000000, 0.000000000000000000 ) ) ;
#305 = UNCERTAINTY_MEASURE_WITH_UNIT (LENGTH_MEASURE( 1.000000000000000082E-05 ), #263, 'distance_accuracy_value', 'NONE');
#306 = DIRECTION ( 'NONE',  ( 0.000000000000000000, 0.000000000000000000, 1.000000000000000000 ) ) ;
#307 = DIRECTION ( 'NONE',  ( 0.000000000000000000, 0.000000000000000000, 1.000000000000000000 ) ) ;
#308 = DIRECTION ( 'NONE',  ( 1.000000000000000000, 0.000000000000000000, 0.000000000000000000 ) ) ;
#309 = ADVANCED_FACE ( 'NONE', ( #32, #98 ), #329, .T. ) ;
#310 = DIRECTION ( 'NONE',  ( 1.000000000000000000, 0.000000000000000000, -0.000000000000000000 ) ) ;
#311 = AXIS2_PLACEMENT_3D ( 'NONE', #295, #86, #94 ) ;
#312 = AXIS2_PLACEMENT_3D ( 'NONE', #234, #198, #308 ) ;
#313 = CARTESIAN_POINT ( 'NONE',  ( -6.000000000000000888, 0.000000000000000000, 5.000000000000000000 ) ) ;
#314 = COORDINATED_UNIVERSAL_TIME_OFFSET ( 1, 0, .AHEAD. ) ;
#315 = DIRECTION ( 'NONE',  ( -0.000000000000000000, -0.000000000000000000, -1.000000000000000000 ) ) ;
#316 = EDGE_CURVE ( 'NONE', #45, #332, #166, .T. ) ;
#317 = ORIENTED_EDGE ( 'NONE', *, *, #141, .F. ) ;
#318 = PERSON_AND_ORGANIZATION_ROLE ( 'classification_officer' ) ;
#319 = CYLINDRICAL_SURFACE ( 'NONE', #311, 1.750000000000000000 ) ;
#320 = CALENDAR_DATE ( 2022, 8, 7 ) ;
#321 = EDGE_LOOP ( 'NONE', ( #317, #204, #350, #146 ) ) ;
#322 = DATE_AND_TIME ( #320, #142 ) ;
#323 = AXIS2_PLACEMENT_3D ( 'NONE', #145, #13, #135 ) ;
#324 = DIRECTION ( 'NONE',  ( -0.000000000000000000, -0.000000000000000000, -1.000000000000000000 ) ) ;
#325 = ORIENTED_EDGE ( 'NONE', *, *, #187, .T. ) ;
#326 = PERSON_AND_ORGANIZATION_ROLE ( 'creator' ) ;
#327 = ORIENTED_EDGE ( 'NONE', *, *, #157, .F. ) ;
#328 = PLANE ( 'NONE',  #185 ) ;
#329 = PLANE ( 'NONE',  #25 ) ;
#330 = EDGE_CURVE ( 'NONE', #136, #1, #289, .T. ) ;
#331 = DIRECTION ( 'NONE',  ( 1.000000000000000000, 0.000000000000000000, 0.000000000000000000 ) ) ;
#332 = VERTEX_POINT ( 'NONE', #334 ) ;
#333 = DIRECTION ( 'NONE',  ( 0.000000000000000000, 0.000000000000000000, 1.000000000000000000 ) ) ;
#334 = CARTESIAN_POINT ( 'NONE',  ( -1.750000000000000000, 0.000000000000000000, 230.0000000000000000 ) ) ;
#335 = FACE_OUTER_BOUND ( 'NONE', #64, .T. ) ;
#336 = EDGE_CURVE ( 'NONE', #362, #138, #132, .T. ) ;
#337 = APPLICATION_CONTEXT ( 'configuration controlled 3d designs of mechanical parts and assemblies' ) ;
#338 = ORIENTED_EDGE ( 'NONE', *, *, #316, .F. ) ;
#339 = DIRECTION ( 'NONE',  ( 0.000000000000000000, -1.000000000000000000, 0.000000000000000000 ) ) ;
#340 = VECTOR ( 'NONE', #60, 1000.000000000000000 ) ;
#341 = AXIS2_PLACEMENT_3D ( 'NONE', #5, #160, #357 ) ;
#342 = ORIENTED_EDGE ( 'NONE', *, *, #62, .T. ) ;
#343 = PERSON_AND_ORGANIZATION ( #197, #356 ) ;
#344 = EDGE_CURVE ( 'NONE', #352, #362, #49, .T. ) ;
#345 = EDGE_LOOP ( 'NONE', ( #232, #168 ) ) ;
#346 = APPROVAL_STATUS ( 'not_yet_approved' ) ;
#347 = SHAPE_DEFINITION_REPRESENTATION ( #154, #359 ) ;
#348 = DIRECTION ( 'NONE',  ( -1.000000000000000000, 0.000000000000000000, 0.000000000000000000 ) ) ;
#349 = DIRECTION ( 'NONE',  ( -1.000000000000000000, 1.224646799147354440E-16, 0.000000000000000000 ) ) ;
#350 = ORIENTED_EDGE ( 'NONE', *, *, #336, .T. ) ;
#351 = APPROVAL_ROLE ( '' ) ;
#352 = VERTEX_POINT ( 'NONE', #288 ) ;
#353 = CARTESIAN_POINT ( 'NONE',  ( 0.000000000000000000, 0.000000000000000000, 230.0000000000000000 ) ) ;
#354 = EDGE_LOOP ( 'NONE', ( #87, #150 ) ) ;
#355 = AXIS2_PLACEMENT_3D ( 'NONE', #119, #246, #349 ) ;
#356 = ORGANIZATION ( 'NEURÈENÝ', 'NEURÈENÝ', '' ) ;
#357 = DIRECTION ( 'NONE',  ( 1.000000000000000000, 0.000000000000000000, 0.000000000000000000 ) ) ;
#358 = CARTESIAN_POINT ( 'NONE',  ( 0.000000000000000000, 0.000000000000000000, 5.500000000000005329 ) ) ;
#359 = ADVANCED_BREP_SHAPE_REPRESENTATION ( '05be', ( #172, #312 ), #97 ) ;
#360 = AXIS2_PLACEMENT_3D ( 'NONE', #353, #31, #95 ) ;
#361 = CARTESIAN_POINT ( 'NONE',  ( 0.000000000000000000, 0.000000000000000000, 5.500000000000005329 ) ) ;
#362 = VERTEX_POINT ( 'NONE', #258 ) ;
#363 = DIRECTION ( 'NONE',  ( 0.000000000000000000, 0.000000000000000000, 1.000000000000000000 ) ) ;
#364 = FACE_OUTER_BOUND ( 'NONE', #237, .T. ) ;
#365 = VERTEX_POINT ( 'NONE', #130 ) ;
#366 = CARTESIAN_POINT ( 'NONE',  ( 0.000000000000000000, 0.000000000000000000, 0.000000000000000000 ) ) ;
#367 = CC_DESIGN_APPROVAL ( #118, ( #190 ) ) ;
#368 = DIRECTION ( 'NONE',  ( 1.000000000000000000, 0.000000000000000000, 0.000000000000000000 ) ) ;
#369 = EDGE_CURVE ( 'NONE', #372, #28, #186, .T. ) ;
#370 = ORIENTED_EDGE ( 'NONE', *, *, #117, .T. ) ;
#371 = DATE_AND_TIME ( #296, #233 ) ;
#372 = VERTEX_POINT ( 'NONE', #313 ) ;
#373 = AXIS2_PLACEMENT_3D ( 'NONE', #103, #363, #173 ) ;
#374 = FACE_OUTER_BOUND ( 'NONE', #14, .T. ) ;
#375 = DIRECTION ( 'NONE',  ( -0.000000000000000000, -0.000000000000000000, -1.000000000000000000 ) ) ;
#376 = DATE_AND_TIME ( #144, #300 ) ;
#377 = AXIS2_PLACEMENT_3D ( 'NONE', #68, #188, #281 ) ;
#378 = CARTESIAN_POINT ( 'NONE',  ( 0.000000000000000000, 0.000000000000000000, 5.000000000000000000 ) ) ;
#379 = ORIENTED_EDGE ( 'NONE', *, *, #117, .F. ) ;
#380 = CIRCLE ( 'NONE', #6, 6.000000000000000888 ) ;
#381 = APPROVAL_PERSON_ORGANIZATION ( #343, #118, #81 ) ;
ENDSEC;
END-ISO-10303-21;
