ISO-10303-21;
HEADER;
FILE_DESCRIPTION (( 'STEP AP203' ),
    '1' );
FILE_NAME ('ace2.STEP',
    '2022-07-08T15:02:16',
    ( '' ),
    ( '' ),
    'SwSTEP 2.0',
    'SolidWorks 2019',
    '' );
FILE_SCHEMA (( 'CONFIG_CONTROL_DESIGN' ));
ENDSEC;

DATA;
#1 = ORIENTED_EDGE ( 'NONE', *, *, #238, .F. ) ;
#2 = CARTESIAN_POINT ( 'NONE',  ( 0.000000000000000000, 0.000000000000000000, 7.500000000000007105 ) ) ;
#3 = EDGE_CURVE ( 'NONE', #302, #374, #316, .T. ) ;
#4 = DIRECTION ( 'NONE',  ( 0.000000000000000000, 0.000000000000000000, 1.000000000000000000 ) ) ;
#5 = CIRCLE ( 'NONE', #369, 10.00000000000000000 ) ;
#6 = PLANE ( 'NONE',  #286 ) ;
#7 = EDGE_CURVE ( 'NONE', #336, #14, #337, .T. ) ;
#8 = DIRECTION ( 'NONE',  ( -1.000000000000000000, 0.000000000000000000, 0.000000000000000000 ) ) ;
#9 = FACE_BOUND ( 'NONE', #170, .T. ) ;
#10 = AXIS2_PLACEMENT_3D ( 'NONE', #49, #109, #226 ) ;
#11 = DIRECTION ( 'NONE',  ( 0.000000000000000000, 0.000000000000000000, 1.000000000000000000 ) ) ;
#12 = VERTEX_POINT ( 'NONE', #346 ) ;
#13 = DIRECTION ( 'NONE',  ( -0.000000000000000000, -0.000000000000000000, -1.000000000000000000 ) ) ;
#14 = VERTEX_POINT ( 'NONE', #261 ) ;
#15 =( NAMED_UNIT ( * ) SI_UNIT ( $, .STERADIAN. ) SOLID_ANGLE_UNIT ( ) );
#16 = DIRECTION ( 'NONE',  ( -1.000000000000000000, 0.000000000000000000, 0.000000000000000000 ) ) ;
#17 = EDGE_CURVE ( 'NONE', #272, #318, #78, .T. ) ;
#18 = ORIENTED_EDGE ( 'NONE', *, *, #271, .F. ) ;
#19 = DIRECTION ( 'NONE',  ( 1.000000000000000000, 0.000000000000000000, 0.000000000000000000 ) ) ;
#20 = CARTESIAN_POINT ( 'NONE',  ( 0.000000000000000000, 0.000000000000000000, 157.0000000000000000 ) ) ;
#21 = VECTOR ( 'NONE', #178, 1000.000000000000000 ) ;
#22 = COORDINATED_UNIVERSAL_TIME_OFFSET ( 1, 0, .AHEAD. ) ;
#23 = DIRECTION ( 'NONE',  ( 1.000000000000000000, 0.000000000000000000, 0.000000000000000000 ) ) ;
#24 = CARTESIAN_POINT ( 'NONE',  ( 0.000000000000000000, 0.000000000000000000, 157.0000000000000000 ) ) ;
#25 = APPROVAL_STATUS ( 'not_yet_approved' ) ;
#26 = LOCAL_TIME ( 17, 2, 16.00000000000000000, #219 ) ;
#27 = ADVANCED_FACE ( 'NONE', ( #229 ), #201, .F. ) ;
#28 = CARTESIAN_POINT ( 'NONE',  ( 0.000000000000000000, 0.000000000000000000, 7.000000000000000000 ) ) ;
#29 = CARTESIAN_POINT ( 'NONE',  ( 0.000000000000000000, 0.000000000000000000, 0.000000000000000000 ) ) ;
#30 = CARTESIAN_POINT ( 'NONE',  ( 0.000000000000000000, 0.000000000000000000, 157.0000000000000000 ) ) ;
#31 = AXIS2_PLACEMENT_3D ( 'NONE', #376, #323, #138 ) ;
#32 = CARTESIAN_POINT ( 'NONE',  ( 0.000000000000000000, 0.000000000000000000, 7.500000000000007105 ) ) ;
#33 = CARTESIAN_POINT ( 'NONE',  ( -6.000000000000000888, 0.000000000000000000, 7.500000000000007105 ) ) ;
#34 = DIRECTION ( 'NONE',  ( 1.000000000000000000, 0.000000000000000000, 0.000000000000000000 ) ) ;
#35 = AXIS2_PLACEMENT_3D ( 'NONE', #165, #142, #378 ) ;
#36 = CIRCLE ( 'NONE', #43, 10.00000000000000000 ) ;
#37 = ADVANCED_FACE ( 'NONE', ( #47 ), #166, .F. ) ;
#38 = ORIENTED_EDGE ( 'NONE', *, *, #59, .T. ) ;
#39 = DIRECTION ( 'NONE',  ( -0.000000000000000000, -0.000000000000000000, -1.000000000000000000 ) ) ;
#40 = VERTEX_POINT ( 'NONE', #264 ) ;
#41 = ORIENTED_EDGE ( 'NONE', *, *, #64, .T. ) ;
#42 = APPLICATION_PROTOCOL_DEFINITION ( 'international standard', 'config_control_design', 1994, #234 ) ;
#43 = AXIS2_PLACEMENT_3D ( 'NONE', #334, #63, #60 ) ;
#44 = ORIENTED_EDGE ( 'NONE', *, *, #59, .F. ) ;
#45 = ORIENTED_EDGE ( 'NONE', *, *, #17, .F. ) ;
#46 = APPROVAL_ROLE ( '' ) ;
#47 = FACE_OUTER_BOUND ( 'NONE', #363, .T. ) ;
#48 = APPROVAL_DATE_TIME ( #317, #199 ) ;
#49 = CARTESIAN_POINT ( 'NONE',  ( 0.000000000000000000, 0.000000000000000000, 7.000000000000000000 ) ) ;
#50 = AXIS2_PLACEMENT_3D ( 'NONE', #28, #212, #149 ) ;
#51 = APPROVAL ( #132, 'NEURÈENÝ' ) ;
#52 = CIRCLE ( 'NONE', #367, 0.5000000000000004441 ) ;
#53 = CYLINDRICAL_SURFACE ( 'NONE', #277, 6.000000000000000888 ) ;
#54 = VERTEX_POINT ( 'NONE', #115 ) ;
#55 = CC_DESIGN_DATE_AND_TIME_ASSIGNMENT ( #221, #168, ( #186 ) ) ;
#56 = CARTESIAN_POINT ( 'NONE',  ( 0.000000000000000000, 0.000000000000000000, 157.0000000000000000 ) ) ;
#57 = FACE_OUTER_BOUND ( 'NONE', #71, .T. ) ;
#58 = DIRECTION ( 'NONE',  ( 1.000000000000000000, 0.000000000000000000, 0.000000000000000000 ) ) ;
#59 = EDGE_CURVE ( 'NONE', #68, #54, #148, .T. ) ;
#60 = DIRECTION ( 'NONE',  ( 1.000000000000000000, 0.000000000000000000, 0.000000000000000000 ) ) ;
#61 = CIRCLE ( 'NONE', #81, 6.000000000000000888 ) ;
#62 = CARTESIAN_POINT ( 'NONE',  ( 0.000000000000000000, 0.000000000000000000, 157.0000000000000000 ) ) ;
#63 = DIRECTION ( 'NONE',  ( 0.000000000000000000, 0.000000000000000000, 1.000000000000000000 ) ) ;
#64 = EDGE_CURVE ( 'NONE', #68, #302, #259, .T. ) ;
#65 = PERSON_AND_ORGANIZATION ( #134, #94 ) ;
#66 = EDGE_LOOP ( 'NONE', ( #276, #45, #133, #216 ) ) ;
#67 = APPROVAL_ROLE ( '' ) ;
#68 = VERTEX_POINT ( 'NONE', #353 ) ;
#69 = FACE_OUTER_BOUND ( 'NONE', #194, .T. ) ;
#70 = ORIENTED_EDGE ( 'NONE', *, *, #151, .T. ) ;
#71 = EDGE_LOOP ( 'NONE', ( #197, #103 ) ) ;
#72 = AXIS2_PLACEMENT_3D ( 'NONE', #289, #80, #19 ) ;
#73 = SECURITY_CLASSIFICATION_LEVEL ( 'unclassified' ) ;
#74 = ORIENTED_EDGE ( 'NONE', *, *, #159, .T. ) ;
#75 = ORIENTED_EDGE ( 'NONE', *, *, #377, .F. ) ;
#76 = PERSON_AND_ORGANIZATION_ROLE ( 'classification_officer' ) ;
#77 = EDGE_LOOP ( 'NONE', ( #1, #70, #254, #372 ) ) ;
#78 = CIRCLE ( 'NONE', #175, 6.000000000000000888 ) ;
#79 = DATE_AND_TIME ( #196, #135 ) ;
#80 = DIRECTION ( 'NONE',  ( 0.000000000000000000, 0.000000000000000000, 1.000000000000000000 ) ) ;
#81 = AXIS2_PLACEMENT_3D ( 'NONE', #2, #239, #58 ) ;
#82 = MANIFOLD_SOLID_BREP ( 'Odebrat vysunutím3', #192 ) ;
#83 = APPROVAL_DATE_TIME ( #283, #356 ) ;
#84 = LINE ( 'NONE', #204, #147 ) ;
#85 = ADVANCED_FACE ( 'NONE', ( #112 ), #262, .T. ) ;
#86 = CARTESIAN_POINT ( 'NONE',  ( 0.000000000000000000, 0.000000000000000000, 7.000000000000000000 ) ) ;
#87 = AXIS2_PLACEMENT_3D ( 'NONE', #86, #111, #350 ) ;
#88 = FACE_OUTER_BOUND ( 'NONE', #107, .T. ) ;
#89 = AXIS2_PLACEMENT_3D ( 'NONE', #297, #245, #8 ) ;
#90 = DIRECTION ( 'NONE',  ( 0.000000000000000000, 0.000000000000000000, 1.000000000000000000 ) ) ;
#91 = ADVANCED_FACE ( 'NONE', ( #205 ), #324, .F. ) ;
#92 = CARTESIAN_POINT ( 'NONE',  ( 10.00000000000000000, 1.224646799147353256E-15, 7.000000000000000000 ) ) ;
#93 = CYLINDRICAL_SURFACE ( 'NONE', #330, 2.750000000000000000 ) ;
#94 = ORGANIZATION ( 'NEURÈENÝ', 'NEURÈENÝ', '' ) ;
#95 = DIRECTION ( 'NONE',  ( 0.000000000000000000, 0.000000000000000000, -1.000000000000000000 ) ) ;
#96 = ADVANCED_FACE ( 'NONE', ( #202 ), #53, .T. ) ;
#97 = EDGE_LOOP ( 'NONE', ( #136, #307, #38, #131 ) ) ;
#98 = CARTESIAN_POINT ( 'NONE',  ( 0.000000000000000000, 0.000000000000000000, 157.0000000000000000 ) ) ;
#99 = ORIENTED_EDGE ( 'NONE', *, *, #159, .F. ) ;
#100 = DESIGN_CONTEXT ( 'detailed design', #331, 'design' ) ;
#101 = AXIS2_PLACEMENT_3D ( 'NONE', #30, #268, #122 ) ;
#102 = LINE ( 'NONE', #279, #167 ) ;
#103 = ORIENTED_EDGE ( 'NONE', *, *, #238, .T. ) ;
#104 = CARTESIAN_POINT ( 'NONE',  ( 10.00000000000000000, 1.224646799147353256E-15, 0.000000000000000000 ) ) ;
#105 = EDGE_LOOP ( 'NONE', ( #274, #260 ) ) ;
#106 = DIRECTION ( 'NONE',  ( 1.000000000000000000, 0.000000000000000000, -0.000000000000000000 ) ) ;
#107 = EDGE_LOOP ( 'NONE', ( #321, #341, #292, #99 ) ) ;
#108 = VECTOR ( 'NONE', #174, 1000.000000000000000 ) ;
#109 = DIRECTION ( 'NONE',  ( -0.000000000000000000, -0.000000000000000000, -1.000000000000000000 ) ) ;
#110 = CC_DESIGN_PERSON_AND_ORGANIZATION_ASSIGNMENT ( #253, #371, ( #186 ) ) ;
#111 = DIRECTION ( 'NONE',  ( -0.000000000000000000, -0.000000000000000000, -1.000000000000000000 ) ) ;
#112 = FACE_OUTER_BOUND ( 'NONE', #97, .T. ) ;
#113 = CARTESIAN_POINT ( 'NONE',  ( 6.500000000000000888, 0.000000000000000000, 7.500000000000007105 ) ) ;
#114 = AXIS2_PLACEMENT_3D ( 'NONE', #244, #116, #328 ) ;
#115 = CARTESIAN_POINT ( 'NONE',  ( -10.00000000000000000, 0.000000000000000000, 0.000000000000000000 ) ) ;
#116 = DIRECTION ( 'NONE',  ( 0.000000000000000000, 0.000000000000000000, 1.000000000000000000 ) ) ;
#117 = FACE_OUTER_BOUND ( 'NONE', #225, .T. ) ;
#118 = PRODUCT_DEFINITION_SHAPE ( 'NONE', 'NONE',  #186 ) ;
#119 = AXIS2_PLACEMENT_3D ( 'NONE', #362, #39, #270 ) ;
#120 = CC_DESIGN_PERSON_AND_ORGANIZATION_ASSIGNMENT ( #125, #342, ( #179 ) ) ;
#121 = CARTESIAN_POINT ( 'NONE',  ( 0.000000000000000000, 0.000000000000000000, 0.000000000000000000 ) ) ;
#122 = DIRECTION ( 'NONE',  ( 1.000000000000000000, 0.000000000000000000, 0.000000000000000000 ) ) ;
#123 = CARTESIAN_POINT ( 'NONE',  ( 0.000000000000000000, 0.000000000000000000, 7.000000000000000000 ) ) ;
#124 = AXIS2_PLACEMENT_3D ( 'NONE', #29, #269, #182 ) ;
#125 = PERSON_AND_ORGANIZATION ( #134, #94 ) ;
#126 = ORIENTED_EDGE ( 'NONE', *, *, #7, .T. ) ;
#127 = CC_DESIGN_APPROVAL ( #199, ( #169 ) ) ;
#128 =( LENGTH_UNIT ( ) NAMED_UNIT ( * ) SI_UNIT ( .MILLI., .METRE. ) );
#129 = EDGE_CURVE ( 'NONE', #12, #14, #52, .T. ) ;
#130 = DATE_AND_TIME ( #273, #360 ) ;
#131 = ORIENTED_EDGE ( 'NONE', *, *, #155, .T. ) ;
#132 = APPROVAL_STATUS ( 'not_yet_approved' ) ;
#133 = ORIENTED_EDGE ( 'NONE', *, *, #349, .T. ) ;
#134 = PERSON ( 'NEURÈENÝ', 'NEURÈENÝ', 'NEURÈENÝ', ('NEURÈENÝ'), ('NEURÈENÝ'), ('NEURÈENÝ') ) ;
#135 = LOCAL_TIME ( 17, 2, 16.00000000000000000, #137 ) ;
#136 = ORIENTED_EDGE ( 'NONE', *, *, #3, .F. ) ;
#137 = COORDINATED_UNIVERSAL_TIME_OFFSET ( 1, 0, .AHEAD. ) ;
#138 = DIRECTION ( 'NONE',  ( 1.000000000000000000, 0.000000000000000000, 0.000000000000000000 ) ) ;
#139 = CC_DESIGN_PERSON_AND_ORGANIZATION_ASSIGNMENT ( #146, #287, ( #169 ) ) ;
#140 = CIRCLE ( 'NONE', #101, 6.000000000000000888 ) ;
#141 = COORDINATED_UNIVERSAL_TIME_OFFSET ( 1, 0, .AHEAD. ) ;
#142 = DIRECTION ( 'NONE',  ( 0.000000000000000000, 0.000000000000000000, 1.000000000000000000 ) ) ;
#143 = ORIENTED_EDGE ( 'NONE', *, *, #305, .F. ) ;
#144 = PRODUCT_RELATED_PRODUCT_CATEGORY ( 'detail', '', ( #179 ) ) ;
#145 = DIRECTION ( 'NONE',  ( -0.000000000000000000, -0.000000000000000000, -1.000000000000000000 ) ) ;
#146 = PERSON_AND_ORGANIZATION ( #134, #94 ) ;
#147 = VECTOR ( 'NONE', #180, 1000.000000000000000 ) ;
#148 = LINE ( 'NONE', #237, #308 ) ;
#149 = DIRECTION ( 'NONE',  ( 1.000000000000000000, 0.000000000000000000, 0.000000000000000000 ) ) ;
#150 = DIRECTION ( 'NONE',  ( -1.000000000000000000, 0.000000000000000000, 0.000000000000000000 ) ) ;
#151 = EDGE_CURVE ( 'NONE', #318, #12, #84, .T. ) ;
#152 = DIRECTION ( 'NONE',  ( -0.000000000000000000, -0.000000000000000000, -1.000000000000000000 ) ) ;
#153 = AXIS2_PLACEMENT_3D ( 'NONE', #32, #154, #293 ) ;
#154 = DIRECTION ( 'NONE',  ( 0.000000000000000000, 0.000000000000000000, 1.000000000000000000 ) ) ;
#155 = EDGE_CURVE ( 'NONE', #54, #374, #5, .T. ) ;
#156 = CYLINDRICAL_SURFACE ( 'NONE', #89, 6.000000000000000888 ) ;
#157 = ORIENTED_EDGE ( 'NONE', *, *, #256, .F. ) ;
#158 = CARTESIAN_POINT ( 'NONE',  ( 6.000000000000000888, 7.347880794884120722E-16, 157.0000000000000000 ) ) ;
#159 = EDGE_CURVE ( 'NONE', #282, #348, #209, .T. ) ;
#160 = ORIENTED_EDGE ( 'NONE', *, *, #327, .T. ) ;
#161 = MECHANICAL_CONTEXT ( 'NONE', #234, 'mechanical' ) ;
#162 = VERTEX_POINT ( 'NONE', #33 ) ;
#163 = EDGE_CURVE ( 'NONE', #374, #54, #36, .T. ) ;
#164 = ORIENTED_EDGE ( 'NONE', *, *, #250, .F. ) ;
#165 = CARTESIAN_POINT ( 'NONE',  ( 0.000000000000000000, 0.000000000000000000, 7.500000000000007105 ) ) ;
#166 = TOROIDAL_SURFACE ( 'NONE', #35, 6.500000000000000888, 0.5000000000000000000 ) ;
#167 = VECTOR ( 'NONE', #364, 1000.000000000000000 ) ;
#168 = DATE_TIME_ROLE ( 'creation_date' ) ;
#169 = PRODUCT_DEFINITION_FORMATION_WITH_SPECIFIED_SOURCE ( 'LIBOVOLNÝ', '', #179, .NOT_KNOWN. ) ;
#170 = EDGE_LOOP ( 'NONE', ( #160, #126 ) ) ;
#171 = ADVANCED_FACE ( 'NONE', ( #9, #117 ), #6, .T. ) ;
#172 = ORIENTED_EDGE ( 'NONE', *, *, #3, .T. ) ;
#173 = SHAPE_DEFINITION_REPRESENTATION ( #118, #325 ) ;
#174 = DIRECTION ( 'NONE',  ( -0.000000000000000000, -0.000000000000000000, -1.000000000000000000 ) ) ;
#175 = AXIS2_PLACEMENT_3D ( 'NONE', #20, #288, #23 ) ;
#176 = DIRECTION ( 'NONE',  ( 0.000000000000000000, 0.000000000000000000, -1.000000000000000000 ) ) ;
#177 = ADVANCED_FACE ( 'NONE', ( #241 ), #156, .T. ) ;
#178 = DIRECTION ( 'NONE',  ( 0.000000000000000000, 0.000000000000000000, -1.000000000000000000 ) ) ;
#179 = PRODUCT ( 'ace2', 'ace2', '', ( #161 ) ) ;
#180 = DIRECTION ( 'NONE',  ( -0.000000000000000000, -0.000000000000000000, -1.000000000000000000 ) ) ;
#181 = DIRECTION ( 'NONE',  ( 1.000000000000000000, 0.000000000000000000, -0.000000000000000000 ) ) ;
#182 = DIRECTION ( 'NONE',  ( 1.000000000000000000, 0.000000000000000000, 0.000000000000000000 ) ) ;
#183 = CARTESIAN_POINT ( 'NONE',  ( 2.750000000000000000, 3.367778697655221012E-16, 0.000000000000000000 ) ) ;
#184 = AXIS2_PLACEMENT_3D ( 'NONE', #354, #295, #359 ) ;
#185 = DIRECTION ( 'NONE',  ( 1.000000000000000000, 0.000000000000000000, 0.000000000000000000 ) ) ;
#186 = PRODUCT_DEFINITION ( 'NEZNÁMÝ', '', #169, #100 ) ;
#187 = ORIENTED_EDGE ( 'NONE', *, *, #271, .T. ) ;
#188 = CARTESIAN_POINT ( 'NONE',  ( 0.000000000000000000, 0.000000000000000000, 7.000000000000000000 ) ) ;
#189 = EDGE_LOOP ( 'NONE', ( #143, #249, #74, #217 ) ) ;
#190 = PLANE ( 'NONE',  #218 ) ;
#191 = EDGE_LOOP ( 'NONE', ( #164, #75 ) ) ;
#192 = CLOSED_SHELL ( 'NONE', ( #223, #27, #177, #322, #85, #171, #315, #96, #290, #37, #91 ) ) ;
#193 = CC_DESIGN_APPROVAL ( #51, ( #186 ) ) ;
#194 = EDGE_LOOP ( 'NONE', ( #252, #172, #222, #44 ) ) ;
#195 = LOCAL_TIME ( 17, 2, 16.00000000000000000, #22 ) ;
#196 = CALENDAR_DATE ( 2022, 8, 7 ) ;
#197 = ORIENTED_EDGE ( 'NONE', *, *, #17, .T. ) ;
#198 = DATE_TIME_ROLE ( 'classification_date' ) ;
#199 = APPROVAL ( #320, 'NEURÈENÝ' ) ;
#200 = ORIENTED_EDGE ( 'NONE', *, *, #155, .F. ) ;
#201 = TOROIDAL_SURFACE ( 'NONE', #72, 6.500000000000000888, 0.5000000000000000000 ) ;
#202 = FACE_OUTER_BOUND ( 'NONE', #66, .T. ) ;
#203 = PERSON_AND_ORGANIZATION ( #134, #94 ) ;
#204 = CARTESIAN_POINT ( 'NONE',  ( 6.000000000000000888, 7.347880794884120722E-16, 157.0000000000000000 ) ) ;
#205 = FACE_OUTER_BOUND ( 'NONE', #189, .T. ) ;
#206 = EDGE_CURVE ( 'NONE', #370, #348, #263, .T. ) ;
#207 = VECTOR ( 'NONE', #265, 1000.000000000000000 ) ;
#208 = CARTESIAN_POINT ( 'NONE',  ( -2.750000000000000000, 0.000000000000000000, 157.0000000000000000 ) ) ;
#209 = LINE ( 'NONE', #294, #207 ) ;
#210 = CARTESIAN_POINT ( 'NONE',  ( 0.000000000000000000, 0.000000000000000000, 0.000000000000000000 ) ) ;
#211 = EDGE_CURVE ( 'NONE', #12, #162, #301, .T. ) ;
#212 = DIRECTION ( 'NONE',  ( 0.000000000000000000, 0.000000000000000000, 1.000000000000000000 ) ) ;
#213 = AXIS2_PLACEMENT_3D ( 'NONE', #98, #344, #185 ) ;
#214 = DIRECTION ( 'NONE',  ( 1.000000000000000000, 0.000000000000000000, 0.000000000000000000 ) ) ;
#215 = APPLICATION_PROTOCOL_DEFINITION ( 'international standard', 'config_control_design', 1994, #331 ) ;
#216 = ORIENTED_EDGE ( 'NONE', *, *, #256, .T. ) ;
#217 = ORIENTED_EDGE ( 'NONE', *, *, #275, .T. ) ;
#218 = AXIS2_PLACEMENT_3D ( 'NONE', #373, #11, #106 ) ;
#219 = COORDINATED_UNIVERSAL_TIME_OFFSET ( 1, 0, .AHEAD. ) ;
#220 = EDGE_LOOP ( 'NONE', ( #157, #187, #365, #309 ) ) ;
#221 = DATE_AND_TIME ( #340, #26 ) ;
#222 = ORIENTED_EDGE ( 'NONE', *, *, #163, .T. ) ;
#223 = ADVANCED_FACE ( 'NONE', ( #88 ), #93, .F. ) ;
#224 = CARTESIAN_POINT ( 'NONE',  ( -2.750000000000000000, 0.000000000000000000, 0.000000000000000000 ) ) ;
#225 = EDGE_LOOP ( 'NONE', ( #41, #339 ) ) ;
#226 = DIRECTION ( 'NONE',  ( 1.000000000000000000, 0.000000000000000000, 0.000000000000000000 ) ) ;
#227 = CC_DESIGN_SECURITY_CLASSIFICATION ( #257, ( #169 ) ) ;
#228 = APPROVAL_ROLE ( '' ) ;
#229 = FACE_OUTER_BOUND ( 'NONE', #220, .T. ) ;
#230 = CALENDAR_DATE ( 2022, 8, 7 ) ;
#231 = EDGE_CURVE ( 'NONE', #302, #68, #338, .T. ) ;
#232 = DIRECTION ( 'NONE',  ( -1.000000000000000000, 0.000000000000000000, 0.000000000000000000 ) ) ;
#233 = CIRCLE ( 'NONE', #114, 2.750000000000000000 ) ;
#234 = APPLICATION_CONTEXT ( 'configuration controlled 3d designs of mechanical parts and assemblies' ) ;
#235 = DIRECTION ( 'NONE',  ( 0.000000000000000000, -1.000000000000000000, 0.000000000000000000 ) ) ;
#236 = APPROVAL_PERSON_ORGANIZATION ( #314, #356, #46 ) ;
#237 = CARTESIAN_POINT ( 'NONE',  ( -10.00000000000000000, 0.000000000000000000, 7.000000000000000000 ) ) ;
#238 = EDGE_CURVE ( 'NONE', #318, #272, #140, .T. ) ;
#239 = DIRECTION ( 'NONE',  ( 0.000000000000000000, 0.000000000000000000, 1.000000000000000000 ) ) ;
#240 = CIRCLE ( 'NONE', #119, 6.500000000000000888 ) ;
#241 = FACE_OUTER_BOUND ( 'NONE', #77, .T. ) ;
#242 = CC_DESIGN_PERSON_AND_ORGANIZATION_ASSIGNMENT ( #203, #351, ( #169 ) ) ;
#243 = DIRECTION ( 'NONE',  ( 1.000000000000000000, 0.000000000000000000, 0.000000000000000000 ) ) ;
#244 = CARTESIAN_POINT ( 'NONE',  ( 0.000000000000000000, 0.000000000000000000, 157.0000000000000000 ) ) ;
#245 = DIRECTION ( 'NONE',  ( -0.000000000000000000, -0.000000000000000000, -1.000000000000000000 ) ) ;
#246 = AXIS2_PLACEMENT_3D ( 'NONE', #210, #152, #243 ) ;
#247 = CARTESIAN_POINT ( 'NONE',  ( -6.500000000000000888, 7.960204194457796463E-16, 7.000000000000002665 ) ) ;
#248 = APPROVAL_PERSON_ORGANIZATION ( #379, #199, #228 ) ;
#249 = ORIENTED_EDGE ( 'NONE', *, *, #377, .T. ) ;
#250 = EDGE_CURVE ( 'NONE', #282, #40, #233, .T. ) ;
#251 = FACE_OUTER_BOUND ( 'NONE', #280, .T. ) ;
#252 = ORIENTED_EDGE ( 'NONE', *, *, #231, .F. ) ;
#253 = PERSON_AND_ORGANIZATION ( #134, #94 ) ;
#254 = ORIENTED_EDGE ( 'NONE', *, *, #211, .T. ) ;
#255 = APPROVAL_DATE_TIME ( #130, #51 ) ;
#256 = EDGE_CURVE ( 'NONE', #162, #12, #61, .T. ) ;
#257 = SECURITY_CLASSIFICATION ( '', '', #73 ) ;
#258 = ORIENTED_EDGE ( 'NONE', *, *, #7, .F. ) ;
#259 = CIRCLE ( 'NONE', #31, 10.00000000000000000 ) ;
#260 = ORIENTED_EDGE ( 'NONE', *, *, #206, .F. ) ;
#261 = CARTESIAN_POINT ( 'NONE',  ( 6.500000000000000888, 0.000000000000000000, 7.000000000000002665 ) ) ;
#262 = CYLINDRICAL_SURFACE ( 'NONE', #87, 10.00000000000000000 ) ;
#263 = CIRCLE ( 'NONE', #124, 2.750000000000000000 ) ;
#264 = CARTESIAN_POINT ( 'NONE',  ( 2.750000000000000000, 3.367778697655221012E-16, 157.0000000000000000 ) ) ;
#265 = DIRECTION ( 'NONE',  ( 0.000000000000000000, 0.000000000000000000, -1.000000000000000000 ) ) ;
#266 = DIRECTION ( 'NONE',  ( 0.000000000000000000, 0.000000000000000000, 1.000000000000000000 ) ) ;
#267 = CIRCLE ( 'NONE', #213, 2.750000000000000000 ) ;
#268 = DIRECTION ( 'NONE',  ( 0.000000000000000000, 0.000000000000000000, 1.000000000000000000 ) ) ;
#269 = DIRECTION ( 'NONE',  ( -0.000000000000000000, -0.000000000000000000, -1.000000000000000000 ) ) ;
#270 = DIRECTION ( 'NONE',  ( 1.000000000000000000, 0.000000000000000000, 0.000000000000000000 ) ) ;
#271 = EDGE_CURVE ( 'NONE', #162, #336, #355, .T. ) ;
#272 = VERTEX_POINT ( 'NONE', #332 ) ;
#273 = CALENDAR_DATE ( 2022, 8, 7 ) ;
#274 = ORIENTED_EDGE ( 'NONE', *, *, #275, .F. ) ;
#275 = EDGE_CURVE ( 'NONE', #348, #370, #278, .T. ) ;
#276 = ORIENTED_EDGE ( 'NONE', *, *, #151, .F. ) ;
#277 = AXIS2_PLACEMENT_3D ( 'NONE', #24, #145, #380 ) ;
#278 = CIRCLE ( 'NONE', #246, 2.750000000000000000 ) ;
#279 = CARTESIAN_POINT ( 'NONE',  ( -6.000000000000000888, 0.000000000000000000, 157.0000000000000000 ) ) ;
#280 = EDGE_LOOP ( 'NONE', ( #200, #345 ) ) ;
#281 = LOCAL_TIME ( 17, 2, 16.00000000000000000, #141 ) ;
#282 = VERTEX_POINT ( 'NONE', #208 ) ;
#283 = DATE_AND_TIME ( #230, #281 ) ;
#284 = DIRECTION ( 'NONE',  ( -0.000000000000000000, -0.000000000000000000, -1.000000000000000000 ) ) ;
#285 = AXIS2_PLACEMENT_3D ( 'NONE', #56, #176, #232 ) ;
#286 = AXIS2_PLACEMENT_3D ( 'NONE', #123, #266, #181 ) ;
#287 = PERSON_AND_ORGANIZATION_ROLE ( 'creator' ) ;
#288 = DIRECTION ( 'NONE',  ( 0.000000000000000000, 0.000000000000000000, 1.000000000000000000 ) ) ;
#289 = CARTESIAN_POINT ( 'NONE',  ( 0.000000000000000000, 0.000000000000000000, 7.500000000000007105 ) ) ;
#290 = ADVANCED_FACE ( 'NONE', ( #326, #57 ), #358, .T. ) ;
#291 = CALENDAR_DATE ( 2022, 8, 7 ) ;
#292 = ORIENTED_EDGE ( 'NONE', *, *, #206, .T. ) ;
#293 = DIRECTION ( 'NONE',  ( 1.000000000000000000, 0.000000000000000000, 0.000000000000000000 ) ) ;
#294 = CARTESIAN_POINT ( 'NONE',  ( -2.750000000000000000, 0.000000000000000000, 157.0000000000000000 ) ) ;
#295 = DIRECTION ( 'NONE',  ( 1.224646799147353207E-16, 1.000000000000000000, -0.000000000000000000 ) ) ;
#296 = AXIS2_PLACEMENT_3D ( 'NONE', #299, #335, #34 ) ;
#297 = CARTESIAN_POINT ( 'NONE',  ( 0.000000000000000000, 0.000000000000000000, 157.0000000000000000 ) ) ;
#298 = LINE ( 'NONE', #329, #21 ) ;
#299 = CARTESIAN_POINT ( 'NONE',  ( 0.000000000000000000, 0.000000000000000000, 0.000000000000000000 ) ) ;
#300 = CYLINDRICAL_SURFACE ( 'NONE', #381, 10.00000000000000000 ) ;
#301 = CIRCLE ( 'NONE', #153, 6.000000000000000888 ) ;
#302 = VERTEX_POINT ( 'NONE', #92 ) ;
#303 = UNCERTAINTY_MEASURE_WITH_UNIT (LENGTH_MEASURE( 1.000000000000000082E-05 ), #128, 'distance_accuracy_value', 'NONE');
#304 = COORDINATED_UNIVERSAL_TIME_OFFSET ( 1, 0, .AHEAD. ) ;
#305 = EDGE_CURVE ( 'NONE', #40, #370, #298, .T. ) ;
#306 = FACE_BOUND ( 'NONE', #105, .T. ) ;
#307 = ORIENTED_EDGE ( 'NONE', *, *, #64, .F. ) ;
#308 = VECTOR ( 'NONE', #284, 1000.000000000000000 ) ;
#309 = ORIENTED_EDGE ( 'NONE', *, *, #129, .F. ) ;
#310 = APPROVAL_PERSON_ORGANIZATION ( #65, #51, #67 ) ;
#311 =( GEOMETRIC_REPRESENTATION_CONTEXT ( 3 ) GLOBAL_UNCERTAINTY_ASSIGNED_CONTEXT ( ( #303 ) ) GLOBAL_UNIT_ASSIGNED_CONTEXT ( ( #128, #368, #15 ) ) REPRESENTATION_CONTEXT ( 'NONE', 'WORKASPACE' ) );
#312 = PERSON_AND_ORGANIZATION ( #134, #94 ) ;
#313 = ORIENTED_EDGE ( 'NONE', *, *, #211, .F. ) ;
#314 = PERSON_AND_ORGANIZATION ( #134, #94 ) ;
#315 = ADVANCED_FACE ( 'NONE', ( #306, #251 ), #190, .F. ) ;
#316 = LINE ( 'NONE', #375, #108 ) ;
#317 = DATE_AND_TIME ( #291, #195 ) ;
#318 = VERTEX_POINT ( 'NONE', #158 ) ;
#319 = AXIS2_PLACEMENT_3D ( 'NONE', #62, #4, #357 ) ;
#320 = APPROVAL_STATUS ( 'not_yet_approved' ) ;
#321 = ORIENTED_EDGE ( 'NONE', *, *, #250, .T. ) ;
#322 = ADVANCED_FACE ( 'NONE', ( #69 ), #300, .T. ) ;
#323 = DIRECTION ( 'NONE',  ( 0.000000000000000000, 0.000000000000000000, 1.000000000000000000 ) ) ;
#324 = CYLINDRICAL_SURFACE ( 'NONE', #285, 2.750000000000000000 ) ;
#325 = ADVANCED_BREP_SHAPE_REPRESENTATION ( 'ace2', ( #82, #296 ), #311 ) ;
#326 = FACE_BOUND ( 'NONE', #191, .T. ) ;
#327 = EDGE_CURVE ( 'NONE', #14, #336, #240, .T. ) ;
#328 = DIRECTION ( 'NONE',  ( 1.000000000000000000, 0.000000000000000000, 0.000000000000000000 ) ) ;
#329 = CARTESIAN_POINT ( 'NONE',  ( 2.750000000000000000, 3.367778697655221012E-16, 157.0000000000000000 ) ) ;
#330 = AXIS2_PLACEMENT_3D ( 'NONE', #361, #95, #150 ) ;
#331 = APPLICATION_CONTEXT ( 'configuration controlled 3d designs of mechanical parts and assemblies' ) ;
#332 = CARTESIAN_POINT ( 'NONE',  ( -6.000000000000000888, 0.000000000000000000, 157.0000000000000000 ) ) ;
#333 = CC_DESIGN_PERSON_AND_ORGANIZATION_ASSIGNMENT ( #312, #76, ( #257 ) ) ;
#334 = CARTESIAN_POINT ( 'NONE',  ( 0.000000000000000000, 0.000000000000000000, 0.000000000000000000 ) ) ;
#335 = DIRECTION ( 'NONE',  ( 0.000000000000000000, 0.000000000000000000, 1.000000000000000000 ) ) ;
#336 = VERTEX_POINT ( 'NONE', #247 ) ;
#337 = CIRCLE ( 'NONE', #10, 6.500000000000000888 ) ;
#338 = CIRCLE ( 'NONE', #50, 10.00000000000000000 ) ;
#339 = ORIENTED_EDGE ( 'NONE', *, *, #231, .T. ) ;
#340 = CALENDAR_DATE ( 2022, 8, 7 ) ;
#341 = ORIENTED_EDGE ( 'NONE', *, *, #305, .T. ) ;
#342 = PERSON_AND_ORGANIZATION_ROLE ( 'design_owner' ) ;
#343 = ORIENTED_EDGE ( 'NONE', *, *, #129, .T. ) ;
#344 = DIRECTION ( 'NONE',  ( 0.000000000000000000, 0.000000000000000000, 1.000000000000000000 ) ) ;
#345 = ORIENTED_EDGE ( 'NONE', *, *, #163, .F. ) ;
#346 = CARTESIAN_POINT ( 'NONE',  ( 6.000000000000000888, 7.347880794884120722E-16, 7.500000000000007105 ) ) ;
#347 = CC_DESIGN_APPROVAL ( #356, ( #257 ) ) ;
#348 = VERTEX_POINT ( 'NONE', #224 ) ;
#349 = EDGE_CURVE ( 'NONE', #272, #162, #102, .T. ) ;
#350 = DIRECTION ( 'NONE',  ( -1.000000000000000000, 0.000000000000000000, 0.000000000000000000 ) ) ;
#351 = PERSON_AND_ORGANIZATION_ROLE ( 'design_supplier' ) ;
#352 = DIRECTION ( 'NONE',  ( 0.000000000000000000, 0.000000000000000000, -1.000000000000000000 ) ) ;
#353 = CARTESIAN_POINT ( 'NONE',  ( -10.00000000000000000, 0.000000000000000000, 7.000000000000000000 ) ) ;
#354 = CARTESIAN_POINT ( 'NONE',  ( -6.500000000000000888, 7.960204194457796463E-16, 7.500000000000007105 ) ) ;
#355 = CIRCLE ( 'NONE', #184, 0.5000000000000004441 ) ;
#356 = APPROVAL ( #25, 'NEURÈENÝ' ) ;
#357 = DIRECTION ( 'NONE',  ( 1.000000000000000000, 0.000000000000000000, -0.000000000000000000 ) ) ;
#358 = PLANE ( 'NONE',  #319 ) ;
#359 = DIRECTION ( 'NONE',  ( -1.000000000000000000, 1.224646799147351482E-16, 0.000000000000000000 ) ) ;
#360 = LOCAL_TIME ( 17, 2, 16.00000000000000000, #304 ) ;
#361 = CARTESIAN_POINT ( 'NONE',  ( 0.000000000000000000, 0.000000000000000000, 157.0000000000000000 ) ) ;
#362 = CARTESIAN_POINT ( 'NONE',  ( 0.000000000000000000, 0.000000000000000000, 7.000000000000000000 ) ) ;
#363 = EDGE_LOOP ( 'NONE', ( #18, #313, #343, #258 ) ) ;
#364 = DIRECTION ( 'NONE',  ( -0.000000000000000000, -0.000000000000000000, -1.000000000000000000 ) ) ;
#365 = ORIENTED_EDGE ( 'NONE', *, *, #327, .F. ) ;
#366 = CC_DESIGN_DATE_AND_TIME_ASSIGNMENT ( #79, #198, ( #257 ) ) ;
#367 = AXIS2_PLACEMENT_3D ( 'NONE', #113, #235, #352 ) ;
#368 =( NAMED_UNIT ( * ) PLANE_ANGLE_UNIT ( ) SI_UNIT ( $, .RADIAN. ) );
#369 = AXIS2_PLACEMENT_3D ( 'NONE', #121, #90, #214 ) ;
#370 = VERTEX_POINT ( 'NONE', #183 ) ;
#371 = PERSON_AND_ORGANIZATION_ROLE ( 'creator' ) ;
#372 = ORIENTED_EDGE ( 'NONE', *, *, #349, .F. ) ;
#373 = CARTESIAN_POINT ( 'NONE',  ( 0.000000000000000000, 0.000000000000000000, 0.000000000000000000 ) ) ;
#374 = VERTEX_POINT ( 'NONE', #104 ) ;
#375 = CARTESIAN_POINT ( 'NONE',  ( 10.00000000000000000, 1.224646799147353256E-15, 7.000000000000000000 ) ) ;
#376 = CARTESIAN_POINT ( 'NONE',  ( 0.000000000000000000, 0.000000000000000000, 7.000000000000000000 ) ) ;
#377 = EDGE_CURVE ( 'NONE', #40, #282, #267, .T. ) ;
#378 = DIRECTION ( 'NONE',  ( 1.000000000000000000, 0.000000000000000000, 0.000000000000000000 ) ) ;
#379 = PERSON_AND_ORGANIZATION ( #134, #94 ) ;
#380 = DIRECTION ( 'NONE',  ( -1.000000000000000000, 0.000000000000000000, 0.000000000000000000 ) ) ;
#381 = AXIS2_PLACEMENT_3D ( 'NONE', #188, #13, #16 ) ;
ENDSEC;
END-ISO-10303-21;
