ISO-10303-21;
HEADER;
FILE_DESCRIPTION (( 'STEP AP203' ),
    '1' );
FILE_NAME ('6c19.STEP',
    '2022-07-08T15:15:09',
    ( '' ),
    ( '' ),
    'SwSTEP 2.0',
    'SolidWorks 2019',
    '' );
FILE_SCHEMA (( 'CONFIG_CONTROL_DESIGN' ));
ENDSEC;

DATA;
#1 = DIRECTION ( 'NONE',  ( 0.000000000000000000, 0.000000000000000000, -1.000000000000000000 ) ) ;
#2 = CIRCLE ( 'NONE', #216, 0.5000000000000004441 ) ;
#3 = FACE_OUTER_BOUND ( 'NONE', #235, .T. ) ;
#4 = AXIS2_PLACEMENT_3D ( 'NONE', #110, #365, #41 ) ;
#5 = VECTOR ( 'NONE', #83, 1000.000000000000000 ) ;
#6 = EDGE_LOOP ( 'NONE', ( #281, #176, #246, #123 ) ) ;
#7 = CARTESIAN_POINT ( 'NONE',  ( 2.500000000000000000, 3.061616997868383141E-16, 555.0000000000000000 ) ) ;
#8 = ORIENTED_EDGE ( 'NONE', *, *, #314, .F. ) ;
#9 = CYLINDRICAL_SURFACE ( 'NONE', #272, 8.000000000000000000 ) ;
#10 = DIRECTION ( 'NONE',  ( 1.000000000000000000, 0.000000000000000000, 0.000000000000000000 ) ) ;
#11 = ORIENTED_EDGE ( 'NONE', *, *, #54, .T. ) ;
#12 = ADVANCED_FACE ( 'NONE', ( #3 ), #362, .F. ) ;
#13 = PERSON_AND_ORGANIZATION ( #49, #242 ) ;
#14 = VECTOR ( 'NONE', #132, 1000.000000000000000 ) ;
#15 = CC_DESIGN_APPROVAL ( #224, ( #55 ) ) ;
#16 = DIRECTION ( 'NONE',  ( 1.000000000000000000, 0.000000000000000000, -0.000000000000000000 ) ) ;
#17 = ORIENTED_EDGE ( 'NONE', *, *, #381, .T. ) ;
#18 = DIRECTION ( 'NONE',  ( 1.000000000000000000, 0.000000000000000000, 0.000000000000000000 ) ) ;
#19 = CARTESIAN_POINT ( 'NONE',  ( 0.000000000000000000, 0.000000000000000000, 0.000000000000000000 ) ) ;
#20 = PERSON_AND_ORGANIZATION_ROLE ( 'classification_officer' ) ;
#21 = DIRECTION ( 'NONE',  ( 0.000000000000000000, 0.000000000000000000, 1.000000000000000000 ) ) ;
#22 = CARTESIAN_POINT ( 'NONE',  ( -8.000000000000000000, 0.000000000000000000, 5.000000000000000000 ) ) ;
#23 = COORDINATED_UNIVERSAL_TIME_OFFSET ( 1, 0, .AHEAD. ) ;
#24 = VECTOR ( 'NONE', #151, 1000.000000000000000 ) ;
#25 = VERTEX_POINT ( 'NONE', #318 ) ;
#26 = PERSON_AND_ORGANIZATION ( #49, #242 ) ;
#27 = APPROVAL_PERSON_ORGANIZATION ( #221, #349, #100 ) ;
#28 = EDGE_CURVE ( 'NONE', #356, #25, #358, .T. ) ;
#29 = DIRECTION ( 'NONE',  ( 1.000000000000000000, 0.000000000000000000, 0.000000000000000000 ) ) ;
#30 = VERTEX_POINT ( 'NONE', #61 ) ;
#31 = ORIENTED_EDGE ( 'NONE', *, *, #250, .T. ) ;
#32 = CARTESIAN_POINT ( 'NONE',  ( 8.000000000000000000, 9.797174393178825657E-16, 5.000000000000000000 ) ) ;
#33 = CARTESIAN_POINT ( 'NONE',  ( -2.500000000000000000, 0.000000000000000000, 555.0000000000000000 ) ) ;
#34 = ORIENTED_EDGE ( 'NONE', *, *, #143, .F. ) ;
#35 = ADVANCED_BREP_SHAPE_REPRESENTATION ( '6c19', ( #141, #301 ), #234 ) ;
#36 = CARTESIAN_POINT ( 'NONE',  ( 0.000000000000000000, 0.000000000000000000, 5.499999999999949374 ) ) ;
#37 = FACE_OUTER_BOUND ( 'NONE', #206, .T. ) ;
#38 = ORIENTED_EDGE ( 'NONE', *, *, #28, .F. ) ;
#39 = DIRECTION ( 'NONE',  ( 0.000000000000000000, 0.000000000000000000, -1.000000000000000000 ) ) ;
#40 = AXIS2_PLACEMENT_3D ( 'NONE', #208, #323, #64 ) ;
#41 = DIRECTION ( 'NONE',  ( -1.000000000000000000, 0.000000000000000000, 0.000000000000000000 ) ) ;
#42 = VERTEX_POINT ( 'NONE', #260 ) ;
#43 = ADVANCED_FACE ( 'NONE', ( #119, #232 ), #354, .F. ) ;
#44 = CARTESIAN_POINT ( 'NONE',  ( 0.000000000000000000, 0.000000000000000000, 5.000000000000000000 ) ) ;
#45 = CARTESIAN_POINT ( 'NONE',  ( 0.000000000000000000, 0.000000000000000000, 555.0000000000000000 ) ) ;
#46 = CALENDAR_DATE ( 2022, 8, 7 ) ;
#47 = DATE_AND_TIME ( #46, #227 ) ;
#48 = DATE_TIME_ROLE ( 'creation_date' ) ;
#49 = PERSON ( 'NEURÈENÝ', 'NEURÈENÝ', 'NEURÈENÝ', ('NEURÈENÝ'), ('NEURÈENÝ'), ('NEURÈENÝ') ) ;
#50 = APPROVAL_DATE_TIME ( #47, #224 ) ;
#51 = AXIS2_PLACEMENT_3D ( 'NONE', #68, #274, #153 ) ;
#52 = AXIS2_PLACEMENT_3D ( 'NONE', #98, #308, #185 ) ;
#53 = CIRCLE ( 'NONE', #202, 5.500000000000000000 ) ;
#54 = EDGE_CURVE ( 'NONE', #106, #304, #66, .T. ) ;
#55 = PRODUCT_DEFINITION ( 'NEZNÁMÝ', '', #289, #351 ) ;
#56 = AXIS2_PLACEMENT_3D ( 'NONE', #215, #328, #130 ) ;
#57 = AXIS2_PLACEMENT_3D ( 'NONE', #360, #364, #95 ) ;
#58 = VECTOR ( 'NONE', #122, 1000.000000000000000 ) ;
#59 = ORIENTED_EDGE ( 'NONE', *, *, #254, .F. ) ;
#60 = EDGE_CURVE ( 'NONE', #42, #363, #195, .T. ) ;
#61 = CARTESIAN_POINT ( 'NONE',  ( -5.000000000000000000, 0.000000000000000000, 5.499999999999949374 ) ) ;
#62 = CARTESIAN_POINT ( 'NONE',  ( 0.000000000000000000, 0.000000000000000000, 5.499999999999949374 ) ) ;
#63 = EDGE_LOOP ( 'NONE', ( #296, #220 ) ) ;
#64 = DIRECTION ( 'NONE',  ( 1.000000000000000000, 0.000000000000000000, 0.000000000000000000 ) ) ;
#65 = EDGE_CURVE ( 'NONE', #341, #290, #90, .T. ) ;
#66 = LINE ( 'NONE', #104, #177 ) ;
#67 = ORIENTED_EDGE ( 'NONE', *, *, #233, .F. ) ;
#68 = CARTESIAN_POINT ( 'NONE',  ( 0.000000000000000000, 0.000000000000000000, 0.000000000000000000 ) ) ;
#69 = DIRECTION ( 'NONE',  ( 0.000000000000000000, -1.000000000000000000, 0.000000000000000000 ) ) ;
#70 = ORIENTED_EDGE ( 'NONE', *, *, #286, .F. ) ;
#71 = CARTESIAN_POINT ( 'NONE',  ( -8.000000000000000000, 0.000000000000000000, 0.000000000000000000 ) ) ;
#72 = DIRECTION ( 'NONE',  ( -0.000000000000000000, -0.000000000000000000, -1.000000000000000000 ) ) ;
#73 = AXIS2_PLACEMENT_3D ( 'NONE', #62, #292, #147 ) ;
#74 = ORIENTED_EDGE ( 'NONE', *, *, #314, .T. ) ;
#75 = CARTESIAN_POINT ( 'NONE',  ( 0.000000000000000000, 0.000000000000000000, 555.0000000000000000 ) ) ;
#76 = APPROVAL_PERSON_ORGANIZATION ( #26, #322, #257 ) ;
#77 = CARTESIAN_POINT ( 'NONE',  ( 5.000000000000000000, 6.123233995736766282E-16, 5.499999999999949374 ) ) ;
#78 = CC_DESIGN_PERSON_AND_ORGANIZATION_ASSIGNMENT ( #13, #20, ( #127 ) ) ;
#79 = ORIENTED_EDGE ( 'NONE', *, *, #264, .T. ) ;
#80 = CYLINDRICAL_SURFACE ( 'NONE', #4, 8.000000000000000000 ) ;
#81 = ORIENTED_EDGE ( 'NONE', *, *, #175, .F. ) ;
#82 = CALENDAR_DATE ( 2022, 8, 7 ) ;
#83 = DIRECTION ( 'NONE',  ( -0.000000000000000000, -0.000000000000000000, -1.000000000000000000 ) ) ;
#84 = AXIS2_PLACEMENT_3D ( 'NONE', #19, #133, #10 ) ;
#85 = PERSON_AND_ORGANIZATION ( #49, #242 ) ;
#86 = AXIS2_PLACEMENT_3D ( 'NONE', #75, #39, #244 ) ;
#87 = APPLICATION_PROTOCOL_DEFINITION ( 'international standard', 'config_control_design', 1994, #300 ) ;
#88 = CLOSED_SHELL ( 'NONE', ( #12, #348, #137, #342, #193, #211, #43, #169, #114, #278, #219 ) ) ;
#89 = CC_DESIGN_PERSON_AND_ORGANIZATION_ASSIGNMENT ( #247, #158, ( #289 ) ) ;
#90 = CIRCLE ( 'NONE', #288, 5.500000000000000000 ) ;
#91 = CARTESIAN_POINT ( 'NONE',  ( 0.000000000000000000, 0.000000000000000000, 555.0000000000000000 ) ) ;
#92 = AXIS2_PLACEMENT_3D ( 'NONE', #248, #367, #103 ) ;
#93 = CARTESIAN_POINT ( 'NONE',  ( 0.000000000000000000, 0.000000000000000000, 0.000000000000000000 ) ) ;
#94 = ORIENTED_EDGE ( 'NONE', *, *, #201, .F. ) ;
#95 = DIRECTION ( 'NONE',  ( 1.000000000000000000, 0.000000000000000000, 0.000000000000000000 ) ) ;
#96 = ORIENTED_EDGE ( 'NONE', *, *, #264, .F. ) ;
#97 = DIRECTION ( 'NONE',  ( 0.000000000000000000, 0.000000000000000000, 1.000000000000000000 ) ) ;
#98 = CARTESIAN_POINT ( 'NONE',  ( 0.000000000000000000, 0.000000000000000000, 5.499999999999949374 ) ) ;
#99 = ORIENTED_EDGE ( 'NONE', *, *, #355, .T. ) ;
#100 = APPROVAL_ROLE ( '' ) ;
#101 = CARTESIAN_POINT ( 'NONE',  ( 5.500000000000000000, 0.000000000000000000, 4.999999999999975131 ) ) ;
#102 = DIRECTION ( 'NONE',  ( 1.000000000000000000, 0.000000000000000000, 0.000000000000000000 ) ) ;
#103 = DIRECTION ( 'NONE',  ( 1.000000000000000000, 0.000000000000000000, 0.000000000000000000 ) ) ;
#104 = CARTESIAN_POINT ( 'NONE',  ( -8.000000000000000000, 0.000000000000000000, 5.000000000000000000 ) ) ;
#105 = EDGE_CURVE ( 'NONE', #263, #273, #256, .T. ) ;
#106 = VERTEX_POINT ( 'NONE', #22 ) ;
#107 = DATE_AND_TIME ( #276, #313 ) ;
#108 = DIRECTION ( 'NONE',  ( 1.000000000000000000, 0.000000000000000000, 0.000000000000000000 ) ) ;
#109 = APPROVAL_PERSON_ORGANIZATION ( #85, #224, #199 ) ;
#110 = CARTESIAN_POINT ( 'NONE',  ( 0.000000000000000000, 0.000000000000000000, 5.000000000000000000 ) ) ;
#111 = EDGE_LOOP ( 'NONE', ( #59, #96, #17, #31 ) ) ;
#112 = PERSON_AND_ORGANIZATION ( #49, #242 ) ;
#113 = DIRECTION ( 'NONE',  ( 0.000000000000000000, 0.000000000000000000, 1.000000000000000000 ) ) ;
#114 = ADVANCED_FACE ( 'NONE', ( #125, #218 ), #307, .T. ) ;
#115 = CALENDAR_DATE ( 2022, 8, 7 ) ;
#116 = AXIS2_PLACEMENT_3D ( 'NONE', #210, #327, #108 ) ;
#117 = ORIENTED_EDGE ( 'NONE', *, *, #254, .T. ) ;
#118 = AXIS2_PLACEMENT_3D ( 'NONE', #93, #368, #154 ) ;
#119 = FACE_BOUND ( 'NONE', #251, .T. ) ;
#120 = CIRCLE ( 'NONE', #40, 8.000000000000000000 ) ;
#121 = ORIENTED_EDGE ( 'NONE', *, *, #201, .T. ) ;
#122 = DIRECTION ( 'NONE',  ( 0.000000000000000000, 0.000000000000000000, -1.000000000000000000 ) ) ;
#123 = ORIENTED_EDGE ( 'NONE', *, *, #175, .T. ) ;
#124 = CARTESIAN_POINT ( 'NONE',  ( 0.000000000000000000, 0.000000000000000000, 5.000000000000000000 ) ) ;
#125 = FACE_BOUND ( 'NONE', #161, .T. ) ;
#126 = VERTEX_POINT ( 'NONE', #77 ) ;
#127 = SECURITY_CLASSIFICATION ( '', '', #243 ) ;
#128 = DATE_TIME_ROLE ( 'classification_date' ) ;
#129 = DIRECTION ( 'NONE',  ( 1.000000000000000000, 0.000000000000000000, 0.000000000000000000 ) ) ;
#130 = DIRECTION ( 'NONE',  ( 1.000000000000000000, 0.000000000000000000, 0.000000000000000000 ) ) ;
#131 = ORIENTED_EDGE ( 'NONE', *, *, #283, .F. ) ;
#132 = DIRECTION ( 'NONE',  ( -0.000000000000000000, -0.000000000000000000, -1.000000000000000000 ) ) ;
#133 = DIRECTION ( 'NONE',  ( -0.000000000000000000, -0.000000000000000000, -1.000000000000000000 ) ) ;
#134 = CARTESIAN_POINT ( 'NONE',  ( 0.000000000000000000, 0.000000000000000000, 5.000000000000000000 ) ) ;
#135 = CARTESIAN_POINT ( 'NONE',  ( 0.000000000000000000, 0.000000000000000000, 5.000000000000000000 ) ) ;
#136 = ORIENTED_EDGE ( 'NONE', *, *, #105, .F. ) ;
#137 = ADVANCED_FACE ( 'NONE', ( #181 ), #191, .T. ) ;
#138 = CALENDAR_DATE ( 2022, 8, 7 ) ;
#139 = APPROVAL_STATUS ( 'not_yet_approved' ) ;
#140 =( NAMED_UNIT ( * ) PLANE_ANGLE_UNIT ( ) SI_UNIT ( $, .RADIAN. ) );
#141 = MANIFOLD_SOLID_BREP ( 'Odebrat vysunutím3', #88 ) ;
#142 = CC_DESIGN_APPROVAL ( #322, ( #289 ) ) ;
#143 = EDGE_CURVE ( 'NONE', #375, #332, #253, .T. ) ;
#144 = ORIENTED_EDGE ( 'NONE', *, *, #54, .F. ) ;
#145 = EDGE_CURVE ( 'NONE', #126, #290, #2, .T. ) ;
#146 = ORIENTED_EDGE ( 'NONE', *, *, #60, .T. ) ;
#147 = DIRECTION ( 'NONE',  ( 1.000000000000000000, 0.000000000000000000, 0.000000000000000000 ) ) ;
#148 = ORIENTED_EDGE ( 'NONE', *, *, #203, .F. ) ;
#149 = CC_DESIGN_PERSON_AND_ORGANIZATION_ASSIGNMENT ( #196, #309, ( #55 ) ) ;
#150 = DIRECTION ( 'NONE',  ( -1.000000000000000000, 1.224646799147351482E-16, 0.000000000000000000 ) ) ;
#151 = DIRECTION ( 'NONE',  ( 0.000000000000000000, 0.000000000000000000, -1.000000000000000000 ) ) ;
#152 = ORIENTED_EDGE ( 'NONE', *, *, #258, .F. ) ;
#153 = DIRECTION ( 'NONE',  ( 1.000000000000000000, 0.000000000000000000, 0.000000000000000000 ) ) ;
#154 = DIRECTION ( 'NONE',  ( 1.000000000000000000, 0.000000000000000000, -0.000000000000000000 ) ) ;
#155 = AXIS2_PLACEMENT_3D ( 'NONE', #36, #21, #18 ) ;
#156 = CARTESIAN_POINT ( 'NONE',  ( 2.500000000000000000, 3.061616997868383141E-16, 555.0000000000000000 ) ) ;
#157 = CARTESIAN_POINT ( 'NONE',  ( 0.000000000000000000, 0.000000000000000000, 555.0000000000000000 ) ) ;
#158 = PERSON_AND_ORGANIZATION_ROLE ( 'design_supplier' ) ;
#159 = DIRECTION ( 'NONE',  ( 1.224646799147353207E-16, 1.000000000000000000, -0.000000000000000000 ) ) ;
#160 = DIRECTION ( 'NONE',  ( -0.000000000000000000, -0.000000000000000000, -1.000000000000000000 ) ) ;
#161 = EDGE_LOOP ( 'NONE', ( #136, #231 ) ) ;
#162 = APPROVAL_DATE_TIME ( #228, #322 ) ;
#163 = COORDINATED_UNIVERSAL_TIME_OFFSET ( 1, 0, .AHEAD. ) ;
#164 = CIRCLE ( 'NONE', #347, 5.000000000000000000 ) ;
#165 = CARTESIAN_POINT ( 'NONE',  ( 0.000000000000000000, 0.000000000000000000, 0.000000000000000000 ) ) ;
#166 = LINE ( 'NONE', #222, #5 ) ;
#167 = AXIS2_PLACEMENT_3D ( 'NONE', #45, #249, #239 ) ;
#168 = CC_DESIGN_APPROVAL ( #349, ( #127 ) ) ;
#169 = ADVANCED_FACE ( 'NONE', ( #340 ), #245, .T. ) ;
#170 = CIRCLE ( 'NONE', #310, 2.500000000000000000 ) ;
#171 = CC_DESIGN_PERSON_AND_ORGANIZATION_ASSIGNMENT ( #112, #333, ( #289 ) ) ;
#172 = CIRCLE ( 'NONE', #92, 2.500000000000000000 ) ;
#173 = AXIS2_PLACEMENT_3D ( 'NONE', #329, #159, #150 ) ;
#174 = DIRECTION ( 'NONE',  ( 0.000000000000000000, 0.000000000000000000, 1.000000000000000000 ) ) ;
#175 = EDGE_CURVE ( 'NONE', #363, #42, #170, .T. ) ;
#176 = ORIENTED_EDGE ( 'NONE', *, *, #319, .T. ) ;
#177 = VECTOR ( 'NONE', #266, 1000.000000000000000 ) ;
#178 = CYLINDRICAL_SURFACE ( 'NONE', #86, 2.500000000000000000 ) ;
#179 = ORIENTED_EDGE ( 'NONE', *, *, #60, .F. ) ;
#180 = CARTESIAN_POINT ( 'NONE',  ( 0.000000000000000000, 0.000000000000000000, 5.499999999999949374 ) ) ;
#181 = FACE_OUTER_BOUND ( 'NONE', #189, .T. ) ;
#182 = ORIENTED_EDGE ( 'NONE', *, *, #233, .T. ) ;
#183 = UNCERTAINTY_MEASURE_WITH_UNIT (LENGTH_MEASURE( 1.000000000000000082E-05 ), #284, 'distance_accuracy_value', 'NONE');
#184 = LINE ( 'NONE', #297, #14 ) ;
#185 = DIRECTION ( 'NONE',  ( 1.000000000000000000, 0.000000000000000000, 0.000000000000000000 ) ) ;
#186 = ORIENTED_EDGE ( 'NONE', *, *, #374, .T. ) ;
#187 = DIRECTION ( 'NONE',  ( 0.000000000000000000, 0.000000000000000000, 1.000000000000000000 ) ) ;
#188 = CARTESIAN_POINT ( 'NONE',  ( 8.000000000000000000, 9.797174393178825657E-16, 5.000000000000000000 ) ) ;
#189 = EDGE_LOOP ( 'NONE', ( #38, #117, #121, #192 ) ) ;
#190 = FACE_OUTER_BOUND ( 'NONE', #326, .T. ) ;
#191 = CYLINDRICAL_SURFACE ( 'NONE', #167, 5.000000000000000000 ) ;
#192 = ORIENTED_EDGE ( 'NONE', *, *, #381, .F. ) ;
#193 = ADVANCED_FACE ( 'NONE', ( #295 ), #80, .T. ) ;
#194 = DIRECTION ( 'NONE',  ( 0.000000000000000000, 0.000000000000000000, -1.000000000000000000 ) ) ;
#195 = CIRCLE ( 'NONE', #84, 2.500000000000000000 ) ;
#196 = PERSON_AND_ORGANIZATION ( #49, #242 ) ;
#197 = PRODUCT_RELATED_PRODUCT_CATEGORY ( 'detail', '', ( #350 ) ) ;
#198 = LOCAL_TIME ( 17, 15, 9.000000000000000000, #376 ) ;
#199 = APPROVAL_ROLE ( '' ) ;
#200 = PERSON_AND_ORGANIZATION ( #49, #242 ) ;
#201 = EDGE_CURVE ( 'NONE', #126, #30, #259, .T. ) ;
#202 = AXIS2_PLACEMENT_3D ( 'NONE', #44, #269, #129 ) ;
#203 = EDGE_CURVE ( 'NONE', #263, #363, #325, .T. ) ;
#204 = AXIS2_PLACEMENT_3D ( 'NONE', #205, #174, #29 ) ;
#205 = CARTESIAN_POINT ( 'NONE',  ( 0.000000000000000000, 0.000000000000000000, 555.0000000000000000 ) ) ;
#206 = EDGE_LOOP ( 'NONE', ( #186, #74 ) ) ;
#207 = EDGE_LOOP ( 'NONE', ( #8, #267, #293, #144 ) ) ;
#208 = CARTESIAN_POINT ( 'NONE',  ( 0.000000000000000000, 0.000000000000000000, 5.000000000000000000 ) ) ;
#209 = ORIENTED_EDGE ( 'NONE', *, *, #250, .F. ) ;
#210 = CARTESIAN_POINT ( 'NONE',  ( 0.000000000000000000, 0.000000000000000000, 555.0000000000000000 ) ) ;
#211 = ADVANCED_FACE ( 'NONE', ( #298, #37 ), #303, .T. ) ;
#212 = DIRECTION ( 'NONE',  ( -1.000000000000000000, 0.000000000000000000, 0.000000000000000000 ) ) ;
#213 = EDGE_LOOP ( 'NONE', ( #131, #152 ) ) ;
#214 = FACE_OUTER_BOUND ( 'NONE', #6, .T. ) ;
#215 = CARTESIAN_POINT ( 'NONE',  ( 0.000000000000000000, 0.000000000000000000, 555.0000000000000000 ) ) ;
#216 = AXIS2_PLACEMENT_3D ( 'NONE', #223, #69, #194 ) ;
#217 = CARTESIAN_POINT ( 'NONE',  ( -5.500000000000000000, 6.735557395310442023E-16, 4.999999999999975131 ) ) ;
#218 = FACE_OUTER_BOUND ( 'NONE', #261, .T. ) ;
#219 = ADVANCED_FACE ( 'NONE', ( #214 ), #178, .F. ) ;
#220 = ORIENTED_EDGE ( 'NONE', *, *, #65, .T. ) ;
#221 = PERSON_AND_ORGANIZATION ( #49, #242 ) ;
#222 = CARTESIAN_POINT ( 'NONE',  ( -5.000000000000000000, 0.000000000000000000, 555.0000000000000000 ) ) ;
#223 = CARTESIAN_POINT ( 'NONE',  ( 5.500000000000000000, 0.000000000000000000, 5.499999999999949374 ) ) ;
#224 = APPROVAL ( #312, 'NEURÈENÝ' ) ;
#225 = MECHANICAL_CONTEXT ( 'NONE', #300, 'mechanical' ) ;
#226 = CIRCLE ( 'NONE', #57, 8.000000000000000000 ) ;
#227 = LOCAL_TIME ( 17, 15, 9.000000000000000000, #163 ) ;
#228 = DATE_AND_TIME ( #115, #285 ) ;
#229 = AXIS2_PLACEMENT_3D ( 'NONE', #91, #1, #291 ) ;
#230 = PRODUCT_DEFINITION_SHAPE ( 'NONE', 'NONE',  #55 ) ;
#231 = ORIENTED_EDGE ( 'NONE', *, *, #319, .F. ) ;
#232 = FACE_OUTER_BOUND ( 'NONE', #213, .T. ) ;
#233 = EDGE_CURVE ( 'NONE', #30, #341, #324, .T. ) ;
#234 =( GEOMETRIC_REPRESENTATION_CONTEXT ( 3 ) GLOBAL_UNCERTAINTY_ASSIGNED_CONTEXT ( ( #183 ) ) GLOBAL_UNIT_ASSIGNED_CONTEXT ( ( #284, #140, #378 ) ) REPRESENTATION_CONTEXT ( 'NONE', 'WORKASPACE' ) );
#235 = EDGE_LOOP ( 'NONE', ( #369, #99, #146, #148 ) ) ;
#236 = CARTESIAN_POINT ( 'NONE',  ( 5.000000000000000000, 6.123233995736766282E-16, 555.0000000000000000 ) ) ;
#237 = ORIENTED_EDGE ( 'NONE', *, *, #374, .F. ) ;
#238 = DIRECTION ( 'NONE',  ( 1.000000000000000000, 0.000000000000000000, 0.000000000000000000 ) ) ;
#239 = DIRECTION ( 'NONE',  ( -1.000000000000000000, 0.000000000000000000, 0.000000000000000000 ) ) ;
#240 = EDGE_LOOP ( 'NONE', ( #34, #237, #11, #359 ) ) ;
#241 = AXIS2_PLACEMENT_3D ( 'NONE', #275, #302, #277 ) ;
#242 = ORGANIZATION ( 'NEURÈENÝ', 'NEURÈENÝ', '' ) ;
#243 = SECURITY_CLASSIFICATION_LEVEL ( 'unclassified' ) ;
#244 = DIRECTION ( 'NONE',  ( -1.000000000000000000, 0.000000000000000000, 0.000000000000000000 ) ) ;
#245 = CYLINDRICAL_SURFACE ( 'NONE', #337, 5.000000000000000000 ) ;
#246 = ORIENTED_EDGE ( 'NONE', *, *, #203, .T. ) ;
#247 = PERSON_AND_ORGANIZATION ( #49, #242 ) ;
#248 = CARTESIAN_POINT ( 'NONE',  ( 0.000000000000000000, 0.000000000000000000, 555.0000000000000000 ) ) ;
#249 = DIRECTION ( 'NONE',  ( -0.000000000000000000, -0.000000000000000000, -1.000000000000000000 ) ) ;
#250 = EDGE_CURVE ( 'NONE', #30, #126, #164, .T. ) ;
#251 = EDGE_LOOP ( 'NONE', ( #81, #179 ) ) ;
#252 = CARTESIAN_POINT ( 'NONE',  ( -2.500000000000000000, 0.000000000000000000, 555.0000000000000000 ) ) ;
#253 = LINE ( 'NONE', #188, #331 ) ;
#254 = EDGE_CURVE ( 'NONE', #356, #126, #184, .T. ) ;
#255 = APPROVAL_STATUS ( 'not_yet_approved' ) ;
#256 = CIRCLE ( 'NONE', #56, 2.500000000000000000 ) ;
#257 = APPROVAL_ROLE ( '' ) ;
#258 = EDGE_CURVE ( 'NONE', #332, #304, #226, .T. ) ;
#259 = CIRCLE ( 'NONE', #52, 5.000000000000000000 ) ;
#260 = CARTESIAN_POINT ( 'NONE',  ( 2.500000000000000000, 3.061616997868383141E-16, 0.000000000000000000 ) ) ;
#261 = EDGE_LOOP ( 'NONE', ( #79, #352 ) ) ;
#262 = LINE ( 'NONE', #7, #58 ) ;
#263 = VERTEX_POINT ( 'NONE', #252 ) ;
#264 = EDGE_CURVE ( 'NONE', #25, #356, #271, .T. ) ;
#265 = DIRECTION ( 'NONE',  ( 1.000000000000000000, 0.000000000000000000, 0.000000000000000000 ) ) ;
#266 = DIRECTION ( 'NONE',  ( -0.000000000000000000, -0.000000000000000000, -1.000000000000000000 ) ) ;
#267 = ORIENTED_EDGE ( 'NONE', *, *, #143, .T. ) ;
#268 = AXIS2_PLACEMENT_3D ( 'NONE', #336, #270, #16 ) ;
#269 = DIRECTION ( 'NONE',  ( -0.000000000000000000, -0.000000000000000000, -1.000000000000000000 ) ) ;
#270 = DIRECTION ( 'NONE',  ( 0.000000000000000000, 0.000000000000000000, 1.000000000000000000 ) ) ;
#271 = CIRCLE ( 'NONE', #116, 5.000000000000000000 ) ;
#272 = AXIS2_PLACEMENT_3D ( 'NONE', #124, #294, #372 ) ;
#273 = VERTEX_POINT ( 'NONE', #156 ) ;
#274 = DIRECTION ( 'NONE',  ( 0.000000000000000000, 0.000000000000000000, 1.000000000000000000 ) ) ;
#275 = CARTESIAN_POINT ( 'NONE',  ( 0.000000000000000000, 0.000000000000000000, 5.000000000000000000 ) ) ;
#276 = CALENDAR_DATE ( 2022, 8, 7 ) ;
#277 = DIRECTION ( 'NONE',  ( 1.000000000000000000, 0.000000000000000000, -0.000000000000000000 ) ) ;
#278 = ADVANCED_FACE ( 'NONE', ( #190 ), #315, .F. ) ;
#279 = DIRECTION ( 'NONE',  ( -0.000000000000000000, -0.000000000000000000, -1.000000000000000000 ) ) ;
#280 = CC_DESIGN_PERSON_AND_ORGANIZATION_ASSIGNMENT ( #200, #344, ( #350 ) ) ;
#281 = ORIENTED_EDGE ( 'NONE', *, *, #355, .F. ) ;
#282 = DATE_AND_TIME ( #82, #198 ) ;
#283 = EDGE_CURVE ( 'NONE', #304, #332, #380, .T. ) ;
#284 =( LENGTH_UNIT ( ) NAMED_UNIT ( * ) SI_UNIT ( .MILLI., .METRE. ) );
#285 = LOCAL_TIME ( 17, 15, 9.000000000000000000, #379 ) ;
#286 = EDGE_CURVE ( 'NONE', #290, #341, #53, .T. ) ;
#287 = CC_DESIGN_DATE_AND_TIME_ASSIGNMENT ( #311, #48, ( #55 ) ) ;
#288 = AXIS2_PLACEMENT_3D ( 'NONE', #135, #279, #102 ) ;
#289 = PRODUCT_DEFINITION_FORMATION_WITH_SPECIFIED_SOURCE ( 'LIBOVOLNÝ', '', #350, .NOT_KNOWN. ) ;
#290 = VERTEX_POINT ( 'NONE', #101 ) ;
#291 = DIRECTION ( 'NONE',  ( -1.000000000000000000, 0.000000000000000000, 0.000000000000000000 ) ) ;
#292 = DIRECTION ( 'NONE',  ( 0.000000000000000000, 0.000000000000000000, 1.000000000000000000 ) ) ;
#293 = ORIENTED_EDGE ( 'NONE', *, *, #258, .T. ) ;
#294 = DIRECTION ( 'NONE',  ( -0.000000000000000000, -0.000000000000000000, -1.000000000000000000 ) ) ;
#295 = FACE_OUTER_BOUND ( 'NONE', #240, .T. ) ;
#296 = ORIENTED_EDGE ( 'NONE', *, *, #286, .T. ) ;
#297 = CARTESIAN_POINT ( 'NONE',  ( 5.000000000000000000, 6.123233995736766282E-16, 555.0000000000000000 ) ) ;
#298 = FACE_BOUND ( 'NONE', #63, .T. ) ;
#299 = ORIENTED_EDGE ( 'NONE', *, *, #145, .F. ) ;
#300 = APPLICATION_CONTEXT ( 'configuration controlled 3d designs of mechanical parts and assemblies' ) ;
#301 = AXIS2_PLACEMENT_3D ( 'NONE', #165, #113, #377 ) ;
#302 = DIRECTION ( 'NONE',  ( 0.000000000000000000, 0.000000000000000000, 1.000000000000000000 ) ) ;
#303 = PLANE ( 'NONE',  #241 ) ;
#304 = VERTEX_POINT ( 'NONE', #71 ) ;
#305 = CC_DESIGN_DATE_AND_TIME_ASSIGNMENT ( #107, #128, ( #127 ) ) ;
#306 = FACE_OUTER_BOUND ( 'NONE', #207, .T. ) ;
#307 = PLANE ( 'NONE',  #268 ) ;
#308 = DIRECTION ( 'NONE',  ( 0.000000000000000000, 0.000000000000000000, 1.000000000000000000 ) ) ;
#309 = PERSON_AND_ORGANIZATION_ROLE ( 'creator' ) ;
#310 = AXIS2_PLACEMENT_3D ( 'NONE', #330, #72, #373 ) ;
#311 = DATE_AND_TIME ( #138, #316 ) ;
#312 = APPROVAL_STATUS ( 'not_yet_approved' ) ;
#313 = LOCAL_TIME ( 17, 15, 9.000000000000000000, #370 ) ;
#314 = EDGE_CURVE ( 'NONE', #375, #106, #371, .T. ) ;
#315 = TOROIDAL_SURFACE ( 'NONE', #155, 5.500000000000000000, 0.5000000000000000000 ) ;
#316 = LOCAL_TIME ( 17, 15, 9.000000000000000000, #23 ) ;
#317 = ORIENTED_EDGE ( 'NONE', *, *, #145, .T. ) ;
#318 = CARTESIAN_POINT ( 'NONE',  ( -5.000000000000000000, 0.000000000000000000, 555.0000000000000000 ) ) ;
#319 = EDGE_CURVE ( 'NONE', #273, #263, #172, .T. ) ;
#320 = FACE_OUTER_BOUND ( 'NONE', #345, .T. ) ;
#321 = ORIENTED_EDGE ( 'NONE', *, *, #65, .F. ) ;
#322 = APPROVAL ( #139, 'NEURÈENÝ' ) ;
#323 = DIRECTION ( 'NONE',  ( 0.000000000000000000, 0.000000000000000000, 1.000000000000000000 ) ) ;
#324 = CIRCLE ( 'NONE', #173, 0.5000000000000004441 ) ;
#325 = LINE ( 'NONE', #33, #24 ) ;
#326 = EDGE_LOOP ( 'NONE', ( #67, #94, #317, #321 ) ) ;
#327 = DIRECTION ( 'NONE',  ( 0.000000000000000000, 0.000000000000000000, 1.000000000000000000 ) ) ;
#328 = DIRECTION ( 'NONE',  ( 0.000000000000000000, 0.000000000000000000, 1.000000000000000000 ) ) ;
#329 = CARTESIAN_POINT ( 'NONE',  ( -5.500000000000000000, 6.735557395310442023E-16, 5.499999999999949374 ) ) ;
#330 = CARTESIAN_POINT ( 'NONE',  ( 0.000000000000000000, 0.000000000000000000, 0.000000000000000000 ) ) ;
#331 = VECTOR ( 'NONE', #160, 1000.000000000000000 ) ;
#332 = VERTEX_POINT ( 'NONE', #335 ) ;
#333 = PERSON_AND_ORGANIZATION_ROLE ( 'creator' ) ;
#334 = TOROIDAL_SURFACE ( 'NONE', #73, 5.500000000000000000, 0.5000000000000000000 ) ;
#335 = CARTESIAN_POINT ( 'NONE',  ( 8.000000000000000000, 9.797174393178825657E-16, 0.000000000000000000 ) ) ;
#336 = CARTESIAN_POINT ( 'NONE',  ( 0.000000000000000000, 0.000000000000000000, 555.0000000000000000 ) ) ;
#337 = AXIS2_PLACEMENT_3D ( 'NONE', #157, #361, #212 ) ;
#338 = AXIS2_PLACEMENT_3D ( 'NONE', #134, #187, #265 ) ;
#339 = SHAPE_DEFINITION_REPRESENTATION ( #230, #35 ) ;
#340 = FACE_OUTER_BOUND ( 'NONE', #111, .T. ) ;
#341 = VERTEX_POINT ( 'NONE', #217 ) ;
#342 = ADVANCED_FACE ( 'NONE', ( #306 ), #9, .T. ) ;
#343 = APPROVAL_DATE_TIME ( #282, #349 ) ;
#344 = PERSON_AND_ORGANIZATION_ROLE ( 'design_owner' ) ;
#345 = EDGE_LOOP ( 'NONE', ( #209, #182, #70, #299 ) ) ;
#346 = APPLICATION_PROTOCOL_DEFINITION ( 'international standard', 'config_control_design', 1994, #366 ) ;
#347 = AXIS2_PLACEMENT_3D ( 'NONE', #180, #97, #238 ) ;
#348 = ADVANCED_FACE ( 'NONE', ( #320 ), #334, .F. ) ;
#349 = APPROVAL ( #255, 'NEURÈENÝ' ) ;
#350 = PRODUCT ( '6c19', '6c19', '', ( #225 ) ) ;
#351 = DESIGN_CONTEXT ( 'detailed design', #366, 'design' ) ;
#352 = ORIENTED_EDGE ( 'NONE', *, *, #28, .T. ) ;
#353 = CC_DESIGN_SECURITY_CLASSIFICATION ( #127, ( #289 ) ) ;
#354 = PLANE ( 'NONE',  #118 ) ;
#355 = EDGE_CURVE ( 'NONE', #273, #42, #262, .T. ) ;
#356 = VERTEX_POINT ( 'NONE', #236 ) ;
#357 = CARTESIAN_POINT ( 'NONE',  ( -2.500000000000000000, 0.000000000000000000, 0.000000000000000000 ) ) ;
#358 = CIRCLE ( 'NONE', #204, 5.000000000000000000 ) ;
#359 = ORIENTED_EDGE ( 'NONE', *, *, #283, .T. ) ;
#360 = CARTESIAN_POINT ( 'NONE',  ( 0.000000000000000000, 0.000000000000000000, 0.000000000000000000 ) ) ;
#361 = DIRECTION ( 'NONE',  ( -0.000000000000000000, -0.000000000000000000, -1.000000000000000000 ) ) ;
#362 = CYLINDRICAL_SURFACE ( 'NONE', #229, 2.500000000000000000 ) ;
#363 = VERTEX_POINT ( 'NONE', #357 ) ;
#364 = DIRECTION ( 'NONE',  ( 0.000000000000000000, 0.000000000000000000, 1.000000000000000000 ) ) ;
#365 = DIRECTION ( 'NONE',  ( -0.000000000000000000, -0.000000000000000000, -1.000000000000000000 ) ) ;
#366 = APPLICATION_CONTEXT ( 'configuration controlled 3d designs of mechanical parts and assemblies' ) ;
#367 = DIRECTION ( 'NONE',  ( 0.000000000000000000, 0.000000000000000000, 1.000000000000000000 ) ) ;
#368 = DIRECTION ( 'NONE',  ( 0.000000000000000000, 0.000000000000000000, 1.000000000000000000 ) ) ;
#369 = ORIENTED_EDGE ( 'NONE', *, *, #105, .T. ) ;
#370 = COORDINATED_UNIVERSAL_TIME_OFFSET ( 1, 0, .AHEAD. ) ;
#371 = CIRCLE ( 'NONE', #338, 8.000000000000000000 ) ;
#372 = DIRECTION ( 'NONE',  ( -1.000000000000000000, 0.000000000000000000, 0.000000000000000000 ) ) ;
#373 = DIRECTION ( 'NONE',  ( 1.000000000000000000, 0.000000000000000000, 0.000000000000000000 ) ) ;
#374 = EDGE_CURVE ( 'NONE', #106, #375, #120, .T. ) ;
#375 = VERTEX_POINT ( 'NONE', #32 ) ;
#376 = COORDINATED_UNIVERSAL_TIME_OFFSET ( 1, 0, .AHEAD. ) ;
#377 = DIRECTION ( 'NONE',  ( 1.000000000000000000, 0.000000000000000000, 0.000000000000000000 ) ) ;
#378 =( NAMED_UNIT ( * ) SI_UNIT ( $, .STERADIAN. ) SOLID_ANGLE_UNIT ( ) );
#379 = COORDINATED_UNIVERSAL_TIME_OFFSET ( 1, 0, .AHEAD. ) ;
#380 = CIRCLE ( 'NONE', #51, 8.000000000000000000 ) ;
#381 = EDGE_CURVE ( 'NONE', #25, #30, #166, .T. ) ;
ENDSEC;
END-ISO-10303-21;
