ISO-10303-21;
HEADER;
FILE_DESCRIPTION (( 'STEP AP203' ),
    '1' );
FILE_NAME ('cc35.STEP',
    '2022-07-08T14:44:46',
    ( '' ),
    ( '' ),
    'SwSTEP 2.0',
    'SolidWorks 2019',
    '' );
FILE_SCHEMA (( 'CONFIG_CONTROL_DESIGN' ));
ENDSEC;

DATA;
#1 = ADVANCED_FACE ( 'NONE', ( #366, #159 ), #365, .T. ) ;
#2 = APPROVAL_STATUS ( 'not_yet_approved' ) ;
#3 = CARTESIAN_POINT ( 'NONE',  ( 0.000000000000000000, 0.000000000000000000, 655.0000000000000000 ) ) ;
#4 = CLOSED_SHELL ( 'NONE', ( #271, #295, #197, #170, #89, #1, #234, #177, #160, #302, #56 ) ) ;
#5 = EDGE_LOOP ( 'NONE', ( #325, #118, #194, #275 ) ) ;
#6 =( NAMED_UNIT ( * ) PLANE_ANGLE_UNIT ( ) SI_UNIT ( $, .RADIAN. ) );
#7 = ORIENTED_EDGE ( 'NONE', *, *, #31, .F. ) ;
#8 = DIRECTION ( 'NONE',  ( -1.000000000000000000, 1.224646799147351482E-16, 0.000000000000000000 ) ) ;
#9 =( NAMED_UNIT ( * ) SI_UNIT ( $, .STERADIAN. ) SOLID_ANGLE_UNIT ( ) );
#10 = ORIENTED_EDGE ( 'NONE', *, *, #374, .F. ) ;
#11 = DIRECTION ( 'NONE',  ( -1.000000000000000000, 0.000000000000000000, 0.000000000000000000 ) ) ;
#12 = APPROVAL_PERSON_ORGANIZATION ( #147, #236, #208 ) ;
#13 = CARTESIAN_POINT ( 'NONE',  ( 0.000000000000000000, 0.000000000000000000, 5.000000000000000000 ) ) ;
#14 = ORIENTED_EDGE ( 'NONE', *, *, #370, .T. ) ;
#15 = CARTESIAN_POINT ( 'NONE',  ( 0.000000000000000000, 0.000000000000000000, 655.0000000000000000 ) ) ;
#16 = VERTEX_POINT ( 'NONE', #17 ) ;
#17 = CARTESIAN_POINT ( 'NONE',  ( -5.000000000000000000, 0.000000000000000000, 655.0000000000000000 ) ) ;
#18 = CARTESIAN_POINT ( 'NONE',  ( 3.250000000000000444, 3.980102097228898231E-16, 655.0000000000000000 ) ) ;
#19 = CARTESIAN_POINT ( 'NONE',  ( 0.000000000000000000, 0.000000000000000000, 5.000000000000000000 ) ) ;
#20 = LOCAL_TIME ( 16, 44, 46.00000000000000000, #255 ) ;
#21 = DIRECTION ( 'NONE',  ( 0.000000000000000000, 0.000000000000000000, -1.000000000000000000 ) ) ;
#22 = FACE_OUTER_BOUND ( 'NONE', #352, .T. ) ;
#23 = AXIS2_PLACEMENT_3D ( 'NONE', #250, #47, #363 ) ;
#24 = DIRECTION ( 'NONE',  ( 0.000000000000000000, 0.000000000000000000, 1.000000000000000000 ) ) ;
#25 = COORDINATED_UNIVERSAL_TIME_OFFSET ( 1, 0, .AHEAD. ) ;
#26 = SECURITY_CLASSIFICATION ( '', '', #179 ) ;
#27 = AXIS2_PLACEMENT_3D ( 'NONE', #218, #65, #11 ) ;
#28 = APPROVAL_PERSON_ORGANIZATION ( #112, #158, #143 ) ;
#29 = APPLICATION_PROTOCOL_DEFINITION ( 'international standard', 'config_control_design', 1994, #80 ) ;
#30 = CARTESIAN_POINT ( 'NONE',  ( 8.000000000000000000, 9.797174393178825657E-16, 5.000000000000000000 ) ) ;
#31 = EDGE_CURVE ( 'NONE', #189, #292, #375, .T. ) ;
#32 = LINE ( 'NONE', #184, #207 ) ;
#33 = ADVANCED_BREP_SHAPE_REPRESENTATION ( 'cc35', ( #324, #262 ), #82 ) ;
#34 = CC_DESIGN_PERSON_AND_ORGANIZATION_ASSIGNMENT ( #289, #381, ( #26 ) ) ;
#35 = CARTESIAN_POINT ( 'NONE',  ( 0.000000000000000000, 0.000000000000000000, 0.000000000000000000 ) ) ;
#36 = ORIENTED_EDGE ( 'NONE', *, *, #312, .T. ) ;
#37 = AXIS2_PLACEMENT_3D ( 'NONE', #351, #85, #212 ) ;
#38 = PERSON_AND_ORGANIZATION_ROLE ( 'design_owner' ) ;
#39 = VERTEX_POINT ( 'NONE', #123 ) ;
#40 = DIRECTION ( 'NONE',  ( 0.000000000000000000, 0.000000000000000000, 1.000000000000000000 ) ) ;
#41 = CARTESIAN_POINT ( 'NONE',  ( 0.000000000000000000, 0.000000000000000000, 655.0000000000000000 ) ) ;
#42 = VERTEX_POINT ( 'NONE', #45 ) ;
#43 = EDGE_CURVE ( 'NONE', #165, #189, #191, .T. ) ;
#44 = CIRCLE ( 'NONE', #103, 5.000000000000000000 ) ;
#45 = CARTESIAN_POINT ( 'NONE',  ( -3.250000000000000444, 0.000000000000000000, 0.000000000000000000 ) ) ;
#46 = ORIENTED_EDGE ( 'NONE', *, *, #267, .F. ) ;
#47 = DIRECTION ( 'NONE',  ( -0.000000000000000000, -0.000000000000000000, -1.000000000000000000 ) ) ;
#48 = DIRECTION ( 'NONE',  ( 1.000000000000000000, 0.000000000000000000, 0.000000000000000000 ) ) ;
#49 = PRODUCT_DEFINITION ( 'NEZNÁMÝ', '', #348, #129 ) ;
#50 = FACE_OUTER_BOUND ( 'NONE', #64, .T. ) ;
#51 = DATE_AND_TIME ( #198, #330 ) ;
#52 = FACE_OUTER_BOUND ( 'NONE', #219, .T. ) ;
#53 = CARTESIAN_POINT ( 'NONE',  ( 0.000000000000000000, 0.000000000000000000, 5.000000000000000000 ) ) ;
#54 = PERSON_AND_ORGANIZATION ( #349, #164 ) ;
#55 = AXIS2_PLACEMENT_3D ( 'NONE', #337, #130, #187 ) ;
#56 = ADVANCED_FACE ( 'NONE', ( #188 ), #195, .F. ) ;
#57 = EDGE_CURVE ( 'NONE', #61, #42, #127, .T. ) ;
#58 = EDGE_LOOP ( 'NONE', ( #364, #14 ) ) ;
#59 = AXIS2_PLACEMENT_3D ( 'NONE', #53, #199, #176 ) ;
#60 = ORIENTED_EDGE ( 'NONE', *, *, #206, .F. ) ;
#61 = VERTEX_POINT ( 'NONE', #133 ) ;
#62 = EDGE_CURVE ( 'NONE', #189, #165, #290, .T. ) ;
#63 = DIRECTION ( 'NONE',  ( 0.000000000000000000, 0.000000000000000000, 1.000000000000000000 ) ) ;
#64 = EDGE_LOOP ( 'NONE', ( #308, #210, #350, #360 ) ) ;
#65 = DIRECTION ( 'NONE',  ( -0.000000000000000000, -0.000000000000000000, -1.000000000000000000 ) ) ;
#66 = ORIENTED_EDGE ( 'NONE', *, *, #233, .F. ) ;
#67 = FACE_BOUND ( 'NONE', #241, .T. ) ;
#68 = VERTEX_POINT ( 'NONE', #280 ) ;
#69 = DIRECTION ( 'NONE',  ( 0.000000000000000000, 0.000000000000000000, 1.000000000000000000 ) ) ;
#70 = ORIENTED_EDGE ( 'NONE', *, *, #125, .F. ) ;
#71 = FACE_OUTER_BOUND ( 'NONE', #336, .T. ) ;
#72 = ORIENTED_EDGE ( 'NONE', *, *, #113, .T. ) ;
#73 = DIRECTION ( 'NONE',  ( 1.000000000000000000, 0.000000000000000000, 0.000000000000000000 ) ) ;
#74 = CALENDAR_DATE ( 2022, 8, 7 ) ;
#75 = DIRECTION ( 'NONE',  ( 1.000000000000000000, 0.000000000000000000, -0.000000000000000000 ) ) ;
#76 = APPROVAL_DATE_TIME ( #260, #236 ) ;
#77 = CARTESIAN_POINT ( 'NONE',  ( -5.000000000000000000, 0.000000000000000000, 655.0000000000000000 ) ) ;
#78 = PERSON_AND_ORGANIZATION_ROLE ( 'creator' ) ;
#79 = CARTESIAN_POINT ( 'NONE',  ( 3.250000000000000444, 3.980102097228898231E-16, 655.0000000000000000 ) ) ;
#80 = APPLICATION_CONTEXT ( 'configuration controlled 3d designs of mechanical parts and assemblies' ) ;
#81 = VECTOR ( 'NONE', #145, 1000.000000000000000 ) ;
#82 =( GEOMETRIC_REPRESENTATION_CONTEXT ( 3 ) GLOBAL_UNCERTAINTY_ASSIGNED_CONTEXT ( ( #90 ) ) GLOBAL_UNIT_ASSIGNED_CONTEXT ( ( #328, #6, #9 ) ) REPRESENTATION_CONTEXT ( 'NONE', 'WORKASPACE' ) );
#83 = PRODUCT_RELATED_PRODUCT_CATEGORY ( 'detail', '', ( #345 ) ) ;
#84 = ORIENTED_EDGE ( 'NONE', *, *, #230, .T. ) ;
#85 = DIRECTION ( 'NONE',  ( 0.000000000000000000, -1.000000000000000000, 0.000000000000000000 ) ) ;
#86 = ORIENTED_EDGE ( 'NONE', *, *, #233, .T. ) ;
#87 = AXIS2_PLACEMENT_3D ( 'NONE', #313, #283, #73 ) ;
#88 = DIRECTION ( 'NONE',  ( 1.000000000000000000, 0.000000000000000000, 0.000000000000000000 ) ) ;
#89 = ADVANCED_FACE ( 'NONE', ( #166 ), #161, .T. ) ;
#90 = UNCERTAINTY_MEASURE_WITH_UNIT (LENGTH_MEASURE( 1.000000000000000082E-05 ), #328, 'distance_accuracy_value', 'NONE');
#91 = ORIENTED_EDGE ( 'NONE', *, *, #245, .T. ) ;
#92 = PLANE ( 'NONE',  #338 ) ;
#93 = AXIS2_PLACEMENT_3D ( 'NONE', #41, #301, #306 ) ;
#94 = CIRCLE ( 'NONE', #192, 5.500000000000000000 ) ;
#95 = ORIENTED_EDGE ( 'NONE', *, *, #31, .T. ) ;
#96 = TOROIDAL_SURFACE ( 'NONE', #193, 5.500000000000000000, 0.5000000000000000000 ) ;
#97 = DIRECTION ( 'NONE',  ( 1.000000000000000000, 0.000000000000000000, 0.000000000000000000 ) ) ;
#98 = DIRECTION ( 'NONE',  ( 1.000000000000000000, 0.000000000000000000, 0.000000000000000000 ) ) ;
#99 = ORIENTED_EDGE ( 'NONE', *, *, #265, .F. ) ;
#100 = CARTESIAN_POINT ( 'NONE',  ( 5.000000000000000000, 6.123233995736766282E-16, 5.499999999999949374 ) ) ;
#101 = CIRCLE ( 'NONE', #93, 3.250000000000000444 ) ;
#102 = EDGE_LOOP ( 'NONE', ( #333, #297, #281, #157 ) ) ;
#103 = AXIS2_PLACEMENT_3D ( 'NONE', #259, #24, #48 ) ;
#104 = LINE ( 'NONE', #77, #180 ) ;
#105 = APPROVAL_DATE_TIME ( #319, #303 ) ;
#106 = CYLINDRICAL_SURFACE ( 'NONE', #256, 3.250000000000000444 ) ;
#107 = DATE_TIME_ROLE ( 'creation_date' ) ;
#108 = DIRECTION ( 'NONE',  ( -1.000000000000000000, 0.000000000000000000, 0.000000000000000000 ) ) ;
#109 = DIRECTION ( 'NONE',  ( -1.000000000000000000, 0.000000000000000000, 0.000000000000000000 ) ) ;
#110 = APPROVAL_STATUS ( 'not_yet_approved' ) ;
#111 = LOCAL_TIME ( 16, 44, 46.00000000000000000, #25 ) ;
#112 = PERSON_AND_ORGANIZATION ( #349, #164 ) ;
#113 = EDGE_CURVE ( 'NONE', #39, #68, #334, .T. ) ;
#114 = AXIS2_PLACEMENT_3D ( 'NONE', #276, #190, #8 ) ;
#115 = CC_DESIGN_PERSON_AND_ORGANIZATION_ASSIGNMENT ( #299, #38, ( #345 ) ) ;
#116 = CC_DESIGN_APPROVAL ( #236, ( #49 ) ) ;
#117 = APPLICATION_PROTOCOL_DEFINITION ( 'international standard', 'config_control_design', 1994, #378 ) ;
#118 = ORIENTED_EDGE ( 'NONE', *, *, #120, .T. ) ;
#119 = AXIS2_PLACEMENT_3D ( 'NONE', #274, #40, #358 ) ;
#120 = EDGE_CURVE ( 'NONE', #222, #293, #101, .T. ) ;
#121 = DIRECTION ( 'NONE',  ( 0.000000000000000000, 0.000000000000000000, 1.000000000000000000 ) ) ;
#122 = ORIENTED_EDGE ( 'NONE', *, *, #131, .F. ) ;
#123 = CARTESIAN_POINT ( 'NONE',  ( -8.000000000000000000, 0.000000000000000000, 5.000000000000000000 ) ) ;
#124 = ORIENTED_EDGE ( 'NONE', *, *, #230, .F. ) ;
#125 = EDGE_CURVE ( 'NONE', #151, #68, #296, .T. ) ;
#126 = CARTESIAN_POINT ( 'NONE',  ( -8.000000000000000000, 0.000000000000000000, 5.000000000000000000 ) ) ;
#127 = CIRCLE ( 'NONE', #23, 3.250000000000000444 ) ;
#128 = AXIS2_PLACEMENT_3D ( 'NONE', #35, #294, #152 ) ;
#129 = DESIGN_CONTEXT ( 'detailed design', #80, 'design' ) ;
#130 = DIRECTION ( 'NONE',  ( 0.000000000000000000, 0.000000000000000000, 1.000000000000000000 ) ) ;
#131 = EDGE_CURVE ( 'NONE', #68, #151, #320, .T. ) ;
#132 = ORIENTED_EDGE ( 'NONE', *, *, #265, .T. ) ;
#133 = CARTESIAN_POINT ( 'NONE',  ( 3.250000000000000444, 3.980102097228898231E-16, 0.000000000000000000 ) ) ;
#134 = ORIENTED_EDGE ( 'NONE', *, *, #125, .T. ) ;
#135 = CARTESIAN_POINT ( 'NONE',  ( 0.000000000000000000, 0.000000000000000000, 0.000000000000000000 ) ) ;
#136 = DIRECTION ( 'NONE',  ( -0.000000000000000000, -0.000000000000000000, -1.000000000000000000 ) ) ;
#137 = APPROVAL_STATUS ( 'not_yet_approved' ) ;
#138 = AXIS2_PLACEMENT_3D ( 'NONE', #154, #63, #242 ) ;
#139 = CARTESIAN_POINT ( 'NONE',  ( 0.000000000000000000, 0.000000000000000000, 5.000000000000000000 ) ) ;
#140 = PERSON_AND_ORGANIZATION ( #349, #164 ) ;
#141 = LINE ( 'NONE', #142, #153 ) ;
#142 = CARTESIAN_POINT ( 'NONE',  ( 8.000000000000000000, 9.797174393178825657E-16, 5.000000000000000000 ) ) ;
#143 = APPROVAL_ROLE ( '' ) ;
#144 = AXIS2_PLACEMENT_3D ( 'NONE', #19, #310, #257 ) ;
#145 = DIRECTION ( 'NONE',  ( 0.000000000000000000, 0.000000000000000000, -1.000000000000000000 ) ) ;
#146 = CALENDAR_DATE ( 2022, 8, 7 ) ;
#147 = PERSON_AND_ORGANIZATION ( #349, #164 ) ;
#148 = CC_DESIGN_PERSON_AND_ORGANIZATION_ASSIGNMENT ( #174, #377, ( #348 ) ) ;
#149 = ORIENTED_EDGE ( 'NONE', *, *, #43, .F. ) ;
#150 = DIRECTION ( 'NONE',  ( 0.000000000000000000, 0.000000000000000000, 1.000000000000000000 ) ) ;
#151 = VERTEX_POINT ( 'NONE', #304 ) ;
#152 = DIRECTION ( 'NONE',  ( 1.000000000000000000, 0.000000000000000000, 0.000000000000000000 ) ) ;
#153 = VECTOR ( 'NONE', #258, 1000.000000000000000 ) ;
#154 = CARTESIAN_POINT ( 'NONE',  ( 0.000000000000000000, 0.000000000000000000, 5.499999999999949374 ) ) ;
#155 = EDGE_LOOP ( 'NONE', ( #7, #149, #279, #124 ) ) ;
#156 = DIRECTION ( 'NONE',  ( 0.000000000000000000, 0.000000000000000000, -1.000000000000000000 ) ) ;
#157 = ORIENTED_EDGE ( 'NONE', *, *, #245, .F. ) ;
#158 = APPROVAL ( #137, 'NEURÈENÝ' ) ;
#159 = FACE_OUTER_BOUND ( 'NONE', #244, .T. ) ;
#160 = ADVANCED_FACE ( 'NONE', ( #67, #335 ), #92, .T. ) ;
#161 = CYLINDRICAL_SURFACE ( 'NONE', #27, 8.000000000000000000 ) ;
#162 = AXIS2_PLACEMENT_3D ( 'NONE', #13, #282, #220 ) ;
#163 = AXIS2_PLACEMENT_3D ( 'NONE', #215, #331, #284 ) ;
#164 = ORGANIZATION ( 'NEURÈENÝ', 'NEURÈENÝ', '' ) ;
#165 = VERTEX_POINT ( 'NONE', #100 ) ;
#166 = FACE_OUTER_BOUND ( 'NONE', #182, .T. ) ;
#167 = ORIENTED_EDGE ( 'NONE', *, *, #62, .F. ) ;
#168 = CYLINDRICAL_SURFACE ( 'NONE', #163, 8.000000000000000000 ) ;
#169 = LINE ( 'NONE', #79, #81 ) ;
#170 = ADVANCED_FACE ( 'NONE', ( #71 ), #168, .T. ) ;
#171 = CARTESIAN_POINT ( 'NONE',  ( 0.000000000000000000, 0.000000000000000000, 655.0000000000000000 ) ) ;
#172 = PRODUCT_DEFINITION_SHAPE ( 'NONE', 'NONE',  #49 ) ;
#173 = DIRECTION ( 'NONE',  ( -0.000000000000000000, -0.000000000000000000, -1.000000000000000000 ) ) ;
#174 = PERSON_AND_ORGANIZATION ( #349, #164 ) ;
#175 = CC_DESIGN_PERSON_AND_ORGANIZATION_ASSIGNMENT ( #140, #78, ( #49 ) ) ;
#176 = DIRECTION ( 'NONE',  ( 1.000000000000000000, 0.000000000000000000, 0.000000000000000000 ) ) ;
#177 = ADVANCED_FACE ( 'NONE', ( #318 ), #376, .T. ) ;
#178 = LINE ( 'NONE', #232, #379 ) ;
#179 = SECURITY_CLASSIFICATION_LEVEL ( 'unclassified' ) ;
#180 = VECTOR ( 'NONE', #229, 1000.000000000000000 ) ;
#181 = EDGE_CURVE ( 'NONE', #293, #42, #178, .T. ) ;
#182 = EDGE_LOOP ( 'NONE', ( #357, #339, #72, #305 ) ) ;
#183 = EDGE_CURVE ( 'NONE', #222, #61, #169, .T. ) ;
#184 = CARTESIAN_POINT ( 'NONE',  ( 5.000000000000000000, 6.123233995736766282E-16, 655.0000000000000000 ) ) ;
#185 = ORIENTED_EDGE ( 'NONE', *, *, #62, .T. ) ;
#186 = ORIENTED_EDGE ( 'NONE', *, *, #120, .F. ) ;
#187 = DIRECTION ( 'NONE',  ( 1.000000000000000000, 0.000000000000000000, 0.000000000000000000 ) ) ;
#188 = FACE_OUTER_BOUND ( 'NONE', #5, .T. ) ;
#189 = VERTEX_POINT ( 'NONE', #202 ) ;
#190 = DIRECTION ( 'NONE',  ( 1.224646799147353207E-16, 1.000000000000000000, -0.000000000000000000 ) ) ;
#191 = CIRCLE ( 'NONE', #55, 5.000000000000000000 ) ;
#192 = AXIS2_PLACEMENT_3D ( 'NONE', #139, #136, #371 ) ;
#193 = AXIS2_PLACEMENT_3D ( 'NONE', #237, #150, #356 ) ;
#194 = ORIENTED_EDGE ( 'NONE', *, *, #181, .T. ) ;
#195 = CYLINDRICAL_SURFACE ( 'NONE', #359, 3.250000000000000444 ) ;
#196 = FACE_OUTER_BOUND ( 'NONE', #102, .T. ) ;
#197 = ADVANCED_FACE ( 'NONE', ( #196 ), #347, .T. ) ;
#198 = CALENDAR_DATE ( 2022, 8, 7 ) ;
#199 = DIRECTION ( 'NONE',  ( 0.000000000000000000, 0.000000000000000000, 1.000000000000000000 ) ) ;
#200 = SHAPE_DEFINITION_REPRESENTATION ( #172, #33 ) ;
#201 = LOCAL_TIME ( 16, 44, 46.00000000000000000, #372 ) ;
#202 = CARTESIAN_POINT ( 'NONE',  ( -5.000000000000000000, 0.000000000000000000, 5.499999999999949374 ) ) ;
#203 = CALENDAR_DATE ( 2022, 8, 7 ) ;
#204 = CARTESIAN_POINT ( 'NONE',  ( 5.500000000000000000, 0.000000000000000000, 4.999999999999975131 ) ) ;
#205 = DATE_AND_TIME ( #203, #201 ) ;
#206 = EDGE_CURVE ( 'NONE', #293, #222, #221, .T. ) ;
#207 = VECTOR ( 'NONE', #272, 1000.000000000000000 ) ;
#208 = APPROVAL_ROLE ( '' ) ;
#209 = APPROVAL_PERSON_ORGANIZATION ( #224, #303, #227 ) ;
#210 = ORIENTED_EDGE ( 'NONE', *, *, #183, .T. ) ;
#211 = DIRECTION ( 'NONE',  ( 1.000000000000000000, 0.000000000000000000, 0.000000000000000000 ) ) ;
#212 = DIRECTION ( 'NONE',  ( 0.000000000000000000, 0.000000000000000000, -1.000000000000000000 ) ) ;
#213 = DIRECTION ( 'NONE',  ( 0.000000000000000000, 0.000000000000000000, 1.000000000000000000 ) ) ;
#214 = VERTEX_POINT ( 'NONE', #254 ) ;
#215 = CARTESIAN_POINT ( 'NONE',  ( 0.000000000000000000, 0.000000000000000000, 5.000000000000000000 ) ) ;
#216 = ORIENTED_EDGE ( 'NONE', *, *, #298, .F. ) ;
#217 = DIRECTION ( 'NONE',  ( 0.000000000000000000, 0.000000000000000000, 1.000000000000000000 ) ) ;
#218 = CARTESIAN_POINT ( 'NONE',  ( 0.000000000000000000, 0.000000000000000000, 5.000000000000000000 ) ) ;
#219 = EDGE_LOOP ( 'NONE', ( #122, #70 ) ) ;
#220 = DIRECTION ( 'NONE',  ( 1.000000000000000000, 0.000000000000000000, -0.000000000000000000 ) ) ;
#221 = CIRCLE ( 'NONE', #87, 3.250000000000000444 ) ;
#222 = VERTEX_POINT ( 'NONE', #18 ) ;
#223 = DIRECTION ( 'NONE',  ( -0.000000000000000000, -0.000000000000000000, -1.000000000000000000 ) ) ;
#224 = PERSON_AND_ORGANIZATION ( #349, #164 ) ;
#225 = DIRECTION ( 'NONE',  ( 0.000000000000000000, 0.000000000000000000, -1.000000000000000000 ) ) ;
#226 = EDGE_CURVE ( 'NONE', #354, #151, #141, .T. ) ;
#227 = APPROVAL_ROLE ( '' ) ;
#228 = CC_DESIGN_DATE_AND_TIME_ASSIGNMENT ( #205, #107, ( #49 ) ) ;
#229 = DIRECTION ( 'NONE',  ( -0.000000000000000000, -0.000000000000000000, -1.000000000000000000 ) ) ;
#230 = EDGE_CURVE ( 'NONE', #292, #253, #264, .T. ) ;
#231 = CIRCLE ( 'NONE', #59, 8.000000000000000000 ) ;
#232 = CARTESIAN_POINT ( 'NONE',  ( -3.250000000000000444, 0.000000000000000000, 655.0000000000000000 ) ) ;
#233 = EDGE_CURVE ( 'NONE', #253, #292, #94, .T. ) ;
#234 = ADVANCED_FACE ( 'NONE', ( #317, #52 ), #367, .F. ) ;
#235 = CIRCLE ( 'NONE', #128, 3.250000000000000444 ) ;
#236 = APPROVAL ( #2, 'NEURÈENÝ' ) ;
#237 = CARTESIAN_POINT ( 'NONE',  ( 0.000000000000000000, 0.000000000000000000, 5.499999999999949374 ) ) ;
#238 = EDGE_LOOP ( 'NONE', ( #86, #84 ) ) ;
#239 = MECHANICAL_CONTEXT ( 'NONE', #378, 'mechanical' ) ;
#240 = TOROIDAL_SURFACE ( 'NONE', #138, 5.500000000000000000, 0.5000000000000000000 ) ;
#241 = EDGE_LOOP ( 'NONE', ( #60, #186 ) ) ;
#242 = DIRECTION ( 'NONE',  ( 1.000000000000000000, 0.000000000000000000, 0.000000000000000000 ) ) ;
#243 = CARTESIAN_POINT ( 'NONE',  ( 0.000000000000000000, 0.000000000000000000, 0.000000000000000000 ) ) ;
#244 = EDGE_LOOP ( 'NONE', ( #36, #132 ) ) ;
#245 = EDGE_CURVE ( 'NONE', #16, #189, #104, .T. ) ;
#246 = DIRECTION ( 'NONE',  ( -1.000000000000000000, 0.000000000000000000, 0.000000000000000000 ) ) ;
#247 = EDGE_LOOP ( 'NONE', ( #216, #46, #91, #185 ) ) ;
#248 = DIRECTION ( 'NONE',  ( -0.000000000000000000, -0.000000000000000000, -1.000000000000000000 ) ) ;
#249 = CC_DESIGN_APPROVAL ( #158, ( #26 ) ) ;
#250 = CARTESIAN_POINT ( 'NONE',  ( 0.000000000000000000, 0.000000000000000000, 0.000000000000000000 ) ) ;
#251 = ORIENTED_EDGE ( 'NONE', *, *, #57, .F. ) ;
#252 = DIRECTION ( 'NONE',  ( 1.000000000000000000, 0.000000000000000000, -0.000000000000000000 ) ) ;
#253 = VERTEX_POINT ( 'NONE', #204 ) ;
#254 = CARTESIAN_POINT ( 'NONE',  ( 5.000000000000000000, 6.123233995736766282E-16, 655.0000000000000000 ) ) ;
#255 = COORDINATED_UNIVERSAL_TIME_OFFSET ( 1, 0, .AHEAD. ) ;
#256 = AXIS2_PLACEMENT_3D ( 'NONE', #342, #21, #108 ) ;
#257 = DIRECTION ( 'NONE',  ( 1.000000000000000000, 0.000000000000000000, 0.000000000000000000 ) ) ;
#258 = DIRECTION ( 'NONE',  ( -0.000000000000000000, -0.000000000000000000, -1.000000000000000000 ) ) ;
#259 = CARTESIAN_POINT ( 'NONE',  ( 0.000000000000000000, 0.000000000000000000, 655.0000000000000000 ) ) ;
#260 = DATE_AND_TIME ( #263, #346 ) ;
#261 = AXIS2_PLACEMENT_3D ( 'NONE', #171, #173, #373 ) ;
#262 = AXIS2_PLACEMENT_3D ( 'NONE', #243, #213, #88 ) ;
#263 = CALENDAR_DATE ( 2022, 8, 7 ) ;
#264 = CIRCLE ( 'NONE', #144, 5.500000000000000000 ) ;
#265 = EDGE_CURVE ( 'NONE', #354, #39, #231, .T. ) ;
#266 = AXIS2_PLACEMENT_3D ( 'NONE', #268, #121, #211 ) ;
#267 = EDGE_CURVE ( 'NONE', #16, #214, #44, .T. ) ;
#268 = CARTESIAN_POINT ( 'NONE',  ( 0.000000000000000000, 0.000000000000000000, 5.000000000000000000 ) ) ;
#269 = DIRECTION ( 'NONE',  ( 0.000000000000000000, 0.000000000000000000, 1.000000000000000000 ) ) ;
#270 = VECTOR ( 'NONE', #248, 1000.000000000000000 ) ;
#271 = ADVANCED_FACE ( 'NONE', ( #50 ), #106, .F. ) ;
#272 = DIRECTION ( 'NONE',  ( -0.000000000000000000, -0.000000000000000000, -1.000000000000000000 ) ) ;
#273 = EDGE_LOOP ( 'NONE', ( #327, #251 ) ) ;
#274 = CARTESIAN_POINT ( 'NONE',  ( 0.000000000000000000, 0.000000000000000000, 5.499999999999949374 ) ) ;
#275 = ORIENTED_EDGE ( 'NONE', *, *, #323, .T. ) ;
#276 = CARTESIAN_POINT ( 'NONE',  ( -5.500000000000000000, 6.735557395310442023E-16, 5.499999999999949374 ) ) ;
#277 = CARTESIAN_POINT ( 'NONE',  ( 0.000000000000000000, 0.000000000000000000, 0.000000000000000000 ) ) ;
#278 = CC_DESIGN_APPROVAL ( #303, ( #348 ) ) ;
#279 = ORIENTED_EDGE ( 'NONE', *, *, #374, .T. ) ;
#280 = CARTESIAN_POINT ( 'NONE',  ( -8.000000000000000000, 0.000000000000000000, 0.000000000000000000 ) ) ;
#281 = ORIENTED_EDGE ( 'NONE', *, *, #43, .T. ) ;
#282 = DIRECTION ( 'NONE',  ( 0.000000000000000000, 0.000000000000000000, 1.000000000000000000 ) ) ;
#283 = DIRECTION ( 'NONE',  ( 0.000000000000000000, 0.000000000000000000, 1.000000000000000000 ) ) ;
#284 = DIRECTION ( 'NONE',  ( -1.000000000000000000, 0.000000000000000000, 0.000000000000000000 ) ) ;
#285 = AXIS2_PLACEMENT_3D ( 'NONE', #340, #223, #109 ) ;
#286 = DIRECTION ( 'NONE',  ( 0.000000000000000000, 0.000000000000000000, 1.000000000000000000 ) ) ;
#287 = CARTESIAN_POINT ( 'NONE',  ( -3.250000000000000444, 0.000000000000000000, 655.0000000000000000 ) ) ;
#288 = CARTESIAN_POINT ( 'NONE',  ( 0.000000000000000000, 0.000000000000000000, 0.000000000000000000 ) ) ;
#289 = PERSON_AND_ORGANIZATION ( #349, #164 ) ;
#290 = CIRCLE ( 'NONE', #119, 5.000000000000000000 ) ;
#291 = AXIS2_PLACEMENT_3D ( 'NONE', #135, #362, #97 ) ;
#292 = VERTEX_POINT ( 'NONE', #344 ) ;
#293 = VERTEX_POINT ( 'NONE', #287 ) ;
#294 = DIRECTION ( 'NONE',  ( -0.000000000000000000, -0.000000000000000000, -1.000000000000000000 ) ) ;
#295 = ADVANCED_FACE ( 'NONE', ( #22 ), #240, .F. ) ;
#296 = CIRCLE ( 'NONE', #291, 8.000000000000000000 ) ;
#297 = ORIENTED_EDGE ( 'NONE', *, *, #298, .T. ) ;
#298 = EDGE_CURVE ( 'NONE', #214, #165, #32, .T. ) ;
#299 = PERSON_AND_ORGANIZATION ( #349, #164 ) ;
#300 = ORIENTED_EDGE ( 'NONE', *, *, #113, .F. ) ;
#301 = DIRECTION ( 'NONE',  ( 0.000000000000000000, 0.000000000000000000, 1.000000000000000000 ) ) ;
#302 = ADVANCED_FACE ( 'NONE', ( #353 ), #96, .F. ) ;
#303 = APPROVAL ( #110, 'NEURÈENÝ' ) ;
#304 = CARTESIAN_POINT ( 'NONE',  ( 8.000000000000000000, 9.797174393178825657E-16, 0.000000000000000000 ) ) ;
#305 = ORIENTED_EDGE ( 'NONE', *, *, #131, .T. ) ;
#306 = DIRECTION ( 'NONE',  ( 1.000000000000000000, 0.000000000000000000, 0.000000000000000000 ) ) ;
#307 = AXIS2_PLACEMENT_3D ( 'NONE', #3, #269, #355 ) ;
#308 = ORIENTED_EDGE ( 'NONE', *, *, #206, .T. ) ;
#309 = CARTESIAN_POINT ( 'NONE',  ( 0.000000000000000000, 0.000000000000000000, 655.0000000000000000 ) ) ;
#310 = DIRECTION ( 'NONE',  ( -0.000000000000000000, -0.000000000000000000, -1.000000000000000000 ) ) ;
#311 = APPROVAL_DATE_TIME ( #51, #158 ) ;
#312 = EDGE_CURVE ( 'NONE', #39, #354, #369, .T. ) ;
#313 = CARTESIAN_POINT ( 'NONE',  ( 0.000000000000000000, 0.000000000000000000, 655.0000000000000000 ) ) ;
#314 = DATE_TIME_ROLE ( 'classification_date' ) ;
#315 = AXIS2_PLACEMENT_3D ( 'NONE', #288, #286, #75 ) ;
#316 = CIRCLE ( 'NONE', #37, 0.5000000000000004441 ) ;
#317 = FACE_BOUND ( 'NONE', #273, .T. ) ;
#318 = FACE_OUTER_BOUND ( 'NONE', #247, .T. ) ;
#319 = DATE_AND_TIME ( #146, #20 ) ;
#320 = CIRCLE ( 'NONE', #361, 8.000000000000000000 ) ;
#321 = CIRCLE ( 'NONE', #307, 5.000000000000000000 ) ;
#322 = CC_DESIGN_DATE_AND_TIME_ASSIGNMENT ( #343, #314, ( #26 ) ) ;
#323 = EDGE_CURVE ( 'NONE', #42, #61, #235, .T. ) ;
#324 = MANIFOLD_SOLID_BREP ( 'Odebrat vysunutím3', #4 ) ;
#325 = ORIENTED_EDGE ( 'NONE', *, *, #183, .F. ) ;
#326 = COORDINATED_UNIVERSAL_TIME_OFFSET ( 1, 0, .AHEAD. ) ;
#327 = ORIENTED_EDGE ( 'NONE', *, *, #323, .F. ) ;
#328 =( LENGTH_UNIT ( ) NAMED_UNIT ( * ) SI_UNIT ( .MILLI., .METRE. ) );
#329 = ORIENTED_EDGE ( 'NONE', *, *, #226, .T. ) ;
#330 = LOCAL_TIME ( 16, 44, 46.00000000000000000, #368 ) ;
#331 = DIRECTION ( 'NONE',  ( -0.000000000000000000, -0.000000000000000000, -1.000000000000000000 ) ) ;
#332 = CC_DESIGN_PERSON_AND_ORGANIZATION_ASSIGNMENT ( #54, #341, ( #348 ) ) ;
#333 = ORIENTED_EDGE ( 'NONE', *, *, #370, .F. ) ;
#334 = LINE ( 'NONE', #126, #270 ) ;
#335 = FACE_OUTER_BOUND ( 'NONE', #58, .T. ) ;
#336 = EDGE_LOOP ( 'NONE', ( #99, #329, #134, #300 ) ) ;
#337 = CARTESIAN_POINT ( 'NONE',  ( 0.000000000000000000, 0.000000000000000000, 5.499999999999949374 ) ) ;
#338 = AXIS2_PLACEMENT_3D ( 'NONE', #15, #69, #252 ) ;
#339 = ORIENTED_EDGE ( 'NONE', *, *, #312, .F. ) ;
#340 = CARTESIAN_POINT ( 'NONE',  ( 0.000000000000000000, 0.000000000000000000, 655.0000000000000000 ) ) ;
#341 = PERSON_AND_ORGANIZATION_ROLE ( 'design_supplier' ) ;
#342 = CARTESIAN_POINT ( 'NONE',  ( 0.000000000000000000, 0.000000000000000000, 655.0000000000000000 ) ) ;
#343 = DATE_AND_TIME ( #74, #111 ) ;
#344 = CARTESIAN_POINT ( 'NONE',  ( -5.500000000000000000, 6.735557395310442023E-16, 4.999999999999975131 ) ) ;
#345 = PRODUCT ( 'cc35', 'cc35', '', ( #239 ) ) ;
#346 = LOCAL_TIME ( 16, 44, 46.00000000000000000, #326 ) ;
#347 = CYLINDRICAL_SURFACE ( 'NONE', #285, 5.000000000000000000 ) ;
#348 = PRODUCT_DEFINITION_FORMATION_WITH_SPECIFIED_SOURCE ( 'LIBOVOLNÝ', '', #345, .NOT_KNOWN. ) ;
#349 = PERSON ( 'NEURÈENÝ', 'NEURÈENÝ', 'NEURÈENÝ', ('NEURÈENÝ'), ('NEURÈENÝ'), ('NEURÈENÝ') ) ;
#350 = ORIENTED_EDGE ( 'NONE', *, *, #57, .T. ) ;
#351 = CARTESIAN_POINT ( 'NONE',  ( 5.500000000000000000, 0.000000000000000000, 5.499999999999949374 ) ) ;
#352 = EDGE_LOOP ( 'NONE', ( #167, #95, #66, #10 ) ) ;
#353 = FACE_OUTER_BOUND ( 'NONE', #155, .T. ) ;
#354 = VERTEX_POINT ( 'NONE', #30 ) ;
#355 = DIRECTION ( 'NONE',  ( 1.000000000000000000, 0.000000000000000000, 0.000000000000000000 ) ) ;
#356 = DIRECTION ( 'NONE',  ( 1.000000000000000000, 0.000000000000000000, 0.000000000000000000 ) ) ;
#357 = ORIENTED_EDGE ( 'NONE', *, *, #226, .F. ) ;
#358 = DIRECTION ( 'NONE',  ( 1.000000000000000000, 0.000000000000000000, 0.000000000000000000 ) ) ;
#359 = AXIS2_PLACEMENT_3D ( 'NONE', #309, #156, #246 ) ;
#360 = ORIENTED_EDGE ( 'NONE', *, *, #181, .F. ) ;
#361 = AXIS2_PLACEMENT_3D ( 'NONE', #277, #217, #98 ) ;
#362 = DIRECTION ( 'NONE',  ( 0.000000000000000000, 0.000000000000000000, 1.000000000000000000 ) ) ;
#363 = DIRECTION ( 'NONE',  ( 1.000000000000000000, 0.000000000000000000, 0.000000000000000000 ) ) ;
#364 = ORIENTED_EDGE ( 'NONE', *, *, #267, .T. ) ;
#365 = PLANE ( 'NONE',  #162 ) ;
#366 = FACE_BOUND ( 'NONE', #238, .T. ) ;
#367 = PLANE ( 'NONE',  #315 ) ;
#368 = COORDINATED_UNIVERSAL_TIME_OFFSET ( 1, 0, .AHEAD. ) ;
#369 = CIRCLE ( 'NONE', #266, 8.000000000000000000 ) ;
#370 = EDGE_CURVE ( 'NONE', #214, #16, #321, .T. ) ;
#371 = DIRECTION ( 'NONE',  ( 1.000000000000000000, 0.000000000000000000, 0.000000000000000000 ) ) ;
#372 = COORDINATED_UNIVERSAL_TIME_OFFSET ( 1, 0, .AHEAD. ) ;
#373 = DIRECTION ( 'NONE',  ( -1.000000000000000000, 0.000000000000000000, 0.000000000000000000 ) ) ;
#374 = EDGE_CURVE ( 'NONE', #165, #253, #316, .T. ) ;
#375 = CIRCLE ( 'NONE', #114, 0.5000000000000004441 ) ;
#376 = CYLINDRICAL_SURFACE ( 'NONE', #261, 5.000000000000000000 ) ;
#377 = PERSON_AND_ORGANIZATION_ROLE ( 'creator' ) ;
#378 = APPLICATION_CONTEXT ( 'configuration controlled 3d designs of mechanical parts and assemblies' ) ;
#379 = VECTOR ( 'NONE', #225, 1000.000000000000000 ) ;
#380 = CC_DESIGN_SECURITY_CLASSIFICATION ( #26, ( #348 ) ) ;
#381 = PERSON_AND_ORGANIZATION_ROLE ( 'classification_officer' ) ;
ENDSEC;
END-ISO-10303-21;
