ISO-10303-21;
HEADER;
FILE_DESCRIPTION (( 'STEP AP203' ),
    '1' );
FILE_NAME ('6032.STEP',
    '2022-07-08T15:28:49',
    ( '' ),
    ( '' ),
    'SwSTEP 2.0',
    'SolidWorks 2019',
    '' );
FILE_SCHEMA (( 'CONFIG_CONTROL_DESIGN' ));
ENDSEC;

DATA;
#1 = CARTESIAN_POINT ( 'NONE',  ( 0.000000000000000000, 0.000000000000000000, 80.00000000000000000 ) ) ;
#2 = CALENDAR_DATE ( 2022, 8, 7 ) ;
#3 = AXIS2_PLACEMENT_3D ( 'NONE', #5, #178, #316 ) ;
#4 = APPROVAL_STATUS ( 'not_yet_approved' ) ;
#5 = CARTESIAN_POINT ( 'NONE',  ( -4.500000000000000888, 5.510910596163089556E-16, 5.500000000000005329 ) ) ;
#6 = DIRECTION ( 'NONE',  ( 0.000000000000000000, 0.000000000000000000, 1.000000000000000000 ) ) ;
#7 = TOROIDAL_SURFACE ( 'NONE', #64, 4.500000000000000888, 0.5000000000000000000 ) ;
#8 = CC_DESIGN_APPROVAL ( #277, ( #120 ) ) ;
#9 = ADVANCED_FACE ( 'NONE', ( #126 ), #358, .T. ) ;
#10 = FACE_BOUND ( 'NONE', #81, .T. ) ;
#11 = ORIENTED_EDGE ( 'NONE', *, *, #38, .T. ) ;
#12 = DIRECTION ( 'NONE',  ( 0.000000000000000000, 0.000000000000000000, 1.000000000000000000 ) ) ;
#13 = DIRECTION ( 'NONE',  ( 1.000000000000000000, 0.000000000000000000, 0.000000000000000000 ) ) ;
#14 = ORIENTED_EDGE ( 'NONE', *, *, #73, .T. ) ;
#15 = CIRCLE ( 'NONE', #275, 4.000000000000000000 ) ;
#16 = DIRECTION ( 'NONE',  ( 1.000000000000000000, 0.000000000000000000, 0.000000000000000000 ) ) ;
#17 = ORIENTED_EDGE ( 'NONE', *, *, #285, .T. ) ;
#18 = FACE_OUTER_BOUND ( 'NONE', #137, .T. ) ;
#19 = EDGE_LOOP ( 'NONE', ( #106, #134 ) ) ;
#20 = EDGE_CURVE ( 'NONE', #371, #366, #172, .T. ) ;
#21 =( NAMED_UNIT ( * ) PLANE_ANGLE_UNIT ( ) SI_UNIT ( $, .RADIAN. ) );
#22 = ORIENTED_EDGE ( 'NONE', *, *, #230, .F. ) ;
#23 = AXIS2_PLACEMENT_3D ( 'NONE', #267, #6, #283 ) ;
#24 = APPLICATION_PROTOCOL_DEFINITION ( 'international standard', 'config_control_design', 1994, #296 ) ;
#25 = EDGE_LOOP ( 'NONE', ( #111, #22 ) ) ;
#26 = DIRECTION ( 'NONE',  ( 0.000000000000000000, 0.000000000000000000, 1.000000000000000000 ) ) ;
#27 = DIRECTION ( 'NONE',  ( -1.000000000000000000, 0.000000000000000000, 0.000000000000000000 ) ) ;
#28 = UNCERTAINTY_MEASURE_WITH_UNIT (LENGTH_MEASURE( 1.000000000000000082E-05 ), #202, 'distance_accuracy_value', 'NONE');
#29 = APPROVAL_STATUS ( 'not_yet_approved' ) ;
#30 = DIRECTION ( 'NONE',  ( -0.000000000000000000, -0.000000000000000000, -1.000000000000000000 ) ) ;
#31 = AXIS2_PLACEMENT_3D ( 'NONE', #44, #327, #16 ) ;
#32 = DIRECTION ( 'NONE',  ( 0.000000000000000000, 0.000000000000000000, -1.000000000000000000 ) ) ;
#33 = EDGE_CURVE ( 'NONE', #144, #368, #98, .T. ) ;
#34 = PERSON_AND_ORGANIZATION ( #182, #224 ) ;
#35 = EDGE_CURVE ( 'NONE', #152, #168, #294, .T. ) ;
#36 = COORDINATED_UNIVERSAL_TIME_OFFSET ( 1, 0, .AHEAD. ) ;
#37 = AXIS2_PLACEMENT_3D ( 'NONE', #162, #77, #221 ) ;
#38 = EDGE_CURVE ( 'NONE', #173, #56, #187, .T. ) ;
#39 = ORIENTED_EDGE ( 'NONE', *, *, #379, .F. ) ;
#40 = DIRECTION ( 'NONE',  ( -0.000000000000000000, -0.000000000000000000, -1.000000000000000000 ) ) ;
#41 = CIRCLE ( 'NONE', #203, 0.5000000000000004441 ) ;
#42 = ORIENTED_EDGE ( 'NONE', *, *, #326, .T. ) ;
#43 = ADVANCED_FACE ( 'NONE', ( #70 ), #7, .F. ) ;
#44 = CARTESIAN_POINT ( 'NONE',  ( 0.000000000000000000, 0.000000000000000000, 5.500000000000005329 ) ) ;
#45 = EDGE_CURVE ( 'NONE', #225, #247, #353, .T. ) ;
#46 = CARTESIAN_POINT ( 'NONE',  ( 0.000000000000000000, 0.000000000000000000, 80.00000000000000000 ) ) ;
#47 = CARTESIAN_POINT ( 'NONE',  ( 0.000000000000000000, 0.000000000000000000, 5.000000000000000000 ) ) ;
#48 = ORIENTED_EDGE ( 'NONE', *, *, #378, .F. ) ;
#49 = APPROVAL_PERSON_ORGANIZATION ( #174, #277, #143 ) ;
#50 = DIRECTION ( 'NONE',  ( 1.000000000000000000, 0.000000000000000000, 0.000000000000000000 ) ) ;
#51 = EDGE_CURVE ( 'NONE', #225, #173, #189, .T. ) ;
#52 = EDGE_LOOP ( 'NONE', ( #86, #338, #42, #252 ) ) ;
#53 = CARTESIAN_POINT ( 'NONE',  ( 4.500000000000000888, 0.000000000000000000, 5.500000000000005329 ) ) ;
#54 = ORIENTED_EDGE ( 'NONE', *, *, #177, .T. ) ;
#55 = COORDINATED_UNIVERSAL_TIME_OFFSET ( 1, 0, .AHEAD. ) ;
#56 = VERTEX_POINT ( 'NONE', #99 ) ;
#57 = CIRCLE ( 'NONE', #212, 2.100000000000000089 ) ;
#58 = DATE_TIME_ROLE ( 'creation_date' ) ;
#59 = ORIENTED_EDGE ( 'NONE', *, *, #20, .T. ) ;
#60 = APPROVAL_DATE_TIME ( #179, #332 ) ;
#61 = DIRECTION ( 'NONE',  ( 0.000000000000000000, 0.000000000000000000, 1.000000000000000000 ) ) ;
#62 = CALENDAR_DATE ( 2022, 8, 7 ) ;
#63 = DIRECTION ( 'NONE',  ( 1.000000000000000000, 0.000000000000000000, 0.000000000000000000 ) ) ;
#64 = AXIS2_PLACEMENT_3D ( 'NONE', #266, #185, #146 ) ;
#65 = LOCAL_TIME ( 17, 28, 49.00000000000000000, #352 ) ;
#66 = ADVANCED_BREP_SHAPE_REPRESENTATION ( '6032', ( #71, #116 ), #164 ) ;
#67 = AXIS2_PLACEMENT_3D ( 'NONE', #299, #157, #167 ) ;
#68 = CARTESIAN_POINT ( 'NONE',  ( 0.000000000000000000, 0.000000000000000000, 5.000000000000000000 ) ) ;
#69 = EDGE_CURVE ( 'NONE', #168, #136, #175, .T. ) ;
#70 = FACE_OUTER_BOUND ( 'NONE', #373, .T. ) ;
#71 = MANIFOLD_SOLID_BREP ( 'Odebrat vysunutím3', #163 ) ;
#72 = CARTESIAN_POINT ( 'NONE',  ( 4.000000000000000000, 4.898587196589412829E-16, 80.00000000000000000 ) ) ;
#73 = EDGE_CURVE ( 'NONE', #56, #366, #119, .T. ) ;
#74 = DIRECTION ( 'NONE',  ( -0.000000000000000000, -0.000000000000000000, -1.000000000000000000 ) ) ;
#75 = VECTOR ( 'NONE', #91, 1000.000000000000000 ) ;
#76 = AXIS2_PLACEMENT_3D ( 'NONE', #100, #188, #13 ) ;
#77 = DIRECTION ( 'NONE',  ( -0.000000000000000000, -0.000000000000000000, -1.000000000000000000 ) ) ;
#78 = CARTESIAN_POINT ( 'NONE',  ( 0.000000000000000000, 0.000000000000000000, 0.000000000000000000 ) ) ;
#79 = ORIENTED_EDGE ( 'NONE', *, *, #190, .F. ) ;
#80 = CARTESIAN_POINT ( 'NONE',  ( 7.000000000000000000, 8.572527594031473190E-16, 5.000000000000000000 ) ) ;
#81 = EDGE_LOOP ( 'NONE', ( #59, #114 ) ) ;
#82 = CIRCLE ( 'NONE', #88, 7.000000000000000000 ) ;
#83 = DATE_AND_TIME ( #259, #181 ) ;
#84 = ORIENTED_EDGE ( 'NONE', *, *, #357, .T. ) ;
#85 = ORIENTED_EDGE ( 'NONE', *, *, #165, .F. ) ;
#86 = ORIENTED_EDGE ( 'NONE', *, *, #35, .F. ) ;
#87 = AXIS2_PLACEMENT_3D ( 'NONE', #124, #347, #240 ) ;
#88 = AXIS2_PLACEMENT_3D ( 'NONE', #191, #128, #130 ) ;
#89 = CYLINDRICAL_SURFACE ( 'NONE', #307, 2.100000000000000089 ) ;
#90 = ADVANCED_FACE ( 'NONE', ( #325 ), #89, .F. ) ;
#91 = DIRECTION ( 'NONE',  ( -0.000000000000000000, -0.000000000000000000, -1.000000000000000000 ) ) ;
#92 = DATE_AND_TIME ( #350, #335 ) ;
#93 = CIRCLE ( 'NONE', #148, 2.100000000000000089 ) ;
#94 = CC_DESIGN_PERSON_AND_ORGANIZATION_ASSIGNMENT ( #171, #336, ( #322 ) ) ;
#95 = CYLINDRICAL_SURFACE ( 'NONE', #196, 7.000000000000000000 ) ;
#96 = APPLICATION_CONTEXT ( 'configuration controlled 3d designs of mechanical parts and assemblies' ) ;
#97 = SECURITY_CLASSIFICATION ( '', '', #121 ) ;
#98 = LINE ( 'NONE', #214, #209 ) ;
#99 = CARTESIAN_POINT ( 'NONE',  ( -4.000000000000000000, 0.000000000000000000, 5.500000000000005329 ) ) ;
#100 = CARTESIAN_POINT ( 'NONE',  ( 0.000000000000000000, 0.000000000000000000, 5.500000000000005329 ) ) ;
#101 = CARTESIAN_POINT ( 'NONE',  ( 7.000000000000000000, 8.572527594031473190E-16, 0.000000000000000000 ) ) ;
#102 = AXIS2_PLACEMENT_3D ( 'NONE', #270, #243, #367 ) ;
#103 = DIRECTION ( 'NONE',  ( 1.000000000000000000, 0.000000000000000000, -0.000000000000000000 ) ) ;
#104 = ORIENTED_EDGE ( 'NONE', *, *, #69, .T. ) ;
#105 = FACE_OUTER_BOUND ( 'NONE', #19, .T. ) ;
#106 = ORIENTED_EDGE ( 'NONE', *, *, #357, .F. ) ;
#107 = FACE_BOUND ( 'NONE', #25, .T. ) ;
#108 = ORIENTED_EDGE ( 'NONE', *, *, #348, .T. ) ;
#109 = AXIS2_PLACEMENT_3D ( 'NONE', #160, #129, #50 ) ;
#110 = CARTESIAN_POINT ( 'NONE',  ( -2.100000000000000089, 0.000000000000000000, 0.000000000000000000 ) ) ;
#111 = ORIENTED_EDGE ( 'NONE', *, *, #348, .F. ) ;
#112 = ADVANCED_FACE ( 'NONE', ( #142 ), #375, .F. ) ;
#113 = CARTESIAN_POINT ( 'NONE',  ( 0.000000000000000000, 0.000000000000000000, 0.000000000000000000 ) ) ;
#114 = ORIENTED_EDGE ( 'NONE', *, *, #125, .T. ) ;
#115 = DIRECTION ( 'NONE',  ( 0.000000000000000000, 0.000000000000000000, -1.000000000000000000 ) ) ;
#116 = AXIS2_PLACEMENT_3D ( 'NONE', #374, #233, #342 ) ;
#117 = CARTESIAN_POINT ( 'NONE',  ( -4.000000000000000000, 0.000000000000000000, 80.00000000000000000 ) ) ;
#118 = APPROVAL_ROLE ( '' ) ;
#119 = CIRCLE ( 'NONE', #3, 0.5000000000000004441 ) ;
#120 = PRODUCT_DEFINITION_FORMATION_WITH_SPECIFIED_SOURCE ( 'LIBOVOLNÝ', '', #314, .NOT_KNOWN. ) ;
#121 = SECURITY_CLASSIFICATION_LEVEL ( 'unclassified' ) ;
#122 = PERSON_AND_ORGANIZATION ( #182, #224 ) ;
#123 = CARTESIAN_POINT ( 'NONE',  ( -2.100000000000000089, 0.000000000000000000, 80.00000000000000000 ) ) ;
#124 = CARTESIAN_POINT ( 'NONE',  ( 0.000000000000000000, 0.000000000000000000, 5.000000000000000000 ) ) ;
#125 = EDGE_CURVE ( 'NONE', #366, #371, #262, .T. ) ;
#126 = FACE_OUTER_BOUND ( 'NONE', #52, .T. ) ;
#127 = EDGE_CURVE ( 'NONE', #343, #281, #180, .T. ) ;
#128 = DIRECTION ( 'NONE',  ( 0.000000000000000000, 0.000000000000000000, 1.000000000000000000 ) ) ;
#129 = DIRECTION ( 'NONE',  ( 0.000000000000000000, 0.000000000000000000, 1.000000000000000000 ) ) ;
#130 = DIRECTION ( 'NONE',  ( 1.000000000000000000, 0.000000000000000000, 0.000000000000000000 ) ) ;
#131 = AXIS2_PLACEMENT_3D ( 'NONE', #47, #279, #103 ) ;
#132 = ORIENTED_EDGE ( 'NONE', *, *, #125, .F. ) ;
#133 = DIRECTION ( 'NONE',  ( 1.000000000000000000, 0.000000000000000000, 0.000000000000000000 ) ) ;
#134 = ORIENTED_EDGE ( 'NONE', *, *, #326, .F. ) ;
#135 = PLANE ( 'NONE',  #67 ) ;
#136 = VERTEX_POINT ( 'NONE', #260 ) ;
#137 = EDGE_LOOP ( 'NONE', ( #254, #48, #11, #249 ) ) ;
#138 = CC_DESIGN_APPROVAL ( #273, ( #97 ) ) ;
#139 = DIRECTION ( 'NONE',  ( 0.000000000000000000, 0.000000000000000000, 1.000000000000000000 ) ) ;
#140 = EDGE_LOOP ( 'NONE', ( #300, #274 ) ) ;
#141 = DIRECTION ( 'NONE',  ( 0.000000000000000000, -1.000000000000000000, 0.000000000000000000 ) ) ;
#142 = FACE_OUTER_BOUND ( 'NONE', #280, .T. ) ;
#143 = APPROVAL_ROLE ( '' ) ;
#144 = VERTEX_POINT ( 'NONE', #123 ) ;
#145 = AXIS2_PLACEMENT_3D ( 'NONE', #228, #253, #311 ) ;
#146 = DIRECTION ( 'NONE',  ( 1.000000000000000000, 0.000000000000000000, 0.000000000000000000 ) ) ;
#147 = AXIS2_PLACEMENT_3D ( 'NONE', #1, #115, #286 ) ;
#148 = AXIS2_PLACEMENT_3D ( 'NONE', #269, #218, #219 ) ;
#149 = PERSON_AND_ORGANIZATION_ROLE ( 'creator' ) ;
#150 = ADVANCED_FACE ( 'NONE', ( #239 ), #95, .T. ) ;
#151 = PERSON_AND_ORGANIZATION ( #182, #224 ) ;
#152 = VERTEX_POINT ( 'NONE', #80 ) ;
#153 = PERSON_AND_ORGANIZATION ( #182, #224 ) ;
#154 = CARTESIAN_POINT ( 'NONE',  ( 4.000000000000000000, 4.898587196589412829E-16, 80.00000000000000000 ) ) ;
#155 = ADVANCED_FACE ( 'NONE', ( #359 ), #156, .F. ) ;
#156 = TOROIDAL_SURFACE ( 'NONE', #31, 4.500000000000000888, 0.5000000000000000000 ) ;
#157 = DIRECTION ( 'NONE',  ( 0.000000000000000000, 0.000000000000000000, 1.000000000000000000 ) ) ;
#158 = CC_DESIGN_PERSON_AND_ORGANIZATION_ASSIGNMENT ( #199, #376, ( #314 ) ) ;
#159 = ORIENTED_EDGE ( 'NONE', *, *, #73, .F. ) ;
#160 = CARTESIAN_POINT ( 'NONE',  ( 0.000000000000000000, 0.000000000000000000, 5.000000000000000000 ) ) ;
#161 = CARTESIAN_POINT ( 'NONE',  ( 2.100000000000000089, 2.571758278209441957E-16, 80.00000000000000000 ) ) ;
#162 = CARTESIAN_POINT ( 'NONE',  ( 0.000000000000000000, 0.000000000000000000, 80.00000000000000000 ) ) ;
#163 = CLOSED_SHELL ( 'NONE', ( #112, #43, #337, #9, #150, #235, #184, #271, #319, #155, #90 ) ) ;
#164 =( GEOMETRIC_REPRESENTATION_CONTEXT ( 3 ) GLOBAL_UNCERTAINTY_ASSIGNED_CONTEXT ( ( #28 ) ) GLOBAL_UNIT_ASSIGNED_CONTEXT ( ( #202, #21, #372 ) ) REPRESENTATION_CONTEXT ( 'NONE', 'WORKASPACE' ) );
#165 = EDGE_CURVE ( 'NONE', #247, #56, #15, .T. ) ;
#166 = EDGE_LOOP ( 'NONE', ( #159, #85, #242, #132 ) ) ;
#167 = DIRECTION ( 'NONE',  ( 1.000000000000000000, 0.000000000000000000, -0.000000000000000000 ) ) ;
#168 = VERTEX_POINT ( 'NONE', #272 ) ;
#169 = CARTESIAN_POINT ( 'NONE',  ( -4.500000000000000888, 5.510910596163088569E-16, 5.000000000000002665 ) ) ;
#170 = ORIENTED_EDGE ( 'NONE', *, *, #127, .F. ) ;
#171 = PERSON_AND_ORGANIZATION ( #182, #224 ) ;
#172 = CIRCLE ( 'NONE', #87, 4.500000000000000888 ) ;
#173 = VERTEX_POINT ( 'NONE', #363 ) ;
#174 = PERSON_AND_ORGANIZATION ( #182, #224 ) ;
#175 = LINE ( 'NONE', #215, #75 ) ;
#176 = COORDINATED_UNIVERSAL_TIME_OFFSET ( 1, 0, .AHEAD. ) ;
#177 = EDGE_CURVE ( 'NONE', #168, #152, #210, .T. ) ;
#178 = DIRECTION ( 'NONE',  ( 1.224646799147353207E-16, 1.000000000000000000, -0.000000000000000000 ) ) ;
#179 = DATE_AND_TIME ( #62, #321 ) ;
#180 = LINE ( 'NONE', #288, #268 ) ;
#181 = LOCAL_TIME ( 17, 28, 49.00000000000000000, #176 ) ;
#182 = PERSON ( 'NEURÈENÝ', 'NEURÈENÝ', 'NEURÈENÝ', ('NEURÈENÝ'), ('NEURÈENÝ'), ('NEURÈENÝ') ) ;
#183 = SHAPE_DEFINITION_REPRESENTATION ( #192, #66 ) ;
#184 = ADVANCED_FACE ( 'NONE', ( #107, #105 ), #135, .F. ) ;
#185 = DIRECTION ( 'NONE',  ( 0.000000000000000000, 0.000000000000000000, 1.000000000000000000 ) ) ;
#186 = DATE_AND_TIME ( #2, #257 ) ;
#187 = LINE ( 'NONE', #117, #223 ) ;
#188 = DIRECTION ( 'NONE',  ( 0.000000000000000000, 0.000000000000000000, 1.000000000000000000 ) ) ;
#189 = CIRCLE ( 'NONE', #23, 4.000000000000000000 ) ;
#190 = EDGE_CURVE ( 'NONE', #56, #247, #263, .T. ) ;
#191 = CARTESIAN_POINT ( 'NONE',  ( 0.000000000000000000, 0.000000000000000000, 0.000000000000000000 ) ) ;
#192 = PRODUCT_DEFINITION_SHAPE ( 'NONE', 'NONE',  #322 ) ;
#193 = DIRECTION ( 'NONE',  ( -0.000000000000000000, -0.000000000000000000, -1.000000000000000000 ) ) ;
#194 = ORIENTED_EDGE ( 'NONE', *, *, #230, .T. ) ;
#195 = CYLINDRICAL_SURFACE ( 'NONE', #290, 4.000000000000000000 ) ;
#196 = AXIS2_PLACEMENT_3D ( 'NONE', #211, #320, #302 ) ;
#197 = ORIENTED_EDGE ( 'NONE', *, *, #127, .T. ) ;
#198 = ORIENTED_EDGE ( 'NONE', *, *, #35, .T. ) ;
#199 = PERSON_AND_ORGANIZATION ( #182, #224 ) ;
#200 = CC_DESIGN_DATE_AND_TIME_ASSIGNMENT ( #83, #58, ( #322 ) ) ;
#201 = ORIENTED_EDGE ( 'NONE', *, *, #51, .F. ) ;
#202 =( LENGTH_UNIT ( ) NAMED_UNIT ( * ) SI_UNIT ( .MILLI., .METRE. ) );
#203 = AXIS2_PLACEMENT_3D ( 'NONE', #53, #141, #339 ) ;
#204 = EDGE_LOOP ( 'NONE', ( #170, #17, #227, #108 ) ) ;
#205 = DIRECTION ( 'NONE',  ( 1.000000000000000000, 0.000000000000000000, 0.000000000000000000 ) ) ;
#206 = DIRECTION ( 'NONE',  ( -0.000000000000000000, -0.000000000000000000, -1.000000000000000000 ) ) ;
#207 = APPLICATION_PROTOCOL_DEFINITION ( 'international standard', 'config_control_design', 1994, #96 ) ;
#208 = DIRECTION ( 'NONE',  ( 1.000000000000000000, 0.000000000000000000, 0.000000000000000000 ) ) ;
#209 = VECTOR ( 'NONE', #324, 1000.000000000000000 ) ;
#210 = CIRCLE ( 'NONE', #109, 7.000000000000000000 ) ;
#211 = CARTESIAN_POINT ( 'NONE',  ( 0.000000000000000000, 0.000000000000000000, 5.000000000000000000 ) ) ;
#212 = AXIS2_PLACEMENT_3D ( 'NONE', #78, #193, #276 ) ;
#213 = CC_DESIGN_PERSON_AND_ORGANIZATION_ASSIGNMENT ( #122, #149, ( #120 ) ) ;
#214 = CARTESIAN_POINT ( 'NONE',  ( -2.100000000000000089, 0.000000000000000000, 80.00000000000000000 ) ) ;
#215 = CARTESIAN_POINT ( 'NONE',  ( -7.000000000000000000, 0.000000000000000000, 5.000000000000000000 ) ) ;
#216 = DIRECTION ( 'NONE',  ( -1.000000000000000000, 0.000000000000000000, 0.000000000000000000 ) ) ;
#217 = CIRCLE ( 'NONE', #301, 7.000000000000000000 ) ;
#218 = DIRECTION ( 'NONE',  ( 0.000000000000000000, 0.000000000000000000, 1.000000000000000000 ) ) ;
#219 = DIRECTION ( 'NONE',  ( 1.000000000000000000, 0.000000000000000000, 0.000000000000000000 ) ) ;
#220 = ORIENTED_EDGE ( 'NONE', *, *, #285, .F. ) ;
#221 = DIRECTION ( 'NONE',  ( -1.000000000000000000, 0.000000000000000000, 0.000000000000000000 ) ) ;
#222 = EDGE_LOOP ( 'NONE', ( #305, #220 ) ) ;
#223 = VECTOR ( 'NONE', #206, 1000.000000000000000 ) ;
#224 = ORGANIZATION ( 'NEURÈENÝ', 'NEURÈENÝ', '' ) ;
#225 = VERTEX_POINT ( 'NONE', #72 ) ;
#226 = DIRECTION ( 'NONE',  ( 1.000000000000000000, 0.000000000000000000, 0.000000000000000000 ) ) ;
#227 = ORIENTED_EDGE ( 'NONE', *, *, #33, .T. ) ;
#228 = CARTESIAN_POINT ( 'NONE',  ( 0.000000000000000000, 0.000000000000000000, 80.00000000000000000 ) ) ;
#229 = ORIENTED_EDGE ( 'NONE', *, *, #361, .T. ) ;
#230 = EDGE_CURVE ( 'NONE', #281, #368, #369, .T. ) ;
#231 = AXIS2_PLACEMENT_3D ( 'NONE', #312, #30, #63 ) ;
#232 = VECTOR ( 'NONE', #256, 1000.000000000000000 ) ;
#233 = DIRECTION ( 'NONE',  ( 0.000000000000000000, 0.000000000000000000, 1.000000000000000000 ) ) ;
#234 = CARTESIAN_POINT ( 'NONE',  ( 0.000000000000000000, 0.000000000000000000, 5.000000000000000000 ) ) ;
#235 = ADVANCED_FACE ( 'NONE', ( #10, #248 ), #244, .T. ) ;
#236 = PERSON_AND_ORGANIZATION_ROLE ( 'design_supplier' ) ;
#237 = DATE_AND_TIME ( #323, #65 ) ;
#238 = DATE_TIME_ROLE ( 'classification_date' ) ;
#239 = FACE_OUTER_BOUND ( 'NONE', #282, .T. ) ;
#240 = DIRECTION ( 'NONE',  ( 1.000000000000000000, 0.000000000000000000, 0.000000000000000000 ) ) ;
#241 = AXIS2_PLACEMENT_3D ( 'NONE', #295, #74, #133 ) ;
#242 = ORIENTED_EDGE ( 'NONE', *, *, #379, .T. ) ;
#243 = DIRECTION ( 'NONE',  ( 0.000000000000000000, 0.000000000000000000, 1.000000000000000000 ) ) ;
#244 = PLANE ( 'NONE',  #131 ) ;
#245 = AXIS2_PLACEMENT_3D ( 'NONE', #234, #380, #354 ) ;
#246 = CARTESIAN_POINT ( 'NONE',  ( 0.000000000000000000, 0.000000000000000000, 5.500000000000005329 ) ) ;
#247 = VERTEX_POINT ( 'NONE', #329 ) ;
#248 = FACE_OUTER_BOUND ( 'NONE', #331, .T. ) ;
#249 = ORIENTED_EDGE ( 'NONE', *, *, #190, .T. ) ;
#250 = PLANE ( 'NONE',  #102 ) ;
#251 = ORIENTED_EDGE ( 'NONE', *, *, #45, .T. ) ;
#252 = ORIENTED_EDGE ( 'NONE', *, *, #69, .F. ) ;
#253 = DIRECTION ( 'NONE',  ( 0.000000000000000000, 0.000000000000000000, 1.000000000000000000 ) ) ;
#254 = ORIENTED_EDGE ( 'NONE', *, *, #45, .F. ) ;
#255 = ORIENTED_EDGE ( 'NONE', *, *, #33, .F. ) ;
#256 = DIRECTION ( 'NONE',  ( -0.000000000000000000, -0.000000000000000000, -1.000000000000000000 ) ) ;
#257 = LOCAL_TIME ( 17, 28, 49.00000000000000000, #287 ) ;
#258 = CARTESIAN_POINT ( 'NONE',  ( 0.000000000000000000, 0.000000000000000000, 80.00000000000000000 ) ) ;
#259 = CALENDAR_DATE ( 2022, 8, 7 ) ;
#260 = CARTESIAN_POINT ( 'NONE',  ( -7.000000000000000000, 0.000000000000000000, 0.000000000000000000 ) ) ;
#261 = PERSON_AND_ORGANIZATION_ROLE ( 'classification_officer' ) ;
#262 = CIRCLE ( 'NONE', #231, 4.500000000000000888 ) ;
#263 = CIRCLE ( 'NONE', #76, 4.000000000000000000 ) ;
#264 = APPROVAL_DATE_TIME ( #186, #277 ) ;
#265 = APPROVAL_ROLE ( '' ) ;
#266 = CARTESIAN_POINT ( 'NONE',  ( 0.000000000000000000, 0.000000000000000000, 5.500000000000005329 ) ) ;
#267 = CARTESIAN_POINT ( 'NONE',  ( 0.000000000000000000, 0.000000000000000000, 80.00000000000000000 ) ) ;
#268 = VECTOR ( 'NONE', #32, 1000.000000000000000 ) ;
#269 = CARTESIAN_POINT ( 'NONE',  ( 0.000000000000000000, 0.000000000000000000, 80.00000000000000000 ) ) ;
#270 = CARTESIAN_POINT ( 'NONE',  ( 0.000000000000000000, 0.000000000000000000, 80.00000000000000000 ) ) ;
#271 = ADVANCED_FACE ( 'NONE', ( #18 ), #360, .T. ) ;
#272 = CARTESIAN_POINT ( 'NONE',  ( -7.000000000000000000, 0.000000000000000000, 5.000000000000000000 ) ) ;
#273 = APPROVAL ( #4, 'NEURÈENÝ' ) ;
#274 = ORIENTED_EDGE ( 'NONE', *, *, #51, .T. ) ;
#275 = AXIS2_PLACEMENT_3D ( 'NONE', #246, #12, #297 ) ;
#276 = DIRECTION ( 'NONE',  ( 1.000000000000000000, 0.000000000000000000, 0.000000000000000000 ) ) ;
#277 = APPROVAL ( #284, 'NEURÈENÝ' ) ;
#278 = ORIENTED_EDGE ( 'NONE', *, *, #177, .F. ) ;
#279 = DIRECTION ( 'NONE',  ( 0.000000000000000000, 0.000000000000000000, 1.000000000000000000 ) ) ;
#280 = EDGE_LOOP ( 'NONE', ( #229, #197, #194, #255 ) ) ;
#281 = VERTEX_POINT ( 'NONE', #365 ) ;
#282 = EDGE_LOOP ( 'NONE', ( #364, #278, #104, #84 ) ) ;
#283 = DIRECTION ( 'NONE',  ( 1.000000000000000000, 0.000000000000000000, 0.000000000000000000 ) ) ;
#284 = APPROVAL_STATUS ( 'not_yet_approved' ) ;
#285 = EDGE_CURVE ( 'NONE', #343, #144, #93, .T. ) ;
#286 = DIRECTION ( 'NONE',  ( -1.000000000000000000, 0.000000000000000000, 0.000000000000000000 ) ) ;
#287 = COORDINATED_UNIVERSAL_TIME_OFFSET ( 1, 0, .AHEAD. ) ;
#288 = CARTESIAN_POINT ( 'NONE',  ( 2.100000000000000089, 2.571758278209441957E-16, 80.00000000000000000 ) ) ;
#289 = CC_DESIGN_DATE_AND_TIME_ASSIGNMENT ( #92, #238, ( #97 ) ) ;
#290 = AXIS2_PLACEMENT_3D ( 'NONE', #46, #40, #216 ) ;
#291 = DIRECTION ( 'NONE',  ( -0.000000000000000000, -0.000000000000000000, -1.000000000000000000 ) ) ;
#292 = FACE_OUTER_BOUND ( 'NONE', #140, .T. ) ;
#293 = VECTOR ( 'NONE', #291, 1000.000000000000000 ) ;
#294 = CIRCLE ( 'NONE', #328, 7.000000000000000000 ) ;
#295 = CARTESIAN_POINT ( 'NONE',  ( 0.000000000000000000, 0.000000000000000000, 0.000000000000000000 ) ) ;
#296 = APPLICATION_CONTEXT ( 'configuration controlled 3d designs of mechanical parts and assemblies' ) ;
#297 = DIRECTION ( 'NONE',  ( 1.000000000000000000, 0.000000000000000000, 0.000000000000000000 ) ) ;
#298 = PRODUCT_RELATED_PRODUCT_CATEGORY ( 'detail', '', ( #314 ) ) ;
#299 = CARTESIAN_POINT ( 'NONE',  ( 0.000000000000000000, 0.000000000000000000, 0.000000000000000000 ) ) ;
#300 = ORIENTED_EDGE ( 'NONE', *, *, #378, .T. ) ;
#301 = AXIS2_PLACEMENT_3D ( 'NONE', #113, #139, #205 ) ;
#302 = DIRECTION ( 'NONE',  ( -1.000000000000000000, 0.000000000000000000, 0.000000000000000000 ) ) ;
#303 = ORIENTED_EDGE ( 'NONE', *, *, #165, .T. ) ;
#304 = CARTESIAN_POINT ( 'NONE',  ( 0.000000000000000000, 0.000000000000000000, 80.00000000000000000 ) ) ;
#305 = ORIENTED_EDGE ( 'NONE', *, *, #361, .F. ) ;
#306 = ORIENTED_EDGE ( 'NONE', *, *, #20, .F. ) ;
#307 = AXIS2_PLACEMENT_3D ( 'NONE', #258, #349, #27 ) ;
#308 = PERSON_AND_ORGANIZATION ( #182, #224 ) ;
#309 = CIRCLE ( 'NONE', #145, 4.000000000000000000 ) ;
#310 = EDGE_LOOP ( 'NONE', ( #201, #251, #303, #334 ) ) ;
#311 = DIRECTION ( 'NONE',  ( 1.000000000000000000, 0.000000000000000000, 0.000000000000000000 ) ) ;
#312 = CARTESIAN_POINT ( 'NONE',  ( 0.000000000000000000, 0.000000000000000000, 5.000000000000000000 ) ) ;
#313 = MECHANICAL_CONTEXT ( 'NONE', #96, 'mechanical' ) ;
#314 = PRODUCT ( '6032', '6032', '', ( #313 ) ) ;
#315 = CC_DESIGN_PERSON_AND_ORGANIZATION_ASSIGNMENT ( #153, #236, ( #120 ) ) ;
#316 = DIRECTION ( 'NONE',  ( -1.000000000000000000, 1.224646799147351482E-16, 0.000000000000000000 ) ) ;
#317 = APPROVAL_DATE_TIME ( #237, #273 ) ;
#318 = CIRCLE ( 'NONE', #362, 2.100000000000000089 ) ;
#319 = ADVANCED_FACE ( 'NONE', ( #333, #292 ), #250, .T. ) ;
#320 = DIRECTION ( 'NONE',  ( -0.000000000000000000, -0.000000000000000000, -1.000000000000000000 ) ) ;
#321 = LOCAL_TIME ( 17, 28, 49.00000000000000000, #55 ) ;
#322 = PRODUCT_DEFINITION ( 'NEZNÁMÝ', '', #120, #344 ) ;
#323 = CALENDAR_DATE ( 2022, 8, 7 ) ;
#324 = DIRECTION ( 'NONE',  ( 0.000000000000000000, 0.000000000000000000, -1.000000000000000000 ) ) ;
#325 = FACE_OUTER_BOUND ( 'NONE', #204, .T. ) ;
#326 = EDGE_CURVE ( 'NONE', #341, #136, #82, .T. ) ;
#327 = DIRECTION ( 'NONE',  ( 0.000000000000000000, 0.000000000000000000, 1.000000000000000000 ) ) ;
#328 = AXIS2_PLACEMENT_3D ( 'NONE', #68, #61, #208 ) ;
#329 = CARTESIAN_POINT ( 'NONE',  ( 4.000000000000000000, 4.898587196589412829E-16, 5.500000000000005329 ) ) ;
#330 = FACE_OUTER_BOUND ( 'NONE', #310, .T. ) ;
#331 = EDGE_LOOP ( 'NONE', ( #54, #198 ) ) ;
#332 = APPROVAL ( #29, 'NEURÈENÝ' ) ;
#333 = FACE_BOUND ( 'NONE', #222, .T. ) ;
#334 = ORIENTED_EDGE ( 'NONE', *, *, #38, .F. ) ;
#335 = LOCAL_TIME ( 17, 28, 49.00000000000000000, #36 ) ;
#336 = PERSON_AND_ORGANIZATION_ROLE ( 'creator' ) ;
#337 = ADVANCED_FACE ( 'NONE', ( #330 ), #195, .T. ) ;
#338 = ORIENTED_EDGE ( 'NONE', *, *, #356, .T. ) ;
#339 = DIRECTION ( 'NONE',  ( 0.000000000000000000, 0.000000000000000000, -1.000000000000000000 ) ) ;
#340 = CC_DESIGN_PERSON_AND_ORGANIZATION_ASSIGNMENT ( #34, #261, ( #97 ) ) ;
#341 = VERTEX_POINT ( 'NONE', #101 ) ;
#342 = DIRECTION ( 'NONE',  ( 1.000000000000000000, 0.000000000000000000, 0.000000000000000000 ) ) ;
#343 = VERTEX_POINT ( 'NONE', #161 ) ;
#344 = DESIGN_CONTEXT ( 'detailed design', #296, 'design' ) ;
#345 = CARTESIAN_POINT ( 'NONE',  ( 7.000000000000000000, 8.572527594031473190E-16, 5.000000000000000000 ) ) ;
#346 = APPROVAL_PERSON_ORGANIZATION ( #308, #332, #118 ) ;
#347 = DIRECTION ( 'NONE',  ( -0.000000000000000000, -0.000000000000000000, -1.000000000000000000 ) ) ;
#348 = EDGE_CURVE ( 'NONE', #368, #281, #57, .T. ) ;
#349 = DIRECTION ( 'NONE',  ( 0.000000000000000000, 0.000000000000000000, -1.000000000000000000 ) ) ;
#350 = CALENDAR_DATE ( 2022, 8, 7 ) ;
#351 = CC_DESIGN_SECURITY_CLASSIFICATION ( #97, ( #120 ) ) ;
#352 = COORDINATED_UNIVERSAL_TIME_OFFSET ( 1, 0, .AHEAD. ) ;
#353 = LINE ( 'NONE', #154, #293 ) ;
#354 = DIRECTION ( 'NONE',  ( -1.000000000000000000, 0.000000000000000000, 0.000000000000000000 ) ) ;
#355 = APPROVAL_PERSON_ORGANIZATION ( #151, #273, #265 ) ;
#356 = EDGE_CURVE ( 'NONE', #152, #341, #370, .T. ) ;
#357 = EDGE_CURVE ( 'NONE', #136, #341, #217, .T. ) ;
#358 = CYLINDRICAL_SURFACE ( 'NONE', #245, 7.000000000000000000 ) ;
#359 = FACE_OUTER_BOUND ( 'NONE', #166, .T. ) ;
#360 = CYLINDRICAL_SURFACE ( 'NONE', #37, 4.000000000000000000 ) ;
#361 = EDGE_CURVE ( 'NONE', #144, #343, #318, .T. ) ;
#362 = AXIS2_PLACEMENT_3D ( 'NONE', #304, #26, #226 ) ;
#363 = CARTESIAN_POINT ( 'NONE',  ( -4.000000000000000000, 0.000000000000000000, 80.00000000000000000 ) ) ;
#364 = ORIENTED_EDGE ( 'NONE', *, *, #356, .F. ) ;
#365 = CARTESIAN_POINT ( 'NONE',  ( 2.100000000000000089, 2.571758278209441957E-16, 0.000000000000000000 ) ) ;
#366 = VERTEX_POINT ( 'NONE', #169 ) ;
#367 = DIRECTION ( 'NONE',  ( 1.000000000000000000, 0.000000000000000000, -0.000000000000000000 ) ) ;
#368 = VERTEX_POINT ( 'NONE', #110 ) ;
#369 = CIRCLE ( 'NONE', #241, 2.100000000000000089 ) ;
#370 = LINE ( 'NONE', #345, #232 ) ;
#371 = VERTEX_POINT ( 'NONE', #381 ) ;
#372 =( NAMED_UNIT ( * ) SI_UNIT ( $, .STERADIAN. ) SOLID_ANGLE_UNIT ( ) );
#373 = EDGE_LOOP ( 'NONE', ( #79, #14, #306, #39 ) ) ;
#374 = CARTESIAN_POINT ( 'NONE',  ( 0.000000000000000000, 0.000000000000000000, 0.000000000000000000 ) ) ;
#375 = CYLINDRICAL_SURFACE ( 'NONE', #147, 2.100000000000000089 ) ;
#376 = PERSON_AND_ORGANIZATION_ROLE ( 'design_owner' ) ;
#377 = CC_DESIGN_APPROVAL ( #332, ( #322 ) ) ;
#378 = EDGE_CURVE ( 'NONE', #173, #225, #309, .T. ) ;
#379 = EDGE_CURVE ( 'NONE', #247, #371, #41, .T. ) ;
#380 = DIRECTION ( 'NONE',  ( -0.000000000000000000, -0.000000000000000000, -1.000000000000000000 ) ) ;
#381 = CARTESIAN_POINT ( 'NONE',  ( 4.500000000000000888, 0.000000000000000000, 5.000000000000002665 ) ) ;
ENDSEC;
END-ISO-10303-21;
