ISO-10303-21;
HEADER;
FILE_DESCRIPTION (( 'STEP AP203' ),
    '1' );
FILE_NAME ('c22b.STEP',
    '2022-07-08T15:46:46',
    ( '' ),
    ( '' ),
    'SwSTEP 2.0',
    'SolidWorks 2019',
    '' );
FILE_SCHEMA (( 'CONFIG_CONTROL_DESIGN' ));
ENDSEC;

DATA;
#1 = CARTESIAN_POINT ( 'NONE',  ( 2.799999999999999822, 0.000000000000000000, 3.000000000000012434 ) ) ;
#2 = APPROVAL_PERSON_ORGANIZATION ( #360, #145, #223 ) ;
#3 = MANIFOLD_SOLID_BREP ( 'Odebrat vysunutím3', #26 ) ;
#4 = CIRCLE ( 'NONE', #69, 5.000000000000000000 ) ;
#5 = CALENDAR_DATE ( 2022, 8, 7 ) ;
#6 = CARTESIAN_POINT ( 'NONE',  ( 0.000000000000000000, 0.000000000000000000, 3.000000000000000000 ) ) ;
#7 = COORDINATED_UNIVERSAL_TIME_OFFSET ( 1, 0, .AHEAD. ) ;
#8 = ORIENTED_EDGE ( 'NONE', *, *, #374, .F. ) ;
#9 = UNCERTAINTY_MEASURE_WITH_UNIT (LENGTH_MEASURE( 1.000000000000000082E-05 ), #38, 'distance_accuracy_value', 'NONE');
#10 = VERTEX_POINT ( 'NONE', #147 ) ;
#11 = CALENDAR_DATE ( 2022, 8, 7 ) ;
#12 = CARTESIAN_POINT ( 'NONE',  ( 0.000000000000000000, 0.000000000000000000, 3.300000000000025135 ) ) ;
#13 = APPROVAL ( #240, 'NEURÈENÝ' ) ;
#14 = LINE ( 'NONE', #220, #182 ) ;
#15 = DIRECTION ( 'NONE',  ( 0.000000000000000000, 0.000000000000000000, 1.000000000000000000 ) ) ;
#16 = CIRCLE ( 'NONE', #92, 5.000000000000000000 ) ;
#17 = DIRECTION ( 'NONE',  ( -1.000000000000000000, 0.000000000000000000, 0.000000000000000000 ) ) ;
#18 = AXIS2_PLACEMENT_3D ( 'NONE', #52, #171, #316 ) ;
#19 = DIRECTION ( 'NONE',  ( 1.224646799147353207E-16, 1.000000000000000000, -0.000000000000000000 ) ) ;
#20 = DIRECTION ( 'NONE',  ( 0.000000000000000000, 0.000000000000000000, -1.000000000000000000 ) ) ;
#21 = ORIENTED_EDGE ( 'NONE', *, *, #89, .F. ) ;
#22 = CARTESIAN_POINT ( 'NONE',  ( 0.000000000000000000, 0.000000000000000000, 3.000000000000000000 ) ) ;
#23 = DIRECTION ( 'NONE',  ( 1.000000000000000000, 0.000000000000000000, 0.000000000000000000 ) ) ;
#24 = VERTEX_POINT ( 'NONE', #1 ) ;
#25 = FACE_OUTER_BOUND ( 'NONE', #97, .T. ) ;
#26 = CLOSED_SHELL ( 'NONE', ( #242, #253, #57, #307, #101, #30, #205, #140, #193, #291, #337 ) ) ;
#27 = PERSON ( 'NEURÈENÝ', 'NEURÈENÝ', 'NEURÈENÝ', ('NEURÈENÝ'), ('NEURÈENÝ'), ('NEURÈENÝ') ) ;
#28 = FACE_OUTER_BOUND ( 'NONE', #35, .T. ) ;
#29 = ORIENTED_EDGE ( 'NONE', *, *, #350, .T. ) ;
#30 = ADVANCED_FACE ( 'NONE', ( #297, #150 ), #268, .T. ) ;
#31 = APPROVAL_STATUS ( 'not_yet_approved' ) ;
#32 = ORIENTED_EDGE ( 'NONE', *, *, #358, .T. ) ;
#33 = MECHANICAL_CONTEXT ( 'NONE', #237, 'mechanical' ) ;
#34 = ORIENTED_EDGE ( 'NONE', *, *, #350, .F. ) ;
#35 = EDGE_LOOP ( 'NONE', ( #56, #88, #59, #142 ) ) ;
#36 = AXIS2_PLACEMENT_3D ( 'NONE', #50, #284, #257 ) ;
#37 = SECURITY_CLASSIFICATION ( '', '', #215 ) ;
#38 =( LENGTH_UNIT ( ) NAMED_UNIT ( * ) SI_UNIT ( .MILLI., .METRE. ) );
#39 = EDGE_LOOP ( 'NONE', ( #34, #359 ) ) ;
#40 = FACE_OUTER_BOUND ( 'NONE', #180, .T. ) ;
#41 = CC_DESIGN_PERSON_AND_ORGANIZATION_ASSIGNMENT ( #326, #330, ( #37 ) ) ;
#42 = DIRECTION ( 'NONE',  ( 1.000000000000000000, 0.000000000000000000, 0.000000000000000000 ) ) ;
#43 = CARTESIAN_POINT ( 'NONE',  ( -2.500000000000000000, 0.000000000000000000, 403.0000000000000000 ) ) ;
#44 = FACE_OUTER_BOUND ( 'NONE', #62, .T. ) ;
#45 = AXIS2_PLACEMENT_3D ( 'NONE', #129, #68, #276 ) ;
#46 = CC_DESIGN_APPROVAL ( #145, ( #37 ) ) ;
#47 = CYLINDRICAL_SURFACE ( 'NONE', #164, 2.500000000000000000 ) ;
#48 = CIRCLE ( 'NONE', #178, 2.500000000000000000 ) ;
#49 = EDGE_CURVE ( 'NONE', #177, #117, #14, .T. ) ;
#50 = CARTESIAN_POINT ( 'NONE',  ( 0.000000000000000000, 0.000000000000000000, 3.000000000000000000 ) ) ;
#51 = CARTESIAN_POINT ( 'NONE',  ( -1.250000000000000000, 0.000000000000000000, 403.0000000000000000 ) ) ;
#52 = CARTESIAN_POINT ( 'NONE',  ( 0.000000000000000000, 0.000000000000000000, 403.0000000000000000 ) ) ;
#53 = CIRCLE ( 'NONE', #277, 0.2999999999999999334 ) ;
#54 = LINE ( 'NONE', #343, #143 ) ;
#55 = CARTESIAN_POINT ( 'NONE',  ( 0.000000000000000000, 0.000000000000000000, 0.000000000000000000 ) ) ;
#56 = ORIENTED_EDGE ( 'NONE', *, *, #367, .F. ) ;
#57 = ADVANCED_FACE ( 'NONE', ( #44 ), #308, .T. ) ;
#58 = DATE_AND_TIME ( #298, #194 ) ;
#59 = ORIENTED_EDGE ( 'NONE', *, *, #247, .T. ) ;
#60 = ORIENTED_EDGE ( 'NONE', *, *, #320, .F. ) ;
#61 = COORDINATED_UNIVERSAL_TIME_OFFSET ( 1, 0, .AHEAD. ) ;
#62 = EDGE_LOOP ( 'NONE', ( #65, #295, #137, #294 ) ) ;
#63 = APPROVAL_ROLE ( '' ) ;
#64 = ORIENTED_EDGE ( 'NONE', *, *, #274, .F. ) ;
#65 = ORIENTED_EDGE ( 'NONE', *, *, #167, .F. ) ;
#66 = PLANE ( 'NONE',  #345 ) ;
#67 = CC_DESIGN_PERSON_AND_ORGANIZATION_ASSIGNMENT ( #243, #146, ( #269 ) ) ;
#68 = DIRECTION ( 'NONE',  ( 0.000000000000000000, 0.000000000000000000, 1.000000000000000000 ) ) ;
#69 = AXIS2_PLACEMENT_3D ( 'NONE', #259, #344, #262 ) ;
#70 = DIRECTION ( 'NONE',  ( 1.000000000000000000, 0.000000000000000000, -0.000000000000000000 ) ) ;
#71 = DIRECTION ( 'NONE',  ( -0.000000000000000000, -0.000000000000000000, -1.000000000000000000 ) ) ;
#72 = PRODUCT_RELATED_PRODUCT_CATEGORY ( 'detail', '', ( #156 ) ) ;
#73 = DIRECTION ( 'NONE',  ( 1.000000000000000000, 0.000000000000000000, 0.000000000000000000 ) ) ;
#74 = AXIS2_PLACEMENT_3D ( 'NONE', #6, #119, #91 ) ;
#75 = ORGANIZATION ( 'NEURÈENÝ', 'NEURÈENÝ', '' ) ;
#76 = DIRECTION ( 'NONE',  ( -0.000000000000000000, -0.000000000000000000, -1.000000000000000000 ) ) ;
#77 = APPLICATION_CONTEXT ( 'configuration controlled 3d designs of mechanical parts and assemblies' ) ;
#78 = DIRECTION ( 'NONE',  ( -0.000000000000000000, -0.000000000000000000, -1.000000000000000000 ) ) ;
#79 = CARTESIAN_POINT ( 'NONE',  ( 5.000000000000000000, 6.123233995736766282E-16, 0.000000000000000000 ) ) ;
#80 = ORIENTED_EDGE ( 'NONE', *, *, #89, .T. ) ;
#81 = AXIS2_PLACEMENT_3D ( 'NONE', #265, #90, #154 ) ;
#82 = FACE_OUTER_BOUND ( 'NONE', #94, .T. ) ;
#83 = CIRCLE ( 'NONE', #216, 5.000000000000000000 ) ;
#84 = DIRECTION ( 'NONE',  ( -1.000000000000000000, 0.000000000000000000, 0.000000000000000000 ) ) ;
#85 = ORIENTED_EDGE ( 'NONE', *, *, #122, .F. ) ;
#86 = COORDINATED_UNIVERSAL_TIME_OFFSET ( 1, 0, .AHEAD. ) ;
#87 = VERTEX_POINT ( 'NONE', #362 ) ;
#88 = ORIENTED_EDGE ( 'NONE', *, *, #274, .T. ) ;
#89 = EDGE_CURVE ( 'NONE', #258, #10, #148, .T. ) ;
#90 = DIRECTION ( 'NONE',  ( 0.000000000000000000, 0.000000000000000000, 1.000000000000000000 ) ) ;
#91 = DIRECTION ( 'NONE',  ( 1.000000000000000000, 0.000000000000000000, -0.000000000000000000 ) ) ;
#92 = AXIS2_PLACEMENT_3D ( 'NONE', #191, #189, #306 ) ;
#93 = PERSON_AND_ORGANIZATION ( #27, #75 ) ;
#94 = EDGE_LOOP ( 'NONE', ( #134, #352, #85, #272 ) ) ;
#95 = PRODUCT_DEFINITION_SHAPE ( 'NONE', 'NONE',  #269 ) ;
#96 = EDGE_CURVE ( 'NONE', #266, #173, #250, .T. ) ;
#97 = EDGE_LOOP ( 'NONE', ( #29, #378, #80, #329 ) ) ;
#98 = LINE ( 'NONE', #249, #321 ) ;
#99 = PLANE ( 'NONE',  #299 ) ;
#100 = CARTESIAN_POINT ( 'NONE',  ( 2.500000000000000000, 3.061616997868383141E-16, 3.300000000000025135 ) ) ;
#101 = ADVANCED_FACE ( 'NONE', ( #40 ), #126, .T. ) ;
#102 = DIRECTION ( 'NONE',  ( 0.000000000000000000, 0.000000000000000000, 1.000000000000000000 ) ) ;
#103 = DIRECTION ( 'NONE',  ( -1.000000000000000000, 0.000000000000000000, 0.000000000000000000 ) ) ;
#104 = EDGE_CURVE ( 'NONE', #185, #266, #98, .T. ) ;
#105 = CIRCLE ( 'NONE', #151, 1.250000000000000000 ) ;
#106 = APPROVAL_STATUS ( 'not_yet_approved' ) ;
#107 = DIRECTION ( 'NONE',  ( -1.000000000000000000, 0.000000000000000000, 0.000000000000000000 ) ) ;
#108 = EDGE_LOOP ( 'NONE', ( #60, #21 ) ) ;
#109 = CARTESIAN_POINT ( 'NONE',  ( 0.000000000000000000, 0.000000000000000000, 3.000000000000000000 ) ) ;
#110 = ORIENTED_EDGE ( 'NONE', *, *, #157, .T. ) ;
#111 = CC_DESIGN_SECURITY_CLASSIFICATION ( #37, ( #346 ) ) ;
#112 = CARTESIAN_POINT ( 'NONE',  ( 1.250000000000000000, 1.530808498934191571E-16, 0.000000000000000000 ) ) ;
#113 = APPLICATION_PROTOCOL_DEFINITION ( 'international standard', 'config_control_design', 1994, #237 ) ;
#114 = ORIENTED_EDGE ( 'NONE', *, *, #96, .F. ) ;
#115 = DATE_AND_TIME ( #351, #267 ) ;
#116 = CC_DESIGN_APPROVAL ( #379, ( #346 ) ) ;
#117 = VERTEX_POINT ( 'NONE', #305 ) ;
#118 = APPROVAL_DATE_TIME ( #263, #13 ) ;
#119 = DIRECTION ( 'NONE',  ( 0.000000000000000000, 0.000000000000000000, 1.000000000000000000 ) ) ;
#120 = PERSON_AND_ORGANIZATION ( #27, #75 ) ;
#121 = ORIENTED_EDGE ( 'NONE', *, *, #214, .F. ) ;
#122 = EDGE_CURVE ( 'NONE', #24, #173, #158, .T. ) ;
#123 = ORIENTED_EDGE ( 'NONE', *, *, #374, .T. ) ;
#124 = APPROVAL_PERSON_ORGANIZATION ( #120, #379, #356 ) ;
#125 = FACE_BOUND ( 'NONE', #39, .T. ) ;
#126 = CYLINDRICAL_SURFACE ( 'NONE', #363, 5.000000000000000000 ) ;
#127 = CARTESIAN_POINT ( 'NONE',  ( -2.799999999999999822, 3.429011037612589276E-16, 3.000000000000012434 ) ) ;
#128 = VECTOR ( 'NONE', #254, 1000.000000000000000 ) ;
#129 = CARTESIAN_POINT ( 'NONE',  ( 0.000000000000000000, 0.000000000000000000, 403.0000000000000000 ) ) ;
#130 = DIRECTION ( 'NONE',  ( 0.000000000000000000, 0.000000000000000000, 1.000000000000000000 ) ) ;
#131 = EDGE_CURVE ( 'NONE', #185, #325, #133, .T. ) ;
#132 = FACE_OUTER_BOUND ( 'NONE', #349, .T. ) ;
#133 = CIRCLE ( 'NONE', #45, 2.500000000000000000 ) ;
#134 = ORIENTED_EDGE ( 'NONE', *, *, #285, .F. ) ;
#135 = CARTESIAN_POINT ( 'NONE',  ( 0.000000000000000000, 0.000000000000000000, 3.300000000000025135 ) ) ;
#136 = AXIS2_PLACEMENT_3D ( 'NONE', #231, #341, #139 ) ;
#137 = ORIENTED_EDGE ( 'NONE', *, *, #175, .T. ) ;
#138 = DIRECTION ( 'NONE',  ( 0.000000000000000000, 0.000000000000000000, -1.000000000000000000 ) ) ;
#139 = DIRECTION ( 'NONE',  ( -1.000000000000000000, 0.000000000000000000, 0.000000000000000000 ) ) ;
#140 = ADVANCED_FACE ( 'NONE', ( #252 ), #47, .T. ) ;
#141 = DIRECTION ( 'NONE',  ( 0.000000000000000000, 0.000000000000000000, -1.000000000000000000 ) ) ;
#142 = ORIENTED_EDGE ( 'NONE', *, *, #49, .F. ) ;
#143 = VECTOR ( 'NONE', #76, 1000.000000000000000 ) ;
#144 = ORIENTED_EDGE ( 'NONE', *, *, #131, .T. ) ;
#145 = APPROVAL ( #106, 'NEURÈENÝ' ) ;
#146 = PERSON_AND_ORGANIZATION_ROLE ( 'creator' ) ;
#147 = CARTESIAN_POINT ( 'NONE',  ( -1.250000000000000000, 0.000000000000000000, 0.000000000000000000 ) ) ;
#148 = CIRCLE ( 'NONE', #375, 1.250000000000000000 ) ;
#149 = DATE_AND_TIME ( #181, #323 ) ;
#150 = FACE_OUTER_BOUND ( 'NONE', #357, .T. ) ;
#151 = AXIS2_PLACEMENT_3D ( 'NONE', #288, #196, #311 ) ;
#152 = AXIS2_PLACEMENT_3D ( 'NONE', #55, #78, #198 ) ;
#153 = EDGE_LOOP ( 'NONE', ( #121, #32, #370, #219 ) ) ;
#154 = DIRECTION ( 'NONE',  ( 1.000000000000000000, 0.000000000000000000, 0.000000000000000000 ) ) ;
#155 = ORIENTED_EDGE ( 'NONE', *, *, #200, .F. ) ;
#156 = PRODUCT ( 'c22b', 'c22b', '', ( #33 ) ) ;
#157 = EDGE_CURVE ( 'NONE', #117, #315, #16, .T. ) ;
#158 = CIRCLE ( 'NONE', #206, 2.799999999999999822 ) ;
#159 = APPROVAL_DATE_TIME ( #279, #145 ) ;
#160 = CARTESIAN_POINT ( 'NONE',  ( 0.000000000000000000, 0.000000000000000000, 3.000000000000000000 ) ) ;
#161 = AXIS2_PLACEMENT_3D ( 'NONE', #373, #141, #107 ) ;
#162 = CARTESIAN_POINT ( 'NONE',  ( -5.000000000000000000, 0.000000000000000000, 3.000000000000000000 ) ) ;
#163 = FACE_OUTER_BOUND ( 'NONE', #217, .T. ) ;
#164 = AXIS2_PLACEMENT_3D ( 'NONE', #366, #71, #368 ) ;
#165 = DIRECTION ( 'NONE',  ( 1.000000000000000000, 0.000000000000000000, 0.000000000000000000 ) ) ;
#166 = LINE ( 'NONE', #197, #186 ) ;
#167 = EDGE_CURVE ( 'NONE', #325, #185, #239, .T. ) ;
#168 = CARTESIAN_POINT ( 'NONE',  ( -1.250000000000000000, 0.000000000000000000, 403.0000000000000000 ) ) ;
#169 = AXIS2_PLACEMENT_3D ( 'NONE', #222, #19, #364 ) ;
#170 = CARTESIAN_POINT ( 'NONE',  ( 0.000000000000000000, 0.000000000000000000, 3.300000000000025135 ) ) ;
#171 = DIRECTION ( 'NONE',  ( 0.000000000000000000, 0.000000000000000000, 1.000000000000000000 ) ) ;
#172 = CIRCLE ( 'NONE', #310, 2.500000000000000000 ) ;
#173 = VERTEX_POINT ( 'NONE', #127 ) ;
#174 = DIRECTION ( 'NONE',  ( 1.000000000000000000, 0.000000000000000000, 0.000000000000000000 ) ) ;
#175 = EDGE_CURVE ( 'NONE', #211, #266, #48, .T. ) ;
#176 = CARTESIAN_POINT ( 'NONE',  ( 2.500000000000000000, 3.061616997868383141E-16, 403.0000000000000000 ) ) ;
#177 = VERTEX_POINT ( 'NONE', #162 ) ;
#178 = AXIS2_PLACEMENT_3D ( 'NONE', #12, #102, #73 ) ;
#179 = CC_DESIGN_PERSON_AND_ORGANIZATION_ASSIGNMENT ( #210, #207, ( #346 ) ) ;
#180 = EDGE_LOOP ( 'NONE', ( #64, #8, #327, #110 ) ) ;
#181 = CALENDAR_DATE ( 2022, 8, 7 ) ;
#182 = VECTOR ( 'NONE', #248, 1000.000000000000000 ) ;
#183 = PERSON_AND_ORGANIZATION ( #27, #75 ) ;
#184 = LOCAL_TIME ( 17, 46, 46.00000000000000000, #275 ) ;
#185 = VERTEX_POINT ( 'NONE', #43 ) ;
#186 = VECTOR ( 'NONE', #318, 1000.000000000000000 ) ;
#187 = ORIENTED_EDGE ( 'NONE', *, *, #122, .T. ) ;
#188 = CARTESIAN_POINT ( 'NONE',  ( 0.000000000000000000, 0.000000000000000000, 0.000000000000000000 ) ) ;
#189 = DIRECTION ( 'NONE',  ( 0.000000000000000000, 0.000000000000000000, 1.000000000000000000 ) ) ;
#190 = CARTESIAN_POINT ( 'NONE',  ( 2.500000000000000000, 3.061616997868383141E-16, 403.0000000000000000 ) ) ;
#191 = CARTESIAN_POINT ( 'NONE',  ( 0.000000000000000000, 0.000000000000000000, 0.000000000000000000 ) ) ;
#192 = LINE ( 'NONE', #190, #128 ) ;
#193 = ADVANCED_FACE ( 'NONE', ( #125, #335 ), #99, .T. ) ;
#194 = LOCAL_TIME ( 17, 46, 46.00000000000000000, #7 ) ;
#195 = TOROIDAL_SURFACE ( 'NONE', #371, 2.799999999999999822, 0.2999999999999999889 ) ;
#196 = DIRECTION ( 'NONE',  ( 0.000000000000000000, 0.000000000000000000, 1.000000000000000000 ) ) ;
#197 = CARTESIAN_POINT ( 'NONE',  ( 1.250000000000000000, 1.530808498934191571E-16, 403.0000000000000000 ) ) ;
#198 = DIRECTION ( 'NONE',  ( 1.000000000000000000, 0.000000000000000000, 0.000000000000000000 ) ) ;
#199 = APPROVAL_PERSON_ORGANIZATION ( #183, #13, #63 ) ;
#200 = EDGE_CURVE ( 'NONE', #325, #211, #192, .T. ) ;
#201 = CARTESIAN_POINT ( 'NONE',  ( -2.500000000000000000, 0.000000000000000000, 3.300000000000025135 ) ) ;
#202 = LINE ( 'NONE', #168, #317 ) ;
#203 = APPLICATION_PROTOCOL_DEFINITION ( 'international standard', 'config_control_design', 1994, #77 ) ;
#204 = ORIENTED_EDGE ( 'NONE', *, *, #167, .T. ) ;
#205 = ADVANCED_FACE ( 'NONE', ( #280, #163 ), #66, .F. ) ;
#206 = AXIS2_PLACEMENT_3D ( 'NONE', #160, #332, #333 ) ;
#207 = PERSON_AND_ORGANIZATION_ROLE ( 'design_supplier' ) ;
#208 = ORIENTED_EDGE ( 'NONE', *, *, #175, .F. ) ;
#209 = CIRCLE ( 'NONE', #36, 5.000000000000000000 ) ;
#210 = PERSON_AND_ORGANIZATION ( #27, #75 ) ;
#211 = VERTEX_POINT ( 'NONE', #100 ) ;
#212 = DIRECTION ( 'NONE',  ( 1.000000000000000000, 0.000000000000000000, 0.000000000000000000 ) ) ;
#213 = ORIENTED_EDGE ( 'NONE', *, *, #104, .T. ) ;
#214 = EDGE_CURVE ( 'NONE', #87, #258, #166, .T. ) ;
#215 = SECURITY_CLASSIFICATION_LEVEL ( 'unclassified' ) ;
#216 = AXIS2_PLACEMENT_3D ( 'NONE', #109, #270, #212 ) ;
#217 = EDGE_LOOP ( 'NONE', ( #331, #244 ) ) ;
#218 = AXIS2_PLACEMENT_3D ( 'NONE', #283, #278, #42 ) ;
#219 = ORIENTED_EDGE ( 'NONE', *, *, #320, .T. ) ;
#220 = CARTESIAN_POINT ( 'NONE',  ( -5.000000000000000000, 0.000000000000000000, 3.000000000000000000 ) ) ;
#221 = CC_DESIGN_DATE_AND_TIME_ASSIGNMENT ( #149, #342, ( #37 ) ) ;
#222 = CARTESIAN_POINT ( 'NONE',  ( -2.799999999999999822, 3.429011037612588783E-16, 3.300000000000025135 ) ) ;
#223 = APPROVAL_ROLE ( '' ) ;
#224 = DIRECTION ( 'NONE',  ( -0.000000000000000000, -0.000000000000000000, -1.000000000000000000 ) ) ;
#225 = CARTESIAN_POINT ( 'NONE',  ( 0.000000000000000000, 0.000000000000000000, 403.0000000000000000 ) ) ;
#226 = EDGE_CURVE ( 'NONE', #173, #24, #336, .T. ) ;
#227 = CYLINDRICAL_SURFACE ( 'NONE', #136, 1.250000000000000000 ) ;
#228 = CIRCLE ( 'NONE', #152, 1.250000000000000000 ) ;
#229 = CARTESIAN_POINT ( 'NONE',  ( 0.000000000000000000, 0.000000000000000000, 3.000000000000000000 ) ) ;
#230 = DIRECTION ( 'NONE',  ( 0.000000000000000000, 0.000000000000000000, 1.000000000000000000 ) ) ;
#231 = CARTESIAN_POINT ( 'NONE',  ( 0.000000000000000000, 0.000000000000000000, 403.0000000000000000 ) ) ;
#232 = CC_DESIGN_APPROVAL ( #13, ( #269 ) ) ;
#233 = CYLINDRICAL_SURFACE ( 'NONE', #246, 5.000000000000000000 ) ;
#234 = CC_DESIGN_PERSON_AND_ORGANIZATION_ASSIGNMENT ( #293, #301, ( #156 ) ) ;
#235 = PERSON_AND_ORGANIZATION_ROLE ( 'creator' ) ;
#236 = ORIENTED_EDGE ( 'NONE', *, *, #226, .F. ) ;
#237 = APPLICATION_CONTEXT ( 'configuration controlled 3d designs of mechanical parts and assemblies' ) ;
#238 = VERTEX_POINT ( 'NONE', #319 ) ;
#239 = CIRCLE ( 'NONE', #218, 2.500000000000000000 ) ;
#240 = APPROVAL_STATUS ( 'not_yet_approved' ) ;
#241 = EDGE_LOOP ( 'NONE', ( #155, #300, #213, #354 ) ) ;
#242 = ADVANCED_FACE ( 'NONE', ( #25 ), #227, .F. ) ;
#243 = PERSON_AND_ORGANIZATION ( #27, #75 ) ;
#244 = ORIENTED_EDGE ( 'NONE', *, *, #247, .F. ) ;
#245 = EDGE_LOOP ( 'NONE', ( #144, #204 ) ) ;
#246 = AXIS2_PLACEMENT_3D ( 'NONE', #229, #347, #84 ) ;
#247 = EDGE_CURVE ( 'NONE', #315, #117, #4, .T. ) ;
#248 = DIRECTION ( 'NONE',  ( -0.000000000000000000, -0.000000000000000000, -1.000000000000000000 ) ) ;
#249 = CARTESIAN_POINT ( 'NONE',  ( -2.500000000000000000, 0.000000000000000000, 403.0000000000000000 ) ) ;
#250 = CIRCLE ( 'NONE', #169, 0.2999999999999999334 ) ;
#251 = DIRECTION ( 'NONE',  ( 1.000000000000000000, 0.000000000000000000, -0.000000000000000000 ) ) ;
#252 = FACE_OUTER_BOUND ( 'NONE', #241, .T. ) ;
#253 = ADVANCED_FACE ( 'NONE', ( #82 ), #261, .F. ) ;
#254 = DIRECTION ( 'NONE',  ( -0.000000000000000000, -0.000000000000000000, -1.000000000000000000 ) ) ;
#255 = CYLINDRICAL_SURFACE ( 'NONE', #161, 1.250000000000000000 ) ;
#256 = DIRECTION ( 'NONE',  ( 1.000000000000000000, 0.000000000000000000, 0.000000000000000000 ) ) ;
#257 = DIRECTION ( 'NONE',  ( 1.000000000000000000, 0.000000000000000000, 0.000000000000000000 ) ) ;
#258 = VERTEX_POINT ( 'NONE', #112 ) ;
#259 = CARTESIAN_POINT ( 'NONE',  ( 0.000000000000000000, 0.000000000000000000, 0.000000000000000000 ) ) ;
#260 = EDGE_CURVE ( 'NONE', #264, #10, #202, .T. ) ;
#261 = TOROIDAL_SURFACE ( 'NONE', #324, 2.799999999999999822, 0.2999999999999999889 ) ;
#262 = DIRECTION ( 'NONE',  ( 1.000000000000000000, 0.000000000000000000, 0.000000000000000000 ) ) ;
#263 = DATE_AND_TIME ( #5, #282 ) ;
#264 = VERTEX_POINT ( 'NONE', #51 ) ;
#265 = CARTESIAN_POINT ( 'NONE',  ( 0.000000000000000000, 0.000000000000000000, 0.000000000000000000 ) ) ;
#266 = VERTEX_POINT ( 'NONE', #201 ) ;
#267 = LOCAL_TIME ( 17, 46, 46.00000000000000000, #86 ) ;
#268 = PLANE ( 'NONE',  #74 ) ;
#269 = PRODUCT_DEFINITION ( 'NEZNÁMÝ', '', #346, #355 ) ;
#270 = DIRECTION ( 'NONE',  ( 0.000000000000000000, 0.000000000000000000, 1.000000000000000000 ) ) ;
#271 = ADVANCED_BREP_SHAPE_REPRESENTATION ( 'c22b', ( #3, #81 ), #292 ) ;
#272 = ORIENTED_EDGE ( 'NONE', *, *, #303, .F. ) ;
#273 = EDGE_LOOP ( 'NONE', ( #187, #348 ) ) ;
#274 = EDGE_CURVE ( 'NONE', #238, #315, #54, .T. ) ;
#275 = COORDINATED_UNIVERSAL_TIME_OFFSET ( 1, 0, .AHEAD. ) ;
#276 = DIRECTION ( 'NONE',  ( 1.000000000000000000, 0.000000000000000000, 0.000000000000000000 ) ) ;
#277 = AXIS2_PLACEMENT_3D ( 'NONE', #372, #290, #138 ) ;
#278 = DIRECTION ( 'NONE',  ( 0.000000000000000000, 0.000000000000000000, 1.000000000000000000 ) ) ;
#279 = DATE_AND_TIME ( #11, #184 ) ;
#280 = FACE_BOUND ( 'NONE', #108, .T. ) ;
#281 = DIRECTION ( 'NONE',  ( -0.000000000000000000, -0.000000000000000000, -1.000000000000000000 ) ) ;
#282 = LOCAL_TIME ( 17, 46, 46.00000000000000000, #322 ) ;
#283 = CARTESIAN_POINT ( 'NONE',  ( 0.000000000000000000, 0.000000000000000000, 403.0000000000000000 ) ) ;
#284 = DIRECTION ( 'NONE',  ( 0.000000000000000000, 0.000000000000000000, 1.000000000000000000 ) ) ;
#285 = EDGE_CURVE ( 'NONE', #266, #211, #172, .T. ) ;
#286 = DIRECTION ( 'NONE',  ( 0.000000000000000000, 0.000000000000000000, 1.000000000000000000 ) ) ;
#287 = AXIS2_PLACEMENT_3D ( 'NONE', #22, #377, #23 ) ;
#288 = CARTESIAN_POINT ( 'NONE',  ( 0.000000000000000000, 0.000000000000000000, 403.0000000000000000 ) ) ;
#289 = CARTESIAN_POINT ( 'NONE',  ( 0.000000000000000000, 0.000000000000000000, 3.300000000000025135 ) ) ;
#290 = DIRECTION ( 'NONE',  ( 0.000000000000000000, -1.000000000000000000, 0.000000000000000000 ) ) ;
#291 = ADVANCED_FACE ( 'NONE', ( #132 ), #195, .F. ) ;
#292 =( GEOMETRIC_REPRESENTATION_CONTEXT ( 3 ) GLOBAL_UNCERTAINTY_ASSIGNED_CONTEXT ( ( #9 ) ) GLOBAL_UNIT_ASSIGNED_CONTEXT ( ( #38, #328, #296 ) ) REPRESENTATION_CONTEXT ( 'NONE', 'WORKASPACE' ) );
#293 = PERSON_AND_ORGANIZATION ( #27, #75 ) ;
#294 = ORIENTED_EDGE ( 'NONE', *, *, #104, .F. ) ;
#295 = ORIENTED_EDGE ( 'NONE', *, *, #200, .T. ) ;
#296 =( NAMED_UNIT ( * ) SI_UNIT ( $, .STERADIAN. ) SOLID_ANGLE_UNIT ( ) );
#297 = FACE_BOUND ( 'NONE', #273, .T. ) ;
#298 = CALENDAR_DATE ( 2022, 8, 7 ) ;
#299 = AXIS2_PLACEMENT_3D ( 'NONE', #361, #130, #70 ) ;
#300 = ORIENTED_EDGE ( 'NONE', *, *, #131, .F. ) ;
#301 = PERSON_AND_ORGANIZATION_ROLE ( 'design_owner' ) ;
#302 = ORIENTED_EDGE ( 'NONE', *, *, #303, .T. ) ;
#303 = EDGE_CURVE ( 'NONE', #211, #24, #53, .T. ) ;
#304 = DIRECTION ( 'NONE',  ( -0.000000000000000000, -0.000000000000000000, -1.000000000000000000 ) ) ;
#305 = CARTESIAN_POINT ( 'NONE',  ( -5.000000000000000000, 0.000000000000000000, 0.000000000000000000 ) ) ;
#306 = DIRECTION ( 'NONE',  ( 1.000000000000000000, 0.000000000000000000, 0.000000000000000000 ) ) ;
#307 = ADVANCED_FACE ( 'NONE', ( #28 ), #233, .T. ) ;
#308 = CYLINDRICAL_SURFACE ( 'NONE', #334, 2.500000000000000000 ) ;
#309 = CARTESIAN_POINT ( 'NONE',  ( 0.000000000000000000, 0.000000000000000000, 0.000000000000000000 ) ) ;
#310 = AXIS2_PLACEMENT_3D ( 'NONE', #170, #286, #369 ) ;
#311 = DIRECTION ( 'NONE',  ( 1.000000000000000000, 0.000000000000000000, 0.000000000000000000 ) ) ;
#312 = CC_DESIGN_PERSON_AND_ORGANIZATION_ASSIGNMENT ( #93, #235, ( #346 ) ) ;
#313 = SHAPE_DEFINITION_REPRESENTATION ( #95, #271 ) ;
#314 = FACE_OUTER_BOUND ( 'NONE', #153, .T. ) ;
#315 = VERTEX_POINT ( 'NONE', #79 ) ;
#316 = DIRECTION ( 'NONE',  ( 1.000000000000000000, 0.000000000000000000, 0.000000000000000000 ) ) ;
#317 = VECTOR ( 'NONE', #20, 1000.000000000000000 ) ;
#318 = DIRECTION ( 'NONE',  ( 0.000000000000000000, 0.000000000000000000, -1.000000000000000000 ) ) ;
#319 = CARTESIAN_POINT ( 'NONE',  ( 5.000000000000000000, 6.123233995736766282E-16, 3.000000000000000000 ) ) ;
#320 = EDGE_CURVE ( 'NONE', #10, #258, #228, .T. ) ;
#321 = VECTOR ( 'NONE', #281, 1000.000000000000000 ) ;
#322 = COORDINATED_UNIVERSAL_TIME_OFFSET ( 1, 0, .AHEAD. ) ;
#323 = LOCAL_TIME ( 17, 46, 46.00000000000000000, #61 ) ;
#324 = AXIS2_PLACEMENT_3D ( 'NONE', #289, #230, #256 ) ;
#325 = VERTEX_POINT ( 'NONE', #176 ) ;
#326 = PERSON_AND_ORGANIZATION ( #27, #75 ) ;
#327 = ORIENTED_EDGE ( 'NONE', *, *, #49, .T. ) ;
#328 =( NAMED_UNIT ( * ) PLANE_ANGLE_UNIT ( ) SI_UNIT ( $, .RADIAN. ) );
#329 = ORIENTED_EDGE ( 'NONE', *, *, #260, .F. ) ;
#330 = PERSON_AND_ORGANIZATION_ROLE ( 'classification_officer' ) ;
#331 = ORIENTED_EDGE ( 'NONE', *, *, #157, .F. ) ;
#332 = DIRECTION ( 'NONE',  ( -0.000000000000000000, -0.000000000000000000, -1.000000000000000000 ) ) ;
#333 = DIRECTION ( 'NONE',  ( 1.000000000000000000, 0.000000000000000000, 0.000000000000000000 ) ) ;
#334 = AXIS2_PLACEMENT_3D ( 'NONE', #225, #304, #103 ) ;
#335 = FACE_OUTER_BOUND ( 'NONE', #245, .T. ) ;
#336 = CIRCLE ( 'NONE', #287, 2.799999999999999822 ) ;
#337 = ADVANCED_FACE ( 'NONE', ( #314 ), #255, .F. ) ;
#338 = CARTESIAN_POINT ( 'NONE',  ( 0.000000000000000000, 0.000000000000000000, 3.000000000000000000 ) ) ;
#339 = DIRECTION ( 'NONE',  ( -0.000000000000000000, -0.000000000000000000, -1.000000000000000000 ) ) ;
#340 = CC_DESIGN_DATE_AND_TIME_ASSIGNMENT ( #58, #353, ( #269 ) ) ;
#341 = DIRECTION ( 'NONE',  ( 0.000000000000000000, 0.000000000000000000, -1.000000000000000000 ) ) ;
#342 = DATE_TIME_ROLE ( 'classification_date' ) ;
#343 = CARTESIAN_POINT ( 'NONE',  ( 5.000000000000000000, 6.123233995736766282E-16, 3.000000000000000000 ) ) ;
#344 = DIRECTION ( 'NONE',  ( 0.000000000000000000, 0.000000000000000000, 1.000000000000000000 ) ) ;
#345 = AXIS2_PLACEMENT_3D ( 'NONE', #309, #15, #251 ) ;
#346 = PRODUCT_DEFINITION_FORMATION_WITH_SPECIFIED_SOURCE ( 'LIBOVOLNÝ', '', #156, .NOT_KNOWN. ) ;
#347 = DIRECTION ( 'NONE',  ( -0.000000000000000000, -0.000000000000000000, -1.000000000000000000 ) ) ;
#348 = ORIENTED_EDGE ( 'NONE', *, *, #226, .T. ) ;
#349 = EDGE_LOOP ( 'NONE', ( #114, #208, #302, #236 ) ) ;
#350 = EDGE_CURVE ( 'NONE', #264, #87, #365, .T. ) ;
#351 = CALENDAR_DATE ( 2022, 8, 7 ) ;
#352 = ORIENTED_EDGE ( 'NONE', *, *, #96, .T. ) ;
#353 = DATE_TIME_ROLE ( 'creation_date' ) ;
#354 = ORIENTED_EDGE ( 'NONE', *, *, #285, .T. ) ;
#355 = DESIGN_CONTEXT ( 'detailed design', #77, 'design' ) ;
#356 = APPROVAL_ROLE ( '' ) ;
#357 = EDGE_LOOP ( 'NONE', ( #123, #381 ) ) ;
#358 = EDGE_CURVE ( 'NONE', #87, #264, #105, .T. ) ;
#359 = ORIENTED_EDGE ( 'NONE', *, *, #358, .F. ) ;
#360 = PERSON_AND_ORGANIZATION ( #27, #75 ) ;
#361 = CARTESIAN_POINT ( 'NONE',  ( 0.000000000000000000, 0.000000000000000000, 403.0000000000000000 ) ) ;
#362 = CARTESIAN_POINT ( 'NONE',  ( 1.250000000000000000, 1.530808498934191571E-16, 403.0000000000000000 ) ) ;
#363 = AXIS2_PLACEMENT_3D ( 'NONE', #338, #339, #17 ) ;
#364 = DIRECTION ( 'NONE',  ( -1.000000000000000000, 1.224646799147353207E-16, 0.000000000000000000 ) ) ;
#365 = CIRCLE ( 'NONE', #18, 1.250000000000000000 ) ;
#366 = CARTESIAN_POINT ( 'NONE',  ( 0.000000000000000000, 0.000000000000000000, 403.0000000000000000 ) ) ;
#367 = EDGE_CURVE ( 'NONE', #238, #177, #209, .T. ) ;
#368 = DIRECTION ( 'NONE',  ( -1.000000000000000000, 0.000000000000000000, 0.000000000000000000 ) ) ;
#369 = DIRECTION ( 'NONE',  ( 1.000000000000000000, 0.000000000000000000, 0.000000000000000000 ) ) ;
#370 = ORIENTED_EDGE ( 'NONE', *, *, #260, .T. ) ;
#371 = AXIS2_PLACEMENT_3D ( 'NONE', #135, #376, #174 ) ;
#372 = CARTESIAN_POINT ( 'NONE',  ( 2.799999999999999822, 0.000000000000000000, 3.300000000000025135 ) ) ;
#373 = CARTESIAN_POINT ( 'NONE',  ( 0.000000000000000000, 0.000000000000000000, 403.0000000000000000 ) ) ;
#374 = EDGE_CURVE ( 'NONE', #177, #238, #83, .T. ) ;
#375 = AXIS2_PLACEMENT_3D ( 'NONE', #188, #224, #165 ) ;
#376 = DIRECTION ( 'NONE',  ( 0.000000000000000000, 0.000000000000000000, 1.000000000000000000 ) ) ;
#377 = DIRECTION ( 'NONE',  ( -0.000000000000000000, -0.000000000000000000, -1.000000000000000000 ) ) ;
#378 = ORIENTED_EDGE ( 'NONE', *, *, #214, .T. ) ;
#379 = APPROVAL ( #31, 'NEURÈENÝ' ) ;
#380 = APPROVAL_DATE_TIME ( #115, #379 ) ;
#381 = ORIENTED_EDGE ( 'NONE', *, *, #367, .T. ) ;
ENDSEC;
END-ISO-10303-21;
