ISO-10303-21;
HEADER;
FILE_DESCRIPTION (( 'STEP AP203' ),
    '1' );
FILE_NAME ('df21.STEP',
    '2022-07-08T15:42:20',
    ( '' ),
    ( '' ),
    'SwSTEP 2.0',
    'SolidWorks 2019',
    '' );
FILE_SCHEMA (( 'CONFIG_CONTROL_DESIGN' ));
ENDSEC;

DATA;
#1 = CARTESIAN_POINT ( 'NONE',  ( 0.000000000000000000, 0.000000000000000000, 0.000000000000000000 ) ) ;
#2 = ADVANCED_FACE ( 'NONE', ( #53 ), #322, .F. ) ;
#3 = CARTESIAN_POINT ( 'NONE',  ( 2.500000000000000000, 3.061616997868383141E-16, 203.0000000000000000 ) ) ;
#4 = CALENDAR_DATE ( 2022, 8, 7 ) ;
#5 = SECURITY_CLASSIFICATION ( '', '', #356 ) ;
#6 = CARTESIAN_POINT ( 'NONE',  ( 5.000000000000000000, 6.123233995736766282E-16, 0.000000000000000000 ) ) ;
#7 = DIRECTION ( 'NONE',  ( 0.000000000000000000, 0.000000000000000000, 1.000000000000000000 ) ) ;
#8 = DIRECTION ( 'NONE',  ( 0.000000000000000000, 0.000000000000000000, 1.000000000000000000 ) ) ;
#9 = DIRECTION ( 'NONE',  ( -0.000000000000000000, -0.000000000000000000, -1.000000000000000000 ) ) ;
#10 = APPLICATION_CONTEXT ( 'configuration controlled 3d designs of mechanical parts and assemblies' ) ;
#11 = CARTESIAN_POINT ( 'NONE',  ( -5.000000000000000000, 0.000000000000000000, 0.000000000000000000 ) ) ;
#12 = EDGE_CURVE ( 'NONE', #368, #114, #308, .T. ) ;
#13 = CARTESIAN_POINT ( 'NONE',  ( 0.000000000000000000, 0.000000000000000000, 3.000000000000000000 ) ) ;
#14 = DESIGN_CONTEXT ( 'detailed design', #80, 'design' ) ;
#15 = LOCAL_TIME ( 17, 42, 20.00000000000000000, #212 ) ;
#16 = CARTESIAN_POINT ( 'NONE',  ( -2.799999999999999822, 3.429011037612588783E-16, 3.299999999999997158 ) ) ;
#17 = CARTESIAN_POINT ( 'NONE',  ( 2.500000000000000000, 3.061616997868383141E-16, 3.299999999999997158 ) ) ;
#18 = ORIENTED_EDGE ( 'NONE', *, *, #369, .T. ) ;
#19 = VERTEX_POINT ( 'NONE', #298 ) ;
#20 = ORIENTED_EDGE ( 'NONE', *, *, #102, .T. ) ;
#21 = ADVANCED_FACE ( 'NONE', ( #363 ), #127, .T. ) ;
#22 = CIRCLE ( 'NONE', #257, 2.500000000000000000 ) ;
#23 = DIRECTION ( 'NONE',  ( 0.000000000000000000, 0.000000000000000000, -1.000000000000000000 ) ) ;
#24 = ORIENTED_EDGE ( 'NONE', *, *, #155, .F. ) ;
#25 = LINE ( 'NONE', #143, #230 ) ;
#26 = ORIENTED_EDGE ( 'NONE', *, *, #329, .T. ) ;
#27 = CIRCLE ( 'NONE', #181, 1.600000000000000089 ) ;
#28 = EDGE_CURVE ( 'NONE', #119, #238, #129, .T. ) ;
#29 = CARTESIAN_POINT ( 'NONE',  ( 0.000000000000000000, 0.000000000000000000, 3.000000000000000000 ) ) ;
#30 = DIRECTION ( 'NONE',  ( 0.000000000000000000, 0.000000000000000000, 1.000000000000000000 ) ) ;
#31 = APPROVAL_STATUS ( 'not_yet_approved' ) ;
#32 = DIRECTION ( 'NONE',  ( -0.000000000000000000, -0.000000000000000000, -1.000000000000000000 ) ) ;
#33 = CC_DESIGN_PERSON_AND_ORGANIZATION_ASSIGNMENT ( #180, #300, ( #5 ) ) ;
#34 = DATE_AND_TIME ( #359, #54 ) ;
#35 = CIRCLE ( 'NONE', #282, 2.500000000000000000 ) ;
#36 = DIRECTION ( 'NONE',  ( 0.000000000000000000, 0.000000000000000000, 1.000000000000000000 ) ) ;
#37 = CARTESIAN_POINT ( 'NONE',  ( -5.000000000000000000, 0.000000000000000000, 3.000000000000000000 ) ) ;
#38 = DIRECTION ( 'NONE',  ( 1.000000000000000000, 0.000000000000000000, 0.000000000000000000 ) ) ;
#39 = EDGE_CURVE ( 'NONE', #119, #68, #22, .T. ) ;
#40 = DIRECTION ( 'NONE',  ( 1.000000000000000000, 0.000000000000000000, 0.000000000000000000 ) ) ;
#41 = PRODUCT_DEFINITION_FORMATION_WITH_SPECIFIED_SOURCE ( 'LIBOVOLNÝ', '', #280, .NOT_KNOWN. ) ;
#42 = LINE ( 'NONE', #281, #46 ) ;
#43 = CARTESIAN_POINT ( 'NONE',  ( -1.600000000000000089, 0.000000000000000000, 203.0000000000000000 ) ) ;
#44 = LINE ( 'NONE', #43, #364 ) ;
#45 = AXIS2_PLACEMENT_3D ( 'NONE', #242, #330, #273 ) ;
#46 = VECTOR ( 'NONE', #106, 1000.000000000000000 ) ;
#47 = ORIENTED_EDGE ( 'NONE', *, *, #170, .F. ) ;
#48 = EDGE_CURVE ( 'NONE', #19, #174, #184, .T. ) ;
#49 = VERTEX_POINT ( 'NONE', #6 ) ;
#50 = DIRECTION ( 'NONE',  ( 1.000000000000000000, 0.000000000000000000, 0.000000000000000000 ) ) ;
#51 = ORIENTED_EDGE ( 'NONE', *, *, #299, .F. ) ;
#52 = ORIENTED_EDGE ( 'NONE', *, *, #48, .F. ) ;
#53 = FACE_OUTER_BOUND ( 'NONE', #292, .T. ) ;
#54 = LOCAL_TIME ( 17, 42, 20.00000000000000000, #269 ) ;
#55 = DATE_AND_TIME ( #90, #15 ) ;
#56 = DIRECTION ( 'NONE',  ( 1.000000000000000000, 0.000000000000000000, 0.000000000000000000 ) ) ;
#57 = PERSON_AND_ORGANIZATION ( #198, #138 ) ;
#58 = CYLINDRICAL_SURFACE ( 'NONE', #45, 1.600000000000000089 ) ;
#59 = DATE_TIME_ROLE ( 'classification_date' ) ;
#60 = DIRECTION ( 'NONE',  ( 0.000000000000000000, 0.000000000000000000, 1.000000000000000000 ) ) ;
#61 = APPROVAL ( #76, 'NEURÈENÝ' ) ;
#62 = PERSON_AND_ORGANIZATION ( #198, #138 ) ;
#63 = AXIS2_PLACEMENT_3D ( 'NONE', #378, #115, #231 ) ;
#64 = DIRECTION ( 'NONE',  ( 0.000000000000000000, 0.000000000000000000, 1.000000000000000000 ) ) ;
#65 = DIRECTION ( 'NONE',  ( 1.000000000000000000, 0.000000000000000000, -0.000000000000000000 ) ) ;
#66 = ADVANCED_FACE ( 'NONE', ( #241 ), #331, .T. ) ;
#67 = CC_DESIGN_PERSON_AND_ORGANIZATION_ASSIGNMENT ( #57, #95, ( #41 ) ) ;
#68 = VERTEX_POINT ( 'NONE', #3 ) ;
#69 = FACE_OUTER_BOUND ( 'NONE', #116, .T. ) ;
#70 = CIRCLE ( 'NONE', #150, 2.799999999999999822 ) ;
#71 = DIRECTION ( 'NONE',  ( 0.000000000000000000, 0.000000000000000000, 1.000000000000000000 ) ) ;
#72 = DIRECTION ( 'NONE',  ( 1.000000000000000000, 0.000000000000000000, 0.000000000000000000 ) ) ;
#73 = DIRECTION ( 'NONE',  ( -1.000000000000000000, 1.224646799147353207E-16, 0.000000000000000000 ) ) ;
#74 = ORIENTED_EDGE ( 'NONE', *, *, #166, .T. ) ;
#75 = CIRCLE ( 'NONE', #271, 1.600000000000000089 ) ;
#76 = APPROVAL_STATUS ( 'not_yet_approved' ) ;
#77 = CARTESIAN_POINT ( 'NONE',  ( 0.000000000000000000, 0.000000000000000000, 3.299999999999997158 ) ) ;
#78 = ADVANCED_FACE ( 'NONE', ( #248 ), #275, .T. ) ;
#79 = EDGE_LOOP ( 'NONE', ( #324, #179, #26, #240 ) ) ;
#80 = APPLICATION_CONTEXT ( 'configuration controlled 3d designs of mechanical parts and assemblies' ) ;
#81 = EDGE_LOOP ( 'NONE', ( #172, #104, #337, #146 ) ) ;
#82 = VECTOR ( 'NONE', #252, 1000.000000000000000 ) ;
#83 = DIRECTION ( 'NONE',  ( 0.000000000000000000, 0.000000000000000000, 1.000000000000000000 ) ) ;
#84 = ORIENTED_EDGE ( 'NONE', *, *, #355, .T. ) ;
#85 = AXIS2_PLACEMENT_3D ( 'NONE', #220, #213, #303 ) ;
#86 =( NAMED_UNIT ( * ) SI_UNIT ( $, .STERADIAN. ) SOLID_ANGLE_UNIT ( ) );
#87 = ORIENTED_EDGE ( 'NONE', *, *, #339, .T. ) ;
#88 = COORDINATED_UNIVERSAL_TIME_OFFSET ( 1, 0, .AHEAD. ) ;
#89 = CARTESIAN_POINT ( 'NONE',  ( 0.000000000000000000, 0.000000000000000000, 3.000000000000000000 ) ) ;
#90 = CALENDAR_DATE ( 2022, 8, 7 ) ;
#91 = PRODUCT_DEFINITION_SHAPE ( 'NONE', 'NONE',  #205 ) ;
#92 = DIRECTION ( 'NONE',  ( -1.000000000000000000, 0.000000000000000000, 0.000000000000000000 ) ) ;
#93 = AXIS2_PLACEMENT_3D ( 'NONE', #77, #8, #98 ) ;
#94 = ADVANCED_FACE ( 'NONE', ( #189 ), #301, .T. ) ;
#95 = PERSON_AND_ORGANIZATION_ROLE ( 'creator' ) ;
#96 = CARTESIAN_POINT ( 'NONE',  ( 0.000000000000000000, 0.000000000000000000, 3.000000000000000000 ) ) ;
#97 = APPROVAL_ROLE ( '' ) ;
#98 = DIRECTION ( 'NONE',  ( 1.000000000000000000, 0.000000000000000000, 0.000000000000000000 ) ) ;
#99 = CIRCLE ( 'NONE', #168, 2.500000000000000000 ) ;
#100 = APPROVAL_PERSON_ORGANIZATION ( #313, #61, #118 ) ;
#101 = DIRECTION ( 'NONE',  ( 1.000000000000000000, 0.000000000000000000, 0.000000000000000000 ) ) ;
#102 = EDGE_CURVE ( 'NONE', #376, #195, #209, .T. ) ;
#103 = CARTESIAN_POINT ( 'NONE',  ( 0.000000000000000000, 0.000000000000000000, 0.000000000000000000 ) ) ;
#104 = ORIENTED_EDGE ( 'NONE', *, *, #315, .T. ) ;
#105 = DIRECTION ( 'NONE',  ( 1.000000000000000000, 0.000000000000000000, 0.000000000000000000 ) ) ;
#106 = DIRECTION ( 'NONE',  ( -0.000000000000000000, -0.000000000000000000, -1.000000000000000000 ) ) ;
#107 = AXIS2_PLACEMENT_3D ( 'NONE', #196, #250, #72 ) ;
#108 = AXIS2_PLACEMENT_3D ( 'NONE', #185, #124, #92 ) ;
#109 = DIRECTION ( 'NONE',  ( -0.000000000000000000, -0.000000000000000000, -1.000000000000000000 ) ) ;
#110 = ORIENTED_EDGE ( 'NONE', *, *, #286, .F. ) ;
#111 = ADVANCED_FACE ( 'NONE', ( #159, #328 ), #296, .F. ) ;
#112 = PERSON_AND_ORGANIZATION ( #198, #138 ) ;
#113 = ORIENTED_EDGE ( 'NONE', *, *, #182, .F. ) ;
#114 = VERTEX_POINT ( 'NONE', #37 ) ;
#115 = DIRECTION ( 'NONE',  ( 0.000000000000000000, 0.000000000000000000, 1.000000000000000000 ) ) ;
#116 = EDGE_LOOP ( 'NONE', ( #379, #149 ) ) ;
#117 = AXIS2_PLACEMENT_3D ( 'NONE', #278, #336, #340 ) ;
#118 = APPROVAL_ROLE ( '' ) ;
#119 = VERTEX_POINT ( 'NONE', #154 ) ;
#120 = AXIS2_PLACEMENT_3D ( 'NONE', #29, #64, #56 ) ;
#121 = APPROVAL_STATUS ( 'not_yet_approved' ) ;
#122 = DIRECTION ( 'NONE',  ( -0.000000000000000000, -0.000000000000000000, -1.000000000000000000 ) ) ;
#123 = DATE_AND_TIME ( #266, #199 ) ;
#124 = DIRECTION ( 'NONE',  ( -0.000000000000000000, -0.000000000000000000, -1.000000000000000000 ) ) ;
#125 = ADVANCED_FACE ( 'NONE', ( #160 ), #58, .F. ) ;
#126 = CIRCLE ( 'NONE', #312, 2.500000000000000000 ) ;
#127 = CYLINDRICAL_SURFACE ( 'NONE', #346, 5.000000000000000000 ) ;
#128 = DIRECTION ( 'NONE',  ( -1.000000000000000000, 0.000000000000000000, 0.000000000000000000 ) ) ;
#129 = LINE ( 'NONE', #183, #345 ) ;
#130 = CC_DESIGN_PERSON_AND_ORGANIZATION_ASSIGNMENT ( #361, #326, ( #41 ) ) ;
#131 = AXIS2_PLACEMENT_3D ( 'NONE', #254, #221, #40 ) ;
#132 = DIRECTION ( 'NONE',  ( 0.000000000000000000, 0.000000000000000000, 1.000000000000000000 ) ) ;
#133 = DIRECTION ( 'NONE',  ( 0.000000000000000000, 0.000000000000000000, 1.000000000000000000 ) ) ;
#134 = EDGE_LOOP ( 'NONE', ( #51, #225, #234, #381 ) ) ;
#135 = DIRECTION ( 'NONE',  ( 0.000000000000000000, 0.000000000000000000, 1.000000000000000000 ) ) ;
#136 = EDGE_CURVE ( 'NONE', #376, #238, #99, .T. ) ;
#137 = CARTESIAN_POINT ( 'NONE',  ( -1.600000000000000089, 0.000000000000000000, 203.0000000000000000 ) ) ;
#138 = ORGANIZATION ( 'NEURÈENÝ', 'NEURÈENÝ', '' ) ;
#139 = CARTESIAN_POINT ( 'NONE',  ( -1.600000000000000089, 0.000000000000000000, 0.000000000000000000 ) ) ;
#140 = CARTESIAN_POINT ( 'NONE',  ( 0.000000000000000000, 0.000000000000000000, 203.0000000000000000 ) ) ;
#141 = EDGE_CURVE ( 'NONE', #68, #119, #35, .T. ) ;
#142 = ORIENTED_EDGE ( 'NONE', *, *, #155, .T. ) ;
#143 = CARTESIAN_POINT ( 'NONE',  ( 1.600000000000000089, 1.959434878635764737E-16, 203.0000000000000000 ) ) ;
#144 = CIRCLE ( 'NONE', #374, 0.2999999999999999334 ) ;
#145 = CYLINDRICAL_SURFACE ( 'NONE', #176, 1.600000000000000089 ) ;
#146 = ORIENTED_EDGE ( 'NONE', *, *, #261, .F. ) ;
#147 = PRODUCT_RELATED_PRODUCT_CATEGORY ( 'detail', '', ( #280 ) ) ;
#148 = ORIENTED_EDGE ( 'NONE', *, *, #136, .T. ) ;
#149 = ORIENTED_EDGE ( 'NONE', *, *, #12, .T. ) ;
#150 = AXIS2_PLACEMENT_3D ( 'NONE', #96, #217, #186 ) ;
#151 = COORDINATED_UNIVERSAL_TIME_OFFSET ( 1, 0, .AHEAD. ) ;
#152 = CARTESIAN_POINT ( 'NONE',  ( 0.000000000000000000, 0.000000000000000000, 203.0000000000000000 ) ) ;
#153 = DATE_AND_TIME ( #4, #214 ) ;
#154 = CARTESIAN_POINT ( 'NONE',  ( -2.500000000000000000, 0.000000000000000000, 203.0000000000000000 ) ) ;
#155 = EDGE_CURVE ( 'NONE', #195, #177, #70, .T. ) ;
#156 = APPROVAL_ROLE ( '' ) ;
#157 = CARTESIAN_POINT ( 'NONE',  ( 0.000000000000000000, 0.000000000000000000, 3.299999999999997158 ) ) ;
#158 = APPROVAL_DATE_TIME ( #34, #218 ) ;
#159 = FACE_BOUND ( 'NONE', #210, .T. ) ;
#160 = FACE_OUTER_BOUND ( 'NONE', #79, .T. ) ;
#161 = DIRECTION ( 'NONE',  ( -0.000000000000000000, -0.000000000000000000, -1.000000000000000000 ) ) ;
#162 = CC_DESIGN_APPROVAL ( #61, ( #205 ) ) ;
#163 = CARTESIAN_POINT ( 'NONE',  ( -2.799999999999999822, 3.429011037612589276E-16, 2.999999999999998668 ) ) ;
#164 = FACE_BOUND ( 'NONE', #232, .T. ) ;
#165 = VERTEX_POINT ( 'NONE', #219 ) ;
#166 = EDGE_CURVE ( 'NONE', #177, #195, #255, .T. ) ;
#167 = CARTESIAN_POINT ( 'NONE',  ( 0.000000000000000000, 0.000000000000000000, 203.0000000000000000 ) ) ;
#168 = AXIS2_PLACEMENT_3D ( 'NONE', #157, #333, #358 ) ;
#169 = CARTESIAN_POINT ( 'NONE',  ( -5.000000000000000000, 0.000000000000000000, 3.000000000000000000 ) ) ;
#170 = EDGE_CURVE ( 'NONE', #49, #260, #293, .T. ) ;
#171 = COORDINATED_UNIVERSAL_TIME_OFFSET ( 1, 0, .AHEAD. ) ;
#172 = ORIENTED_EDGE ( 'NONE', *, *, #12, .F. ) ;
#173 = CARTESIAN_POINT ( 'NONE',  ( 0.000000000000000000, 0.000000000000000000, 0.000000000000000000 ) ) ;
#174 = VERTEX_POINT ( 'NONE', #137 ) ;
#175 = ORIENTED_EDGE ( 'NONE', *, *, #102, .F. ) ;
#176 = AXIS2_PLACEMENT_3D ( 'NONE', #140, #23, #237 ) ;
#177 = VERTEX_POINT ( 'NONE', #163 ) ;
#178 = PERSON_AND_ORGANIZATION ( #198, #138 ) ;
#179 = ORIENTED_EDGE ( 'NONE', *, *, #48, .T. ) ;
#180 = PERSON_AND_ORGANIZATION ( #198, #138 ) ;
#181 = AXIS2_PLACEMENT_3D ( 'NONE', #304, #367, #306 ) ;
#182 = EDGE_CURVE ( 'NONE', #262, #165, #75, .T. ) ;
#183 = CARTESIAN_POINT ( 'NONE',  ( -2.500000000000000000, 0.000000000000000000, 203.0000000000000000 ) ) ;
#184 = CIRCLE ( 'NONE', #274, 1.600000000000000089 ) ;
#185 = CARTESIAN_POINT ( 'NONE',  ( 0.000000000000000000, 0.000000000000000000, 203.0000000000000000 ) ) ;
#186 = DIRECTION ( 'NONE',  ( 1.000000000000000000, 0.000000000000000000, 0.000000000000000000 ) ) ;
#187 = AXIS2_PLACEMENT_3D ( 'NONE', #1, #30, #65 ) ;
#188 =( GEOMETRIC_REPRESENTATION_CONTEXT ( 3 ) GLOBAL_UNCERTAINTY_ASSIGNED_CONTEXT ( ( #307 ) ) GLOBAL_UNIT_ASSIGNED_CONTEXT ( ( #203, #233, #86 ) ) REPRESENTATION_CONTEXT ( 'NONE', 'WORKASPACE' ) );
#189 = FACE_OUTER_BOUND ( 'NONE', #222, .T. ) ;
#190 = CARTESIAN_POINT ( 'NONE',  ( 0.000000000000000000, 0.000000000000000000, 203.0000000000000000 ) ) ;
#191 = CARTESIAN_POINT ( 'NONE',  ( 2.500000000000000000, 3.061616997868383141E-16, 203.0000000000000000 ) ) ;
#192 = AXIS2_PLACEMENT_3D ( 'NONE', #13, #132, #224 ) ;
#193 = ADVANCED_FACE ( 'NONE', ( #341, #69 ), #256, .T. ) ;
#194 = FACE_OUTER_BOUND ( 'NONE', #317, .T. ) ;
#195 = VERTEX_POINT ( 'NONE', #372 ) ;
#196 = CARTESIAN_POINT ( 'NONE',  ( 0.000000000000000000, 0.000000000000000000, 3.000000000000000000 ) ) ;
#197 = LINE ( 'NONE', #169, #343 ) ;
#198 = PERSON ( 'NEURÈENÝ', 'NEURÈENÝ', 'NEURÈENÝ', ('NEURÈENÝ'), ('NEURÈENÝ'), ('NEURÈENÝ') ) ;
#199 = LOCAL_TIME ( 17, 42, 20.00000000000000000, #88 ) ;
#200 = CARTESIAN_POINT ( 'NONE',  ( 0.000000000000000000, 0.000000000000000000, 0.000000000000000000 ) ) ;
#201 = DATE_AND_TIME ( #284, #371 ) ;
#202 = EDGE_LOOP ( 'NONE', ( #204, #47 ) ) ;
#203 =( LENGTH_UNIT ( ) NAMED_UNIT ( * ) SI_UNIT ( .MILLI., .METRE. ) );
#204 = ORIENTED_EDGE ( 'NONE', *, *, #369, .F. ) ;
#205 = PRODUCT_DEFINITION ( 'NEZNÁMÝ', '', #41, #14 ) ;
#206 = ORIENTED_EDGE ( 'NONE', *, *, #261, .T. ) ;
#207 = APPROVAL_PERSON_ORGANIZATION ( #62, #377, #97 ) ;
#208 = ORIENTED_EDGE ( 'NONE', *, *, #141, .T. ) ;
#209 = CIRCLE ( 'NONE', #291, 0.2999999999999999334 ) ;
#210 = EDGE_LOOP ( 'NONE', ( #113, #265 ) ) ;
#211 = CC_DESIGN_DATE_AND_TIME_ASSIGNMENT ( #153, #216, ( #205 ) ) ;
#212 = COORDINATED_UNIVERSAL_TIME_OFFSET ( 1, 0, .AHEAD. ) ;
#213 = DIRECTION ( 'NONE',  ( -0.000000000000000000, -0.000000000000000000, -1.000000000000000000 ) ) ;
#214 = LOCAL_TIME ( 17, 42, 20.00000000000000000, #151 ) ;
#215 = DIRECTION ( 'NONE',  ( 1.000000000000000000, 0.000000000000000000, 0.000000000000000000 ) ) ;
#216 = DATE_TIME_ROLE ( 'creation_date' ) ;
#217 = DIRECTION ( 'NONE',  ( -0.000000000000000000, -0.000000000000000000, -1.000000000000000000 ) ) ;
#218 = APPROVAL ( #31, 'NEURÈENÝ' ) ;
#219 = CARTESIAN_POINT ( 'NONE',  ( 1.600000000000000089, 1.959434878635764737E-16, 0.000000000000000000 ) ) ;
#220 = CARTESIAN_POINT ( 'NONE',  ( 0.000000000000000000, 0.000000000000000000, 203.0000000000000000 ) ) ;
#221 = DIRECTION ( 'NONE',  ( 0.000000000000000000, 0.000000000000000000, 1.000000000000000000 ) ) ;
#222 = EDGE_LOOP ( 'NONE', ( #290, #287, #148, #335 ) ) ;
#223 = EDGE_CURVE ( 'NONE', #114, #368, #365, .T. ) ;
#224 = DIRECTION ( 'NONE',  ( 1.000000000000000000, 0.000000000000000000, -0.000000000000000000 ) ) ;
#225 = ORIENTED_EDGE ( 'NONE', *, *, #39, .F. ) ;
#226 = PLANE ( 'NONE',  #338 ) ;
#227 = CLOSED_SHELL ( 'NONE', ( #342, #272, #94, #21, #66, #193, #111, #78, #235, #2, #125 ) ) ;
#228 = FACE_OUTER_BOUND ( 'NONE', #344, .T. ) ;
#229 = CARTESIAN_POINT ( 'NONE',  ( 0.000000000000000000, 0.000000000000000000, 3.299999999999997158 ) ) ;
#230 = VECTOR ( 'NONE', #285, 1000.000000000000000 ) ;
#231 = DIRECTION ( 'NONE',  ( 1.000000000000000000, 0.000000000000000000, 0.000000000000000000 ) ) ;
#232 = EDGE_LOOP ( 'NONE', ( #353, #52 ) ) ;
#233 =( NAMED_UNIT ( * ) PLANE_ANGLE_UNIT ( ) SI_UNIT ( $, .RADIAN. ) );
#234 = ORIENTED_EDGE ( 'NONE', *, *, #28, .T. ) ;
#235 = ADVANCED_FACE ( 'NONE', ( #164, #228 ), #226, .T. ) ;
#236 = ORIENTED_EDGE ( 'NONE', *, *, #166, .F. ) ;
#237 = DIRECTION ( 'NONE',  ( -1.000000000000000000, 0.000000000000000000, 0.000000000000000000 ) ) ;
#238 = VERTEX_POINT ( 'NONE', #311 ) ;
#239 = AXIS2_PLACEMENT_3D ( 'NONE', #173, #83, #50 ) ;
#240 = ORIENTED_EDGE ( 'NONE', *, *, #182, .T. ) ;
#241 = FACE_OUTER_BOUND ( 'NONE', #349, .T. ) ;
#242 = CARTESIAN_POINT ( 'NONE',  ( 0.000000000000000000, 0.000000000000000000, 203.0000000000000000 ) ) ;
#243 = CIRCLE ( 'NONE', #131, 1.600000000000000089 ) ;
#244 = APPROVAL_DATE_TIME ( #123, #377 ) ;
#245 = DIRECTION ( 'NONE',  ( -0.000000000000000000, -0.000000000000000000, -1.000000000000000000 ) ) ;
#246 = CC_DESIGN_PERSON_AND_ORGANIZATION_ASSIGNMENT ( #112, #295, ( #205 ) ) ;
#247 = DIRECTION ( 'NONE',  ( -1.000000000000000000, 0.000000000000000000, 0.000000000000000000 ) ) ;
#248 = FACE_OUTER_BOUND ( 'NONE', #134, .T. ) ;
#249 = ADVANCED_BREP_SHAPE_REPRESENTATION ( 'df21', ( #305, #63 ), #188 ) ;
#250 = DIRECTION ( 'NONE',  ( 0.000000000000000000, 0.000000000000000000, 1.000000000000000000 ) ) ;
#251 = EDGE_CURVE ( 'NONE', #174, #19, #243, .T. ) ;
#252 = DIRECTION ( 'NONE',  ( -0.000000000000000000, -0.000000000000000000, -1.000000000000000000 ) ) ;
#253 = ORIENTED_EDGE ( 'NONE', *, *, #251, .T. ) ;
#254 = CARTESIAN_POINT ( 'NONE',  ( 0.000000000000000000, 0.000000000000000000, 203.0000000000000000 ) ) ;
#255 = CIRCLE ( 'NONE', #357, 2.799999999999999822 ) ;
#256 = PLANE ( 'NONE',  #192 ) ;
#257 = AXIS2_PLACEMENT_3D ( 'NONE', #190, #7, #101 ) ;
#258 = ORIENTED_EDGE ( 'NONE', *, *, #223, .F. ) ;
#259 = CC_DESIGN_SECURITY_CLASSIFICATION ( #5, ( #41 ) ) ;
#260 = VERTEX_POINT ( 'NONE', #11 ) ;
#261 = EDGE_CURVE ( 'NONE', #114, #260, #197, .T. ) ;
#262 = VERTEX_POINT ( 'NONE', #139 ) ;
#263 = ORIENTED_EDGE ( 'NONE', *, *, #315, .F. ) ;
#264 = PERSON_AND_ORGANIZATION_ROLE ( 'design_owner' ) ;
#265 = ORIENTED_EDGE ( 'NONE', *, *, #310, .F. ) ;
#266 = CALENDAR_DATE ( 2022, 8, 7 ) ;
#267 = DIRECTION ( 'NONE',  ( 1.000000000000000000, 0.000000000000000000, 0.000000000000000000 ) ) ;
#268 = CARTESIAN_POINT ( 'NONE',  ( 0.000000000000000000, 0.000000000000000000, 3.000000000000000000 ) ) ;
#269 = COORDINATED_UNIVERSAL_TIME_OFFSET ( 1, 0, .AHEAD. ) ;
#270 = DIRECTION ( 'NONE',  ( 0.000000000000000000, 0.000000000000000000, -1.000000000000000000 ) ) ;
#271 = AXIS2_PLACEMENT_3D ( 'NONE', #103, #9, #334 ) ;
#272 = ADVANCED_FACE ( 'NONE', ( #194 ), #288, .F. ) ;
#273 = DIRECTION ( 'NONE',  ( -1.000000000000000000, 0.000000000000000000, 0.000000000000000000 ) ) ;
#274 = AXIS2_PLACEMENT_3D ( 'NONE', #152, #36, #267 ) ;
#275 = CYLINDRICAL_SURFACE ( 'NONE', #108, 2.500000000000000000 ) ;
#276 = CC_DESIGN_PERSON_AND_ORGANIZATION_ASSIGNMENT ( #178, #264, ( #280 ) ) ;
#277 = CC_DESIGN_APPROVAL ( #377, ( #41 ) ) ;
#278 = CARTESIAN_POINT ( 'NONE',  ( 0.000000000000000000, 0.000000000000000000, 3.299999999999997158 ) ) ;
#279 = CARTESIAN_POINT ( 'NONE',  ( 0.000000000000000000, 0.000000000000000000, 3.000000000000000000 ) ) ;
#280 = PRODUCT ( 'df21', 'df21', '', ( #323 ) ) ;
#281 = CARTESIAN_POINT ( 'NONE',  ( 5.000000000000000000, 6.123233995736766282E-16, 3.000000000000000000 ) ) ;
#282 = AXIS2_PLACEMENT_3D ( 'NONE', #362, #60, #215 ) ;
#283 = DIRECTION ( 'NONE',  ( 0.000000000000000000, 0.000000000000000000, -1.000000000000000000 ) ) ;
#284 = CALENDAR_DATE ( 2022, 8, 7 ) ;
#285 = DIRECTION ( 'NONE',  ( 0.000000000000000000, 0.000000000000000000, -1.000000000000000000 ) ) ;
#286 = EDGE_CURVE ( 'NONE', #238, #376, #126, .T. ) ;
#287 = ORIENTED_EDGE ( 'NONE', *, *, #299, .T. ) ;
#288 = TOROIDAL_SURFACE ( 'NONE', #117, 2.799999999999999822, 0.2999999999999999889 ) ;
#289 = AXIS2_PLACEMENT_3D ( 'NONE', #268, #32, #128 ) ;
#290 = ORIENTED_EDGE ( 'NONE', *, *, #141, .F. ) ;
#291 = AXIS2_PLACEMENT_3D ( 'NONE', #302, #360, #270 ) ;
#292 = EDGE_LOOP ( 'NONE', ( #375, #314, #20, #236 ) ) ;
#293 = CIRCLE ( 'NONE', #319, 5.000000000000000000 ) ;
#294 = ORIENTED_EDGE ( 'NONE', *, *, #39, .T. ) ;
#295 = PERSON_AND_ORGANIZATION_ROLE ( 'creator' ) ;
#296 = PLANE ( 'NONE',  #187 ) ;
#297 = PERSON_AND_ORGANIZATION ( #198, #138 ) ;
#298 = CARTESIAN_POINT ( 'NONE',  ( 1.600000000000000089, 1.959434878635764737E-16, 203.0000000000000000 ) ) ;
#299 = EDGE_CURVE ( 'NONE', #68, #376, #370, .T. ) ;
#300 = PERSON_AND_ORGANIZATION_ROLE ( 'classification_officer' ) ;
#301 = CYLINDRICAL_SURFACE ( 'NONE', #85, 2.500000000000000000 ) ;
#302 = CARTESIAN_POINT ( 'NONE',  ( 2.799999999999999822, 0.000000000000000000, 3.299999999999997158 ) ) ;
#303 = DIRECTION ( 'NONE',  ( -1.000000000000000000, 0.000000000000000000, 0.000000000000000000 ) ) ;
#304 = CARTESIAN_POINT ( 'NONE',  ( 0.000000000000000000, 0.000000000000000000, 0.000000000000000000 ) ) ;
#305 = MANIFOLD_SOLID_BREP ( 'Odebrat vysunutím3', #227 ) ;
#306 = DIRECTION ( 'NONE',  ( 1.000000000000000000, 0.000000000000000000, 0.000000000000000000 ) ) ;
#307 = UNCERTAINTY_MEASURE_WITH_UNIT (LENGTH_MEASURE( 1.000000000000000082E-05 ), #203, 'distance_accuracy_value', 'NONE');
#308 = CIRCLE ( 'NONE', #120, 5.000000000000000000 ) ;
#309 = DIRECTION ( 'NONE',  ( 1.000000000000000000, 0.000000000000000000, 0.000000000000000000 ) ) ;
#310 = EDGE_CURVE ( 'NONE', #165, #262, #27, .T. ) ;
#311 = CARTESIAN_POINT ( 'NONE',  ( -2.500000000000000000, 0.000000000000000000, 3.299999999999997158 ) ) ;
#312 = AXIS2_PLACEMENT_3D ( 'NONE', #229, #133, #309 ) ;
#313 = PERSON_AND_ORGANIZATION ( #198, #138 ) ;
#314 = ORIENTED_EDGE ( 'NONE', *, *, #136, .F. ) ;
#315 = EDGE_CURVE ( 'NONE', #368, #49, #42, .T. ) ;
#316 = APPROVAL_DATE_TIME ( #201, #61 ) ;
#317 = EDGE_LOOP ( 'NONE', ( #110, #87, #24, #175 ) ) ;
#318 = EDGE_LOOP ( 'NONE', ( #142, #74 ) ) ;
#319 = AXIS2_PLACEMENT_3D ( 'NONE', #200, #71, #38 ) ;
#320 = CARTESIAN_POINT ( 'NONE',  ( 5.000000000000000000, 6.123233995736766282E-16, 3.000000000000000000 ) ) ;
#321 = EDGE_LOOP ( 'NONE', ( #253, #84, #354, #348 ) ) ;
#322 = TOROIDAL_SURFACE ( 'NONE', #93, 2.799999999999999822, 0.2999999999999999889 ) ;
#323 = MECHANICAL_CONTEXT ( 'NONE', #10, 'mechanical' ) ;
#324 = ORIENTED_EDGE ( 'NONE', *, *, #355, .F. ) ;
#325 = SHAPE_DEFINITION_REPRESENTATION ( #91, #249 ) ;
#326 = PERSON_AND_ORGANIZATION_ROLE ( 'design_supplier' ) ;
#327 = APPROVAL_PERSON_ORGANIZATION ( #297, #218, #156 ) ;
#328 = FACE_OUTER_BOUND ( 'NONE', #202, .T. ) ;
#329 = EDGE_CURVE ( 'NONE', #174, #262, #44, .T. ) ;
#330 = DIRECTION ( 'NONE',  ( 0.000000000000000000, 0.000000000000000000, -1.000000000000000000 ) ) ;
#331 = CYLINDRICAL_SURFACE ( 'NONE', #289, 5.000000000000000000 ) ;
#332 = CC_DESIGN_APPROVAL ( #218, ( #5 ) ) ;
#333 = DIRECTION ( 'NONE',  ( 0.000000000000000000, 0.000000000000000000, 1.000000000000000000 ) ) ;
#334 = DIRECTION ( 'NONE',  ( 1.000000000000000000, 0.000000000000000000, 0.000000000000000000 ) ) ;
#335 = ORIENTED_EDGE ( 'NONE', *, *, #28, .F. ) ;
#336 = DIRECTION ( 'NONE',  ( 0.000000000000000000, 0.000000000000000000, 1.000000000000000000 ) ) ;
#337 = ORIENTED_EDGE ( 'NONE', *, *, #170, .T. ) ;
#338 = AXIS2_PLACEMENT_3D ( 'NONE', #167, #135, #366 ) ;
#339 = EDGE_CURVE ( 'NONE', #238, #177, #144, .T. ) ;
#340 = DIRECTION ( 'NONE',  ( 1.000000000000000000, 0.000000000000000000, 0.000000000000000000 ) ) ;
#341 = FACE_BOUND ( 'NONE', #318, .T. ) ;
#342 = ADVANCED_FACE ( 'NONE', ( #347 ), #145, .F. ) ;
#343 = VECTOR ( 'NONE', #109, 1000.000000000000000 ) ;
#344 = EDGE_LOOP ( 'NONE', ( #294, #208 ) ) ;
#345 = VECTOR ( 'NONE', #122, 1000.000000000000000 ) ;
#346 = AXIS2_PLACEMENT_3D ( 'NONE', #89, #245, #247 ) ;
#347 = FACE_OUTER_BOUND ( 'NONE', #321, .T. ) ;
#348 = ORIENTED_EDGE ( 'NONE', *, *, #329, .F. ) ;
#349 = EDGE_LOOP ( 'NONE', ( #263, #258, #206, #18 ) ) ;
#350 = CC_DESIGN_DATE_AND_TIME_ASSIGNMENT ( #55, #59, ( #5 ) ) ;
#351 = CIRCLE ( 'NONE', #239, 5.000000000000000000 ) ;
#352 = APPLICATION_PROTOCOL_DEFINITION ( 'international standard', 'config_control_design', 1994, #10 ) ;
#353 = ORIENTED_EDGE ( 'NONE', *, *, #251, .F. ) ;
#354 = ORIENTED_EDGE ( 'NONE', *, *, #310, .T. ) ;
#355 = EDGE_CURVE ( 'NONE', #19, #165, #25, .T. ) ;
#356 = SECURITY_CLASSIFICATION_LEVEL ( 'unclassified' ) ;
#357 = AXIS2_PLACEMENT_3D ( 'NONE', #279, #161, #105 ) ;
#358 = DIRECTION ( 'NONE',  ( 1.000000000000000000, 0.000000000000000000, 0.000000000000000000 ) ) ;
#359 = CALENDAR_DATE ( 2022, 8, 7 ) ;
#360 = DIRECTION ( 'NONE',  ( 0.000000000000000000, -1.000000000000000000, 0.000000000000000000 ) ) ;
#361 = PERSON_AND_ORGANIZATION ( #198, #138 ) ;
#362 = CARTESIAN_POINT ( 'NONE',  ( 0.000000000000000000, 0.000000000000000000, 203.0000000000000000 ) ) ;
#363 = FACE_OUTER_BOUND ( 'NONE', #81, .T. ) ;
#364 = VECTOR ( 'NONE', #283, 1000.000000000000000 ) ;
#365 = CIRCLE ( 'NONE', #107, 5.000000000000000000 ) ;
#366 = DIRECTION ( 'NONE',  ( 1.000000000000000000, 0.000000000000000000, -0.000000000000000000 ) ) ;
#367 = DIRECTION ( 'NONE',  ( -0.000000000000000000, -0.000000000000000000, -1.000000000000000000 ) ) ;
#368 = VERTEX_POINT ( 'NONE', #320 ) ;
#369 = EDGE_CURVE ( 'NONE', #260, #49, #351, .T. ) ;
#370 = LINE ( 'NONE', #191, #82 ) ;
#371 = LOCAL_TIME ( 17, 42, 20.00000000000000000, #171 ) ;
#372 = CARTESIAN_POINT ( 'NONE',  ( 2.799999999999999822, 0.000000000000000000, 2.999999999999998668 ) ) ;
#373 = DIRECTION ( 'NONE',  ( 1.224646799147353207E-16, 1.000000000000000000, -0.000000000000000000 ) ) ;
#374 = AXIS2_PLACEMENT_3D ( 'NONE', #16, #373, #73 ) ;
#375 = ORIENTED_EDGE ( 'NONE', *, *, #339, .F. ) ;
#376 = VERTEX_POINT ( 'NONE', #17 ) ;
#377 = APPROVAL ( #121, 'NEURÈENÝ' ) ;
#378 = CARTESIAN_POINT ( 'NONE',  ( 0.000000000000000000, 0.000000000000000000, 0.000000000000000000 ) ) ;
#379 = ORIENTED_EDGE ( 'NONE', *, *, #223, .T. ) ;
#380 = APPLICATION_PROTOCOL_DEFINITION ( 'international standard', 'config_control_design', 1994, #80 ) ;
#381 = ORIENTED_EDGE ( 'NONE', *, *, #286, .T. ) ;
ENDSEC;
END-ISO-10303-21;
