ISO-10303-21;
HEADER;
FILE_DESCRIPTION (( 'STEP AP203' ),
    '1' );
FILE_NAME ('3976.STEP',
    '2022-07-08T15:31:00',
    ( '' ),
    ( '' ),
    'SwSTEP 2.0',
    'SolidWorks 2019',
    '' );
FILE_SCHEMA (( 'CONFIG_CONTROL_DESIGN' ));
ENDSEC;

DATA;
#1 = ADVANCED_FACE ( 'NONE', ( #261 ), #24, .F. ) ;
#2 = DIRECTION ( 'NONE',  ( 1.000000000000000000, 0.000000000000000000, 0.000000000000000000 ) ) ;
#3 = DIRECTION ( 'NONE',  ( 1.000000000000000000, 0.000000000000000000, -0.000000000000000000 ) ) ;
#4 = VECTOR ( 'NONE', #355, 1000.000000000000000 ) ;
#5 = CARTESIAN_POINT ( 'NONE',  ( -7.000000000000000000, 0.000000000000000000, 5.000000000000000000 ) ) ;
#6 = ADVANCED_FACE ( 'NONE', ( #319 ), #26, .F. ) ;
#7 = CLOSED_SHELL ( 'NONE', ( #6, #375, #156, #286, #93, #197, #115, #16, #352, #166, #1 ) ) ;
#8 = CARTESIAN_POINT ( 'NONE',  ( 0.000000000000000000, 0.000000000000000000, 5.500000000000005329 ) ) ;
#9 = APPLICATION_PROTOCOL_DEFINITION ( 'international standard', 'config_control_design', 1994, #132 ) ;
#10 = ORGANIZATION ( 'NEURÈENÝ', 'NEURÈENÝ', '' ) ;
#11 = VECTOR ( 'NONE', #188, 1000.000000000000000 ) ;
#12 = DIRECTION ( 'NONE',  ( 0.000000000000000000, 0.000000000000000000, 1.000000000000000000 ) ) ;
#13 = VERTEX_POINT ( 'NONE', #347 ) ;
#14 = TOROIDAL_SURFACE ( 'NONE', #274, 4.500000000000000888, 0.5000000000000000000 ) ;
#15 = PERSON_AND_ORGANIZATION_ROLE ( 'design_owner' ) ;
#16 = ADVANCED_FACE ( 'NONE', ( #83 ), #151, .T. ) ;
#17 = ORIENTED_EDGE ( 'NONE', *, *, #207, .T. ) ;
#18 = VERTEX_POINT ( 'NONE', #254 ) ;
#19 = PERSON_AND_ORGANIZATION ( #250, #10 ) ;
#20 = ORIENTED_EDGE ( 'NONE', *, *, #100, .T. ) ;
#21 = EDGE_CURVE ( 'NONE', #13, #339, #80, .T. ) ;
#22 = AXIS2_PLACEMENT_3D ( 'NONE', #372, #376, #50 ) ;
#23 = CYLINDRICAL_SURFACE ( 'NONE', #128, 7.000000000000000000 ) ;
#24 = CYLINDRICAL_SURFACE ( 'NONE', #117, 2.000000000000000000 ) ;
#25 = SHAPE_DEFINITION_REPRESENTATION ( #137, #86 ) ;
#26 = CYLINDRICAL_SURFACE ( 'NONE', #300, 2.000000000000000000 ) ;
#27 = COORDINATED_UNIVERSAL_TIME_OFFSET ( 1, 0, .AHEAD. ) ;
#28 = DIRECTION ( 'NONE',  ( -1.000000000000000000, 0.000000000000000000, 0.000000000000000000 ) ) ;
#29 = CARTESIAN_POINT ( 'NONE',  ( 0.000000000000000000, 0.000000000000000000, 5.000000000000000000 ) ) ;
#30 = DIRECTION ( 'NONE',  ( 1.000000000000000000, 0.000000000000000000, 0.000000000000000000 ) ) ;
#31 = EDGE_CURVE ( 'NONE', #101, #171, #315, .T. ) ;
#32 = CARTESIAN_POINT ( 'NONE',  ( 0.000000000000000000, 0.000000000000000000, 355.0000000000000000 ) ) ;
#33 = CARTESIAN_POINT ( 'NONE',  ( -2.000000000000000000, 0.000000000000000000, 355.0000000000000000 ) ) ;
#34 = CARTESIAN_POINT ( 'NONE',  ( 4.000000000000000000, 4.898587196589412829E-16, 5.500000000000005329 ) ) ;
#35 = AXIS2_PLACEMENT_3D ( 'NONE', #178, #374, #287 ) ;
#36 = DIRECTION ( 'NONE',  ( -0.000000000000000000, -0.000000000000000000, -1.000000000000000000 ) ) ;
#37 = PERSON_AND_ORGANIZATION ( #250, #10 ) ;
#38 = EDGE_LOOP ( 'NONE', ( #242, #357 ) ) ;
#39 = LOCAL_TIME ( 17, 31, 0.000000000000000000, #272 ) ;
#40 = CC_DESIGN_PERSON_AND_ORGANIZATION_ASSIGNMENT ( #19, #249, ( #292 ) ) ;
#41 = VERTEX_POINT ( 'NONE', #225 ) ;
#42 = ORIENTED_EDGE ( 'NONE', *, *, #147, .T. ) ;
#43 = COORDINATED_UNIVERSAL_TIME_OFFSET ( 1, 0, .AHEAD. ) ;
#44 = CC_DESIGN_DATE_AND_TIME_ASSIGNMENT ( #189, #110, ( #292 ) ) ;
#45 = ORIENTED_EDGE ( 'NONE', *, *, #81, .T. ) ;
#46 = DATE_AND_TIME ( #230, #142 ) ;
#47 = EDGE_LOOP ( 'NONE', ( #363, #337, #248, #332 ) ) ;
#48 = PERSON_AND_ORGANIZATION ( #250, #10 ) ;
#49 = CARTESIAN_POINT ( 'NONE',  ( 0.000000000000000000, 0.000000000000000000, 355.0000000000000000 ) ) ;
#50 = DIRECTION ( 'NONE',  ( 1.000000000000000000, 0.000000000000000000, 0.000000000000000000 ) ) ;
#51 = CARTESIAN_POINT ( 'NONE',  ( 0.000000000000000000, 0.000000000000000000, 0.000000000000000000 ) ) ;
#52 = FACE_OUTER_BOUND ( 'NONE', #335, .T. ) ;
#53 = DIRECTION ( 'NONE',  ( 1.000000000000000000, 0.000000000000000000, 0.000000000000000000 ) ) ;
#54 = EDGE_CURVE ( 'NONE', #203, #282, #354, .T. ) ;
#55 = FACE_BOUND ( 'NONE', #162, .T. ) ;
#56 = CC_DESIGN_APPROVAL ( #216, ( #358 ) ) ;
#57 = ORIENTED_EDGE ( 'NONE', *, *, #228, .T. ) ;
#58 = DIRECTION ( 'NONE',  ( -1.000000000000000000, 0.000000000000000000, 0.000000000000000000 ) ) ;
#59 = EDGE_CURVE ( 'NONE', #13, #18, #190, .T. ) ;
#60 = FACE_OUTER_BOUND ( 'NONE', #218, .T. ) ;
#61 = LINE ( 'NONE', #131, #11 ) ;
#62 = AXIS2_PLACEMENT_3D ( 'NONE', #275, #143, #219 ) ;
#63 = CIRCLE ( 'NONE', #255, 4.500000000000000888 ) ;
#64 = DIRECTION ( 'NONE',  ( -0.000000000000000000, -0.000000000000000000, -1.000000000000000000 ) ) ;
#65 = AXIS2_PLACEMENT_3D ( 'NONE', #29, #252, #149 ) ;
#66 =( NAMED_UNIT ( * ) PLANE_ANGLE_UNIT ( ) SI_UNIT ( $, .RADIAN. ) );
#67 = VERTEX_POINT ( 'NONE', #182 ) ;
#68 = EDGE_CURVE ( 'NONE', #223, #101, #175, .T. ) ;
#69 = VERTEX_POINT ( 'NONE', #116 ) ;
#70 = AXIS2_PLACEMENT_3D ( 'NONE', #124, #328, #187 ) ;
#71 = APPROVAL_ROLE ( '' ) ;
#72 = ORIENTED_EDGE ( 'NONE', *, *, #263, .T. ) ;
#73 = EDGE_CURVE ( 'NONE', #244, #171, #283, .T. ) ;
#74 = DIRECTION ( 'NONE',  ( 0.000000000000000000, 0.000000000000000000, 1.000000000000000000 ) ) ;
#75 = ORIENTED_EDGE ( 'NONE', *, *, #100, .F. ) ;
#76 = ORIENTED_EDGE ( 'NONE', *, *, #107, .T. ) ;
#77 = AXIS2_PLACEMENT_3D ( 'NONE', #186, #209, #208 ) ;
#78 = DIRECTION ( 'NONE',  ( 1.000000000000000000, 0.000000000000000000, 0.000000000000000000 ) ) ;
#79 = SECURITY_CLASSIFICATION_LEVEL ( 'unclassified' ) ;
#80 = LINE ( 'NONE', #177, #145 ) ;
#81 = EDGE_CURVE ( 'NONE', #69, #67, #381, .T. ) ;
#82 = APPROVAL_DATE_TIME ( #373, #267 ) ;
#83 = FACE_OUTER_BOUND ( 'NONE', #227, .T. ) ;
#84 = DIRECTION ( 'NONE',  ( -0.000000000000000000, -0.000000000000000000, -1.000000000000000000 ) ) ;
#85 = EDGE_CURVE ( 'NONE', #133, #41, #112, .T. ) ;
#86 = ADVANCED_BREP_SHAPE_REPRESENTATION ( '3976', ( #87, #62 ), #159 ) ;
#87 = MANIFOLD_SOLID_BREP ( 'Odebrat vysunutím3', #7 ) ;
#88 = DIRECTION ( 'NONE',  ( -1.000000000000000000, 1.224646799147351482E-16, 0.000000000000000000 ) ) ;
#89 = DIRECTION ( 'NONE',  ( 1.000000000000000000, 0.000000000000000000, 0.000000000000000000 ) ) ;
#90 = EDGE_LOOP ( 'NONE', ( #281, #196, #102, #75 ) ) ;
#91 = DIRECTION ( 'NONE',  ( 0.000000000000000000, 0.000000000000000000, 1.000000000000000000 ) ) ;
#92 = AXIS2_PLACEMENT_3D ( 'NONE', #32, #320, #94 ) ;
#93 = ADVANCED_FACE ( 'NONE', ( #202 ), #23, .T. ) ;
#94 = DIRECTION ( 'NONE',  ( 1.000000000000000000, 0.000000000000000000, 0.000000000000000000 ) ) ;
#95 = VECTOR ( 'NONE', #341, 1000.000000000000000 ) ;
#96 = FACE_OUTER_BOUND ( 'NONE', #105, .T. ) ;
#97 = CARTESIAN_POINT ( 'NONE',  ( -7.000000000000000000, 0.000000000000000000, 5.000000000000000000 ) ) ;
#98 = CIRCLE ( 'NONE', #92, 2.000000000000000000 ) ;
#99 = APPROVAL_ROLE ( '' ) ;
#100 = EDGE_CURVE ( 'NONE', #339, #141, #262, .T. ) ;
#101 = VERTEX_POINT ( 'NONE', #114 ) ;
#102 = ORIENTED_EDGE ( 'NONE', *, *, #207, .F. ) ;
#103 = DIRECTION ( 'NONE',  ( 0.000000000000000000, 0.000000000000000000, 1.000000000000000000 ) ) ;
#104 = PRODUCT ( '3976', '3976', '', ( #302 ) ) ;
#105 = EDGE_LOOP ( 'NONE', ( #311, #198, #76, #220 ) ) ;
#106 = CIRCLE ( 'NONE', #241, 2.000000000000000000 ) ;
#107 = EDGE_CURVE ( 'NONE', #339, #203, #247, .T. ) ;
#108 = APPROVAL_PERSON_ORGANIZATION ( #301, #267, #99 ) ;
#109 = ORIENTED_EDGE ( 'NONE', *, *, #237, .T. ) ;
#110 = DATE_TIME_ROLE ( 'creation_date' ) ;
#111 = ORIENTED_EDGE ( 'NONE', *, *, #54, .F. ) ;
#112 = CIRCLE ( 'NONE', #212, 2.000000000000000000 ) ;
#113 = CALENDAR_DATE ( 2022, 8, 7 ) ;
#114 = CARTESIAN_POINT ( 'NONE',  ( 7.000000000000000000, 8.572527594031473190E-16, 5.000000000000000000 ) ) ;
#115 = ADVANCED_FACE ( 'NONE', ( #344, #52 ), #229, .F. ) ;
#116 = CARTESIAN_POINT ( 'NONE',  ( -2.000000000000000000, 0.000000000000000000, 0.000000000000000000 ) ) ;
#117 = AXIS2_PLACEMENT_3D ( 'NONE', #49, #316, #343 ) ;
#118 = CARTESIAN_POINT ( 'NONE',  ( 0.000000000000000000, 0.000000000000000000, 0.000000000000000000 ) ) ;
#119 = CARTESIAN_POINT ( 'NONE',  ( 0.000000000000000000, 0.000000000000000000, 355.0000000000000000 ) ) ;
#120 = CC_DESIGN_APPROVAL ( #267, ( #180 ) ) ;
#121 = AXIS2_PLACEMENT_3D ( 'NONE', #266, #239, #238 ) ;
#122 = DIRECTION ( 'NONE',  ( 0.000000000000000000, 0.000000000000000000, -1.000000000000000000 ) ) ;
#123 = AXIS2_PLACEMENT_3D ( 'NONE', #231, #184, #53 ) ;
#124 = CARTESIAN_POINT ( 'NONE',  ( 0.000000000000000000, 0.000000000000000000, 5.000000000000000000 ) ) ;
#125 = APPLICATION_CONTEXT ( 'configuration controlled 3d designs of mechanical parts and assemblies' ) ;
#126 = DIRECTION ( 'NONE',  ( 0.000000000000000000, 0.000000000000000000, 1.000000000000000000 ) ) ;
#127 = LINE ( 'NONE', #5, #379 ) ;
#128 = AXIS2_PLACEMENT_3D ( 'NONE', #377, #84, #146 ) ;
#129 = EDGE_CURVE ( 'NONE', #67, #69, #106, .T. ) ;
#130 = CARTESIAN_POINT ( 'NONE',  ( 4.500000000000000888, 0.000000000000000000, 5.000000000000002665 ) ) ;
#131 = CARTESIAN_POINT ( 'NONE',  ( -2.000000000000000000, 0.000000000000000000, 355.0000000000000000 ) ) ;
#132 = APPLICATION_CONTEXT ( 'configuration controlled 3d designs of mechanical parts and assemblies' ) ;
#133 = VERTEX_POINT ( 'NONE', #33 ) ;
#134 = APPROVAL_PERSON_ORGANIZATION ( #150, #216, #173 ) ;
#135 = AXIS2_PLACEMENT_3D ( 'NONE', #299, #297, #30 ) ;
#136 = ORIENTED_EDGE ( 'NONE', *, *, #31, .F. ) ;
#137 = PRODUCT_DEFINITION_SHAPE ( 'NONE', 'NONE',  #292 ) ;
#138 = CC_DESIGN_PERSON_AND_ORGANIZATION_ASSIGNMENT ( #304, #15, ( #104 ) ) ;
#139 = ORIENTED_EDGE ( 'NONE', *, *, #270, .F. ) ;
#140 = CARTESIAN_POINT ( 'NONE',  ( 0.000000000000000000, 0.000000000000000000, 355.0000000000000000 ) ) ;
#141 = VERTEX_POINT ( 'NONE', #130 ) ;
#142 = LOCAL_TIME ( 17, 31, 0.000000000000000000, #27 ) ;
#143 = DIRECTION ( 'NONE',  ( 0.000000000000000000, 0.000000000000000000, 1.000000000000000000 ) ) ;
#144 = EDGE_LOOP ( 'NONE', ( #215, #306 ) ) ;
#145 = VECTOR ( 'NONE', #313, 1000.000000000000000 ) ;
#146 = DIRECTION ( 'NONE',  ( -1.000000000000000000, 0.000000000000000000, 0.000000000000000000 ) ) ;
#147 = EDGE_CURVE ( 'NONE', #282, #141, #63, .T. ) ;
#148 = DIRECTION ( 'NONE',  ( -1.000000000000000000, 0.000000000000000000, 0.000000000000000000 ) ) ;
#149 = DIRECTION ( 'NONE',  ( 1.000000000000000000, 0.000000000000000000, 0.000000000000000000 ) ) ;
#150 = PERSON_AND_ORGANIZATION ( #250, #10 ) ;
#151 = CYLINDRICAL_SURFACE ( 'NONE', #324, 4.000000000000000000 ) ;
#152 = DIRECTION ( 'NONE',  ( -0.000000000000000000, -0.000000000000000000, -1.000000000000000000 ) ) ;
#153 = CARTESIAN_POINT ( 'NONE',  ( -4.500000000000000888, 5.510910596163088569E-16, 5.000000000000002665 ) ) ;
#154 = DIRECTION ( 'NONE',  ( 1.000000000000000000, 0.000000000000000000, 0.000000000000000000 ) ) ;
#155 = UNCERTAINTY_MEASURE_WITH_UNIT (LENGTH_MEASURE( 1.000000000000000082E-05 ), #193, 'distance_accuracy_value', 'NONE');
#156 = ADVANCED_FACE ( 'NONE', ( #96 ), #268, .T. ) ;
#157 = DIRECTION ( 'NONE',  ( 1.000000000000000000, 0.000000000000000000, 0.000000000000000000 ) ) ;
#158 = LINE ( 'NONE', #293, #4 ) ;
#159 =( GEOMETRIC_REPRESENTATION_CONTEXT ( 3 ) GLOBAL_UNCERTAINTY_ASSIGNED_CONTEXT ( ( #155 ) ) GLOBAL_UNIT_ASSIGNED_CONTEXT ( ( #193, #66, #364 ) ) REPRESENTATION_CONTEXT ( 'NONE', 'WORKASPACE' ) );
#160 = LINE ( 'NONE', #236, #340 ) ;
#161 = EDGE_CURVE ( 'NONE', #41, #67, #158, .T. ) ;
#162 = EDGE_LOOP ( 'NONE', ( #17, #42 ) ) ;
#163 = COORDINATED_UNIVERSAL_TIME_OFFSET ( 1, 0, .AHEAD. ) ;
#164 = ORIENTED_EDGE ( 'NONE', *, *, #221, .T. ) ;
#165 = CIRCLE ( 'NONE', #70, 7.000000000000000000 ) ;
#166 = ADVANCED_FACE ( 'NONE', ( #349 ), #333, .F. ) ;
#167 = CARTESIAN_POINT ( 'NONE',  ( 0.000000000000000000, 0.000000000000000000, 355.0000000000000000 ) ) ;
#168 = EDGE_LOOP ( 'NONE', ( #269, #169 ) ) ;
#169 = ORIENTED_EDGE ( 'NONE', *, *, #129, .F. ) ;
#170 = DATE_AND_TIME ( #330, #321 ) ;
#171 = VERTEX_POINT ( 'NONE', #296 ) ;
#172 = AXIS2_PLACEMENT_3D ( 'NONE', #8, #298, #154 ) ;
#173 = APPROVAL_ROLE ( '' ) ;
#174 = ORIENTED_EDGE ( 'NONE', *, *, #161, .F. ) ;
#175 = CIRCLE ( 'NONE', #65, 7.000000000000000000 ) ;
#176 = PERSON_AND_ORGANIZATION_ROLE ( 'classification_officer' ) ;
#177 = CARTESIAN_POINT ( 'NONE',  ( 4.000000000000000000, 4.898587196589412829E-16, 355.0000000000000000 ) ) ;
#178 = CARTESIAN_POINT ( 'NONE',  ( 4.500000000000000888, 0.000000000000000000, 5.500000000000005329 ) ) ;
#179 = AXIS2_PLACEMENT_3D ( 'NONE', #380, #36, #58 ) ;
#180 = PRODUCT_DEFINITION_FORMATION_WITH_SPECIFIED_SOURCE ( 'LIBOVOLNÝ', '', #104, .NOT_KNOWN. ) ;
#181 = EDGE_CURVE ( 'NONE', #41, #133, #98, .T. ) ;
#182 = CARTESIAN_POINT ( 'NONE',  ( 2.000000000000000000, 2.449293598294706414E-16, 0.000000000000000000 ) ) ;
#183 = DIRECTION ( 'NONE',  ( 0.000000000000000000, 0.000000000000000000, 1.000000000000000000 ) ) ;
#184 = DIRECTION ( 'NONE',  ( 0.000000000000000000, 0.000000000000000000, 1.000000000000000000 ) ) ;
#185 = APPROVAL_PERSON_ORGANIZATION ( #37, #323, #71 ) ;
#186 = CARTESIAN_POINT ( 'NONE',  ( 0.000000000000000000, 0.000000000000000000, 5.000000000000000000 ) ) ;
#187 = DIRECTION ( 'NONE',  ( 1.000000000000000000, 0.000000000000000000, 0.000000000000000000 ) ) ;
#188 = DIRECTION ( 'NONE',  ( 0.000000000000000000, 0.000000000000000000, -1.000000000000000000 ) ) ;
#189 = DATE_AND_TIME ( #366, #371 ) ;
#190 = CIRCLE ( 'NONE', #22, 4.000000000000000000 ) ;
#191 = FACE_OUTER_BOUND ( 'NONE', #90, .T. ) ;
#192 = EDGE_LOOP ( 'NONE', ( #111, #195, #20, #309 ) ) ;
#193 =( LENGTH_UNIT ( ) NAMED_UNIT ( * ) SI_UNIT ( .MILLI., .METRE. ) );
#194 = ORIENTED_EDGE ( 'NONE', *, *, #21, .F. ) ;
#195 = ORIENTED_EDGE ( 'NONE', *, *, #107, .F. ) ;
#196 = ORIENTED_EDGE ( 'NONE', *, *, #54, .T. ) ;
#197 = ADVANCED_FACE ( 'NONE', ( #55, #356 ), #210, .T. ) ;
#198 = ORIENTED_EDGE ( 'NONE', *, *, #21, .T. ) ;
#199 = AXIS2_PLACEMENT_3D ( 'NONE', #204, #318, #258 ) ;
#200 = DIRECTION ( 'NONE',  ( -0.000000000000000000, -0.000000000000000000, -1.000000000000000000 ) ) ;
#201 = CALENDAR_DATE ( 2022, 8, 7 ) ;
#202 = FACE_OUTER_BOUND ( 'NONE', #278, .T. ) ;
#203 = VERTEX_POINT ( 'NONE', #325 ) ;
#204 = CARTESIAN_POINT ( 'NONE',  ( 0.000000000000000000, 0.000000000000000000, 5.500000000000005329 ) ) ;
#205 = DIRECTION ( 'NONE',  ( 1.224646799147353207E-16, 1.000000000000000000, -0.000000000000000000 ) ) ;
#206 = CARTESIAN_POINT ( 'NONE',  ( 0.000000000000000000, 0.000000000000000000, 5.000000000000000000 ) ) ;
#207 = EDGE_CURVE ( 'NONE', #141, #282, #327, .T. ) ;
#208 = DIRECTION ( 'NONE',  ( 1.000000000000000000, 0.000000000000000000, 0.000000000000000000 ) ) ;
#209 = DIRECTION ( 'NONE',  ( -0.000000000000000000, -0.000000000000000000, -1.000000000000000000 ) ) ;
#210 = PLANE ( 'NONE',  #280 ) ;
#211 = DIRECTION ( 'NONE',  ( -0.000000000000000000, -0.000000000000000000, -1.000000000000000000 ) ) ;
#212 = AXIS2_PLACEMENT_3D ( 'NONE', #290, #346, #369 ) ;
#213 = AXIS2_PLACEMENT_3D ( 'NONE', #118, #152, #78 ) ;
#214 = EDGE_LOOP ( 'NONE', ( #273, #72 ) ) ;
#215 = ORIENTED_EDGE ( 'NONE', *, *, #85, .F. ) ;
#216 = APPROVAL ( #259, 'NEURÈENÝ' ) ;
#217 = FACE_OUTER_BOUND ( 'NONE', #38, .T. ) ;
#218 = EDGE_LOOP ( 'NONE', ( #276, #360, #308, #245 ) ) ;
#219 = DIRECTION ( 'NONE',  ( 1.000000000000000000, 0.000000000000000000, 0.000000000000000000 ) ) ;
#220 = ORIENTED_EDGE ( 'NONE', *, *, #234, .F. ) ;
#221 = EDGE_CURVE ( 'NONE', #203, #339, #305, .T. ) ;
#222 = APPROVAL_STATUS ( 'not_yet_approved' ) ;
#223 = VERTEX_POINT ( 'NONE', #97 ) ;
#224 = APPROVAL_DATE_TIME ( #253, #216 ) ;
#225 = CARTESIAN_POINT ( 'NONE',  ( 2.000000000000000000, 2.449293598294706414E-16, 355.0000000000000000 ) ) ;
#226 = AXIS2_PLACEMENT_3D ( 'NONE', #326, #126, #2 ) ;
#227 = EDGE_LOOP ( 'NONE', ( #194, #367, #350, #164 ) ) ;
#228 = EDGE_CURVE ( 'NONE', #223, #244, #127, .T. ) ;
#229 = PLANE ( 'NONE',  #232 ) ;
#230 = CALENDAR_DATE ( 2022, 8, 7 ) ;
#231 = CARTESIAN_POINT ( 'NONE',  ( 0.000000000000000000, 0.000000000000000000, 0.000000000000000000 ) ) ;
#232 = AXIS2_PLACEMENT_3D ( 'NONE', #51, #183, #291 ) ;
#233 = CARTESIAN_POINT ( 'NONE',  ( 0.000000000000000000, 0.000000000000000000, 355.0000000000000000 ) ) ;
#234 = EDGE_CURVE ( 'NONE', #18, #203, #160, .T. ) ;
#235 = CARTESIAN_POINT ( 'NONE',  ( -7.000000000000000000, 0.000000000000000000, 0.000000000000000000 ) ) ;
#236 = CARTESIAN_POINT ( 'NONE',  ( -4.000000000000000000, 0.000000000000000000, 355.0000000000000000 ) ) ;
#237 = EDGE_CURVE ( 'NONE', #133, #69, #61, .T. ) ;
#238 = DIRECTION ( 'NONE',  ( -1.000000000000000000, 0.000000000000000000, 0.000000000000000000 ) ) ;
#239 = DIRECTION ( 'NONE',  ( -0.000000000000000000, -0.000000000000000000, -1.000000000000000000 ) ) ;
#240 = APPROVAL_STATUS ( 'not_yet_approved' ) ;
#241 = AXIS2_PLACEMENT_3D ( 'NONE', #264, #211, #89 ) ;
#242 = ORIENTED_EDGE ( 'NONE', *, *, #345, .T. ) ;
#243 = FACE_BOUND ( 'NONE', #144, .T. ) ;
#244 = VERTEX_POINT ( 'NONE', #235 ) ;
#245 = ORIENTED_EDGE ( 'NONE', *, *, #228, .F. ) ;
#246 = DIRECTION ( 'NONE',  ( 1.000000000000000000, 0.000000000000000000, -0.000000000000000000 ) ) ;
#247 = CIRCLE ( 'NONE', #199, 4.000000000000000000 ) ;
#248 = ORIENTED_EDGE ( 'NONE', *, *, #129, .T. ) ;
#249 = PERSON_AND_ORGANIZATION_ROLE ( 'creator' ) ;
#250 = PERSON ( 'NEURÈENÝ', 'NEURÈENÝ', 'NEURÈENÝ', ('NEURÈENÝ'), ('NEURÈENÝ'), ('NEURÈENÝ') ) ;
#251 = ORIENTED_EDGE ( 'NONE', *, *, #73, .T. ) ;
#252 = DIRECTION ( 'NONE',  ( 0.000000000000000000, 0.000000000000000000, 1.000000000000000000 ) ) ;
#253 = DATE_AND_TIME ( #201, #334 ) ;
#254 = CARTESIAN_POINT ( 'NONE',  ( -4.000000000000000000, 0.000000000000000000, 355.0000000000000000 ) ) ;
#255 = AXIS2_PLACEMENT_3D ( 'NONE', #206, #64, #157 ) ;
#256 = AXIS2_PLACEMENT_3D ( 'NONE', #167, #74, #246 ) ;
#257 = CC_DESIGN_PERSON_AND_ORGANIZATION_ASSIGNMENT ( #310, #176, ( #358 ) ) ;
#258 = DIRECTION ( 'NONE',  ( 1.000000000000000000, 0.000000000000000000, 0.000000000000000000 ) ) ;
#259 = APPROVAL_STATUS ( 'not_yet_approved' ) ;
#260 = CARTESIAN_POINT ( 'NONE',  ( 7.000000000000000000, 8.572527594031473190E-16, 5.000000000000000000 ) ) ;
#261 = FACE_OUTER_BOUND ( 'NONE', #331, .T. ) ;
#262 = CIRCLE ( 'NONE', #35, 0.5000000000000004441 ) ;
#263 = EDGE_CURVE ( 'NONE', #101, #223, #165, .T. ) ;
#264 = CARTESIAN_POINT ( 'NONE',  ( 0.000000000000000000, 0.000000000000000000, 0.000000000000000000 ) ) ;
#265 = DIRECTION ( 'NONE',  ( -0.000000000000000000, -0.000000000000000000, -1.000000000000000000 ) ) ;
#266 = CARTESIAN_POINT ( 'NONE',  ( 0.000000000000000000, 0.000000000000000000, 355.0000000000000000 ) ) ;
#267 = APPROVAL ( #240, 'NEURÈENÝ' ) ;
#268 = CYLINDRICAL_SURFACE ( 'NONE', #121, 4.000000000000000000 ) ;
#269 = ORIENTED_EDGE ( 'NONE', *, *, #81, .F. ) ;
#270 = EDGE_CURVE ( 'NONE', #171, #244, #294, .T. ) ;
#271 = CC_DESIGN_SECURITY_CLASSIFICATION ( #358, ( #180 ) ) ;
#272 = COORDINATED_UNIVERSAL_TIME_OFFSET ( 1, 0, .AHEAD. ) ;
#273 = ORIENTED_EDGE ( 'NONE', *, *, #68, .T. ) ;
#274 = AXIS2_PLACEMENT_3D ( 'NONE', #362, #12, #359 ) ;
#275 = CARTESIAN_POINT ( 'NONE',  ( 0.000000000000000000, 0.000000000000000000, 0.000000000000000000 ) ) ;
#276 = ORIENTED_EDGE ( 'NONE', *, *, #263, .F. ) ;
#277 = APPLICATION_PROTOCOL_DEFINITION ( 'international standard', 'config_control_design', 1994, #125 ) ;
#278 = EDGE_LOOP ( 'NONE', ( #136, #361, #57, #251 ) ) ;
#279 = APPROVAL_DATE_TIME ( #170, #323 ) ;
#280 = AXIS2_PLACEMENT_3D ( 'NONE', #351, #91, #3 ) ;
#281 = ORIENTED_EDGE ( 'NONE', *, *, #221, .F. ) ;
#282 = VERTEX_POINT ( 'NONE', #153 ) ;
#283 = CIRCLE ( 'NONE', #123, 7.000000000000000000 ) ;
#284 = COORDINATED_UNIVERSAL_TIME_OFFSET ( 1, 0, .AHEAD. ) ;
#285 = CARTESIAN_POINT ( 'NONE',  ( -4.500000000000000888, 5.510910596163089556E-16, 5.500000000000005329 ) ) ;
#286 = ADVANCED_FACE ( 'NONE', ( #60 ), #353, .T. ) ;
#287 = DIRECTION ( 'NONE',  ( 0.000000000000000000, 0.000000000000000000, -1.000000000000000000 ) ) ;
#288 = CIRCLE ( 'NONE', #312, 4.000000000000000000 ) ;
#289 = PERSON_AND_ORGANIZATION_ROLE ( 'creator' ) ;
#290 = CARTESIAN_POINT ( 'NONE',  ( 0.000000000000000000, 0.000000000000000000, 355.0000000000000000 ) ) ;
#291 = DIRECTION ( 'NONE',  ( 1.000000000000000000, 0.000000000000000000, -0.000000000000000000 ) ) ;
#292 = PRODUCT_DEFINITION ( 'NEZNÁMÝ', '', #180, #295 ) ;
#293 = CARTESIAN_POINT ( 'NONE',  ( 2.000000000000000000, 2.449293598294706414E-16, 355.0000000000000000 ) ) ;
#294 = CIRCLE ( 'NONE', #135, 7.000000000000000000 ) ;
#295 = DESIGN_CONTEXT ( 'detailed design', #132, 'design' ) ;
#296 = CARTESIAN_POINT ( 'NONE',  ( 7.000000000000000000, 8.572527594031473190E-16, 0.000000000000000000 ) ) ;
#297 = DIRECTION ( 'NONE',  ( 0.000000000000000000, 0.000000000000000000, 1.000000000000000000 ) ) ;
#298 = DIRECTION ( 'NONE',  ( 0.000000000000000000, 0.000000000000000000, 1.000000000000000000 ) ) ;
#299 = CARTESIAN_POINT ( 'NONE',  ( 0.000000000000000000, 0.000000000000000000, 0.000000000000000000 ) ) ;
#300 = AXIS2_PLACEMENT_3D ( 'NONE', #233, #122, #28 ) ;
#301 = PERSON_AND_ORGANIZATION ( #250, #10 ) ;
#302 = MECHANICAL_CONTEXT ( 'NONE', #125, 'mechanical' ) ;
#303 = ORIENTED_EDGE ( 'NONE', *, *, #181, .T. ) ;
#304 = PERSON_AND_ORGANIZATION ( #250, #10 ) ;
#305 = CIRCLE ( 'NONE', #172, 4.000000000000000000 ) ;
#306 = ORIENTED_EDGE ( 'NONE', *, *, #181, .F. ) ;
#307 = CC_DESIGN_DATE_AND_TIME_ASSIGNMENT ( #46, #368, ( #358 ) ) ;
#308 = ORIENTED_EDGE ( 'NONE', *, *, #270, .T. ) ;
#309 = ORIENTED_EDGE ( 'NONE', *, *, #147, .F. ) ;
#310 = PERSON_AND_ORGANIZATION ( #250, #10 ) ;
#311 = ORIENTED_EDGE ( 'NONE', *, *, #59, .F. ) ;
#312 = AXIS2_PLACEMENT_3D ( 'NONE', #140, #103, #336 ) ;
#313 = DIRECTION ( 'NONE',  ( -0.000000000000000000, -0.000000000000000000, -1.000000000000000000 ) ) ;
#314 = CC_DESIGN_PERSON_AND_ORGANIZATION_ASSIGNMENT ( #370, #289, ( #180 ) ) ;
#315 = LINE ( 'NONE', #260, #95 ) ;
#316 = DIRECTION ( 'NONE',  ( 0.000000000000000000, 0.000000000000000000, -1.000000000000000000 ) ) ;
#317 = CC_DESIGN_PERSON_AND_ORGANIZATION_ASSIGNMENT ( #48, #342, ( #180 ) ) ;
#318 = DIRECTION ( 'NONE',  ( 0.000000000000000000, 0.000000000000000000, 1.000000000000000000 ) ) ;
#319 = FACE_OUTER_BOUND ( 'NONE', #47, .T. ) ;
#320 = DIRECTION ( 'NONE',  ( 0.000000000000000000, 0.000000000000000000, 1.000000000000000000 ) ) ;
#321 = LOCAL_TIME ( 17, 31, 0.000000000000000000, #43 ) ;
#322 = DIRECTION ( 'NONE',  ( -0.000000000000000000, -0.000000000000000000, -1.000000000000000000 ) ) ;
#323 = APPROVAL ( #222, 'NEURÈENÝ' ) ;
#324 = AXIS2_PLACEMENT_3D ( 'NONE', #119, #200, #148 ) ;
#325 = CARTESIAN_POINT ( 'NONE',  ( -4.000000000000000000, 0.000000000000000000, 5.500000000000005329 ) ) ;
#326 = CARTESIAN_POINT ( 'NONE',  ( 0.000000000000000000, 0.000000000000000000, 5.500000000000005329 ) ) ;
#327 = CIRCLE ( 'NONE', #77, 4.500000000000000888 ) ;
#328 = DIRECTION ( 'NONE',  ( 0.000000000000000000, 0.000000000000000000, 1.000000000000000000 ) ) ;
#329 = PRODUCT_RELATED_PRODUCT_CATEGORY ( 'detail', '', ( #104 ) ) ;
#330 = CALENDAR_DATE ( 2022, 8, 7 ) ;
#331 = EDGE_LOOP ( 'NONE', ( #174, #303, #109, #45 ) ) ;
#332 = ORIENTED_EDGE ( 'NONE', *, *, #237, .F. ) ;
#333 = TOROIDAL_SURFACE ( 'NONE', #226, 4.500000000000000888, 0.5000000000000000000 ) ;
#334 = LOCAL_TIME ( 17, 31, 0.000000000000000000, #284 ) ;
#335 = EDGE_LOOP ( 'NONE', ( #365, #139 ) ) ;
#336 = DIRECTION ( 'NONE',  ( 1.000000000000000000, 0.000000000000000000, 0.000000000000000000 ) ) ;
#337 = ORIENTED_EDGE ( 'NONE', *, *, #161, .T. ) ;
#338 = PLANE ( 'NONE',  #256 ) ;
#339 = VERTEX_POINT ( 'NONE', #34 ) ;
#340 = VECTOR ( 'NONE', #322, 1000.000000000000000 ) ;
#341 = DIRECTION ( 'NONE',  ( -0.000000000000000000, -0.000000000000000000, -1.000000000000000000 ) ) ;
#342 = PERSON_AND_ORGANIZATION_ROLE ( 'design_supplier' ) ;
#343 = DIRECTION ( 'NONE',  ( -1.000000000000000000, 0.000000000000000000, 0.000000000000000000 ) ) ;
#344 = FACE_BOUND ( 'NONE', #168, .T. ) ;
#345 = EDGE_CURVE ( 'NONE', #18, #13, #288, .T. ) ;
#346 = DIRECTION ( 'NONE',  ( 0.000000000000000000, 0.000000000000000000, 1.000000000000000000 ) ) ;
#347 = CARTESIAN_POINT ( 'NONE',  ( 4.000000000000000000, 4.898587196589412829E-16, 355.0000000000000000 ) ) ;
#348 = AXIS2_PLACEMENT_3D ( 'NONE', #285, #205, #88 ) ;
#349 = FACE_OUTER_BOUND ( 'NONE', #192, .T. ) ;
#350 = ORIENTED_EDGE ( 'NONE', *, *, #234, .T. ) ;
#351 = CARTESIAN_POINT ( 'NONE',  ( 0.000000000000000000, 0.000000000000000000, 5.000000000000000000 ) ) ;
#352 = ADVANCED_FACE ( 'NONE', ( #243, #217 ), #338, .T. ) ;
#353 = CYLINDRICAL_SURFACE ( 'NONE', #179, 7.000000000000000000 ) ;
#354 = CIRCLE ( 'NONE', #348, 0.5000000000000004441 ) ;
#355 = DIRECTION ( 'NONE',  ( 0.000000000000000000, 0.000000000000000000, -1.000000000000000000 ) ) ;
#356 = FACE_OUTER_BOUND ( 'NONE', #214, .T. ) ;
#357 = ORIENTED_EDGE ( 'NONE', *, *, #59, .T. ) ;
#358 = SECURITY_CLASSIFICATION ( '', '', #79 ) ;
#359 = DIRECTION ( 'NONE',  ( 1.000000000000000000, 0.000000000000000000, 0.000000000000000000 ) ) ;
#360 = ORIENTED_EDGE ( 'NONE', *, *, #31, .T. ) ;
#361 = ORIENTED_EDGE ( 'NONE', *, *, #68, .F. ) ;
#362 = CARTESIAN_POINT ( 'NONE',  ( 0.000000000000000000, 0.000000000000000000, 5.500000000000005329 ) ) ;
#363 = ORIENTED_EDGE ( 'NONE', *, *, #85, .T. ) ;
#364 =( NAMED_UNIT ( * ) SI_UNIT ( $, .STERADIAN. ) SOLID_ANGLE_UNIT ( ) );
#365 = ORIENTED_EDGE ( 'NONE', *, *, #73, .F. ) ;
#366 = CALENDAR_DATE ( 2022, 8, 7 ) ;
#367 = ORIENTED_EDGE ( 'NONE', *, *, #345, .F. ) ;
#368 = DATE_TIME_ROLE ( 'classification_date' ) ;
#369 = DIRECTION ( 'NONE',  ( 1.000000000000000000, 0.000000000000000000, 0.000000000000000000 ) ) ;
#370 = PERSON_AND_ORGANIZATION ( #250, #10 ) ;
#371 = LOCAL_TIME ( 17, 31, 0.000000000000000000, #163 ) ;
#372 = CARTESIAN_POINT ( 'NONE',  ( 0.000000000000000000, 0.000000000000000000, 355.0000000000000000 ) ) ;
#373 = DATE_AND_TIME ( #113, #39 ) ;
#374 = DIRECTION ( 'NONE',  ( 0.000000000000000000, -1.000000000000000000, 0.000000000000000000 ) ) ;
#375 = ADVANCED_FACE ( 'NONE', ( #191 ), #14, .F. ) ;
#376 = DIRECTION ( 'NONE',  ( 0.000000000000000000, 0.000000000000000000, 1.000000000000000000 ) ) ;
#377 = CARTESIAN_POINT ( 'NONE',  ( 0.000000000000000000, 0.000000000000000000, 5.000000000000000000 ) ) ;
#378 = CC_DESIGN_APPROVAL ( #323, ( #292 ) ) ;
#379 = VECTOR ( 'NONE', #265, 1000.000000000000000 ) ;
#380 = CARTESIAN_POINT ( 'NONE',  ( 0.000000000000000000, 0.000000000000000000, 5.000000000000000000 ) ) ;
#381 = CIRCLE ( 'NONE', #213, 2.000000000000000000 ) ;
ENDSEC;
END-ISO-10303-21;
