ISO-10303-21;
HEADER;
FILE_DESCRIPTION (( 'STEP AP203' ),
    '1' );
FILE_NAME ('6921.STEP',
    '2022-07-08T15:14:25',
    ( '' ),
    ( '' ),
    'SwSTEP 2.0',
    'SolidWorks 2019',
    '' );
FILE_SCHEMA (( 'CONFIG_CONTROL_DESIGN' ));
ENDSEC;

DATA;
#1 = ADVANCED_FACE ( 'NONE', ( #377, #192 ), #346, .F. ) ;
#2 = CARTESIAN_POINT ( 'NONE',  ( 0.000000000000000000, 0.000000000000000000, 0.000000000000000000 ) ) ;
#3 = APPROVAL_DATE_TIME ( #53, #182 ) ;
#4 = PRODUCT_RELATED_PRODUCT_CATEGORY ( 'detail', '', ( #284 ) ) ;
#5 = ORIENTED_EDGE ( 'NONE', *, *, #270, .T. ) ;
#6 = DIRECTION ( 'NONE',  ( 1.000000000000000000, 0.000000000000000000, 0.000000000000000000 ) ) ;
#7 = CARTESIAN_POINT ( 'NONE',  ( 5.000000000000000000, 6.123233995736766282E-16, 805.0000000000000000 ) ) ;
#8 = DIRECTION ( 'NONE',  ( 1.000000000000000000, 0.000000000000000000, 0.000000000000000000 ) ) ;
#9 = CIRCLE ( 'NONE', #341, 0.5000000000000004441 ) ;
#10 = EDGE_CURVE ( 'NONE', #31, #43, #370, .T. ) ;
#11 = DIRECTION ( 'NONE',  ( -0.000000000000000000, -0.000000000000000000, -1.000000000000000000 ) ) ;
#12 = CC_DESIGN_PERSON_AND_ORGANIZATION_ASSIGNMENT ( #381, #234, ( #284 ) ) ;
#13 = DIRECTION ( 'NONE',  ( -0.000000000000000000, -0.000000000000000000, -1.000000000000000000 ) ) ;
#14 = AXIS2_PLACEMENT_3D ( 'NONE', #347, #345, #47 ) ;
#15 = ORIENTED_EDGE ( 'NONE', *, *, #117, .F. ) ;
#16 = EDGE_CURVE ( 'NONE', #137, #31, #259, .T. ) ;
#17 = PLANE ( 'NONE',  #325 ) ;
#18 = EDGE_LOOP ( 'NONE', ( #188, #229, #235, #308 ) ) ;
#19 = AXIS2_PLACEMENT_3D ( 'NONE', #212, #239, #8 ) ;
#20 = ORIENTED_EDGE ( 'NONE', *, *, #79, .F. ) ;
#21 = DIRECTION ( 'NONE',  ( 1.000000000000000000, 0.000000000000000000, 0.000000000000000000 ) ) ;
#22 = CARTESIAN_POINT ( 'NONE',  ( -8.000000000000000000, 0.000000000000000000, 5.000000000000000000 ) ) ;
#23 = DATE_AND_TIME ( #258, #190 ) ;
#24 = LOCAL_TIME ( 17, 14, 25.00000000000000000, #261 ) ;
#25 = ORIENTED_EDGE ( 'NONE', *, *, #202, .F. ) ;
#26 = DIRECTION ( 'NONE',  ( 1.000000000000000000, 0.000000000000000000, 0.000000000000000000 ) ) ;
#27 = CIRCLE ( 'NONE', #208, 2.500000000000000000 ) ;
#28 = APPROVAL_ROLE ( '' ) ;
#29 = DIRECTION ( 'NONE',  ( -0.000000000000000000, -0.000000000000000000, -1.000000000000000000 ) ) ;
#30 = CARTESIAN_POINT ( 'NONE',  ( 5.500000000000000000, 0.000000000000000000, 5.499999999999949374 ) ) ;
#31 = VERTEX_POINT ( 'NONE', #128 ) ;
#32 = TOROIDAL_SURFACE ( 'NONE', #170, 5.500000000000000000, 0.5000000000000000000 ) ;
#33 = AXIS2_PLACEMENT_3D ( 'NONE', #227, #356, #6 ) ;
#34 = DIRECTION ( 'NONE',  ( 0.000000000000000000, 0.000000000000000000, 1.000000000000000000 ) ) ;
#35 = VERTEX_POINT ( 'NONE', #70 ) ;
#36 = FACE_OUTER_BOUND ( 'NONE', #164, .T. ) ;
#37 = ORIENTED_EDGE ( 'NONE', *, *, #38, .T. ) ;
#38 = EDGE_CURVE ( 'NONE', #121, #161, #27, .T. ) ;
#39 = AXIS2_PLACEMENT_3D ( 'NONE', #297, #34, #89 ) ;
#40 = FACE_OUTER_BOUND ( 'NONE', #260, .T. ) ;
#41 = FACE_OUTER_BOUND ( 'NONE', #49, .T. ) ;
#42 = CIRCLE ( 'NONE', #295, 2.500000000000000000 ) ;
#43 = VERTEX_POINT ( 'NONE', #287 ) ;
#44 = DIRECTION ( 'NONE',  ( -0.000000000000000000, -0.000000000000000000, -1.000000000000000000 ) ) ;
#45 = CARTESIAN_POINT ( 'NONE',  ( 0.000000000000000000, 0.000000000000000000, 805.0000000000000000 ) ) ;
#46 = AXIS2_PLACEMENT_3D ( 'NONE', #278, #280, #95 ) ;
#47 = DIRECTION ( 'NONE',  ( 1.000000000000000000, 0.000000000000000000, 0.000000000000000000 ) ) ;
#48 = ORIENTED_EDGE ( 'NONE', *, *, #57, .T. ) ;
#49 = EDGE_LOOP ( 'NONE', ( #289, #123, #298, #197 ) ) ;
#50 = PERSON_AND_ORGANIZATION ( #249, #361 ) ;
#51 = APPROVAL ( #359, 'NEURÈENÝ' ) ;
#52 = APPROVAL_STATUS ( 'not_yet_approved' ) ;
#53 = DATE_AND_TIME ( #101, #24 ) ;
#54 = ORIENTED_EDGE ( 'NONE', *, *, #16, .F. ) ;
#55 = PERSON_AND_ORGANIZATION ( #249, #361 ) ;
#56 = CARTESIAN_POINT ( 'NONE',  ( -2.500000000000000000, 0.000000000000000000, 0.000000000000000000 ) ) ;
#57 = EDGE_CURVE ( 'NONE', #35, #43, #256, .T. ) ;
#58 = CYLINDRICAL_SURFACE ( 'NONE', #151, 5.000000000000000000 ) ;
#59 = DIRECTION ( 'NONE',  ( 0.000000000000000000, 0.000000000000000000, -1.000000000000000000 ) ) ;
#60 = ORIENTED_EDGE ( 'NONE', *, *, #143, .T. ) ;
#61 = CC_DESIGN_APPROVAL ( #154, ( #109 ) ) ;
#62 = ADVANCED_FACE ( 'NONE', ( #214, #223 ), #181, .T. ) ;
#63 = DIRECTION ( 'NONE',  ( 1.000000000000000000, 0.000000000000000000, 0.000000000000000000 ) ) ;
#64 = FACE_OUTER_BOUND ( 'NONE', #226, .T. ) ;
#65 = DIRECTION ( 'NONE',  ( -1.000000000000000000, 0.000000000000000000, 0.000000000000000000 ) ) ;
#66 =( NAMED_UNIT ( * ) SI_UNIT ( $, .STERADIAN. ) SOLID_ANGLE_UNIT ( ) );
#67 = EDGE_CURVE ( 'NONE', #161, #358, #321, .T. ) ;
#68 = CARTESIAN_POINT ( 'NONE',  ( 0.000000000000000000, 0.000000000000000000, 805.0000000000000000 ) ) ;
#69 = CARTESIAN_POINT ( 'NONE',  ( -5.000000000000000000, 0.000000000000000000, 805.0000000000000000 ) ) ;
#70 = CARTESIAN_POINT ( 'NONE',  ( 8.000000000000000000, 9.797174393178825657E-16, 5.000000000000000000 ) ) ;
#71 = ORIENTED_EDGE ( 'NONE', *, *, #202, .T. ) ;
#72 = CYLINDRICAL_SURFACE ( 'NONE', #221, 5.000000000000000000 ) ;
#73 = EDGE_CURVE ( 'NONE', #313, #130, #85, .T. ) ;
#74 = ORIENTED_EDGE ( 'NONE', *, *, #296, .T. ) ;
#75 = EDGE_LOOP ( 'NONE', ( #251, #71 ) ) ;
#76 = FACE_OUTER_BOUND ( 'NONE', #193, .T. ) ;
#77 = CARTESIAN_POINT ( 'NONE',  ( 0.000000000000000000, 0.000000000000000000, 805.0000000000000000 ) ) ;
#78 = APPLICATION_PROTOCOL_DEFINITION ( 'international standard', 'config_control_design', 1994, #230 ) ;
#79 = EDGE_CURVE ( 'NONE', #130, #371, #177, .T. ) ;
#80 = EDGE_LOOP ( 'NONE', ( #238, #5 ) ) ;
#81 = DATE_TIME_ROLE ( 'classification_date' ) ;
#82 = APPROVAL_PERSON_ORGANIZATION ( #300, #154, #28 ) ;
#83 = COORDINATED_UNIVERSAL_TIME_OFFSET ( 1, 0, .AHEAD. ) ;
#84 = DATE_TIME_ROLE ( 'creation_date' ) ;
#85 = LINE ( 'NONE', #204, #136 ) ;
#86 = DATE_AND_TIME ( #327, #277 ) ;
#87 = AXIS2_PLACEMENT_3D ( 'NONE', #97, #99, #283 ) ;
#88 = LINE ( 'NONE', #271, #198 ) ;
#89 = DIRECTION ( 'NONE',  ( 1.000000000000000000, 0.000000000000000000, 0.000000000000000000 ) ) ;
#90 = ORIENTED_EDGE ( 'NONE', *, *, #134, .F. ) ;
#91 = DIRECTION ( 'NONE',  ( 1.000000000000000000, 0.000000000000000000, 0.000000000000000000 ) ) ;
#92 = DIRECTION ( 'NONE',  ( -0.000000000000000000, -0.000000000000000000, -1.000000000000000000 ) ) ;
#93 = CC_DESIGN_PERSON_AND_ORGANIZATION_ASSIGNMENT ( #224, #330, ( #179 ) ) ;
#94 = CC_DESIGN_SECURITY_CLASSIFICATION ( #109, ( #179 ) ) ;
#95 = DIRECTION ( 'NONE',  ( 1.000000000000000000, 0.000000000000000000, 0.000000000000000000 ) ) ;
#96 = ORIENTED_EDGE ( 'NONE', *, *, #10, .F. ) ;
#97 = CARTESIAN_POINT ( 'NONE',  ( 0.000000000000000000, 0.000000000000000000, 5.000000000000000000 ) ) ;
#98 = VERTEX_POINT ( 'NONE', #56 ) ;
#99 = DIRECTION ( 'NONE',  ( -0.000000000000000000, -0.000000000000000000, -1.000000000000000000 ) ) ;
#100 = CIRCLE ( 'NONE', #19, 2.500000000000000000 ) ;
#101 = CALENDAR_DATE ( 2022, 8, 7 ) ;
#102 = DESIGN_CONTEXT ( 'detailed design', #230, 'design' ) ;
#103 = ORIENTED_EDGE ( 'NONE', *, *, #240, .T. ) ;
#104 = SECURITY_CLASSIFICATION_LEVEL ( 'unclassified' ) ;
#105 = PERSON_AND_ORGANIZATION ( #249, #361 ) ;
#106 = AXIS2_PLACEMENT_3D ( 'NONE', #114, #307, #311 ) ;
#107 = CARTESIAN_POINT ( 'NONE',  ( 0.000000000000000000, 0.000000000000000000, 805.0000000000000000 ) ) ;
#108 = COORDINATED_UNIVERSAL_TIME_OFFSET ( 1, 0, .AHEAD. ) ;
#109 = SECURITY_CLASSIFICATION ( '', '', #104 ) ;
#110 = CARTESIAN_POINT ( 'NONE',  ( 0.000000000000000000, 0.000000000000000000, 5.000000000000000000 ) ) ;
#111 = EDGE_CURVE ( 'NONE', #313, #305, #336, .T. ) ;
#112 = CYLINDRICAL_SURFACE ( 'NONE', #87, 8.000000000000000000 ) ;
#113 = ORIENTED_EDGE ( 'NONE', *, *, #38, .F. ) ;
#114 = CARTESIAN_POINT ( 'NONE',  ( 0.000000000000000000, 0.000000000000000000, 5.499999999999949374 ) ) ;
#115 = CIRCLE ( 'NONE', #46, 2.500000000000000000 ) ;
#116 = CARTESIAN_POINT ( 'NONE',  ( 0.000000000000000000, 0.000000000000000000, 805.0000000000000000 ) ) ;
#117 = EDGE_CURVE ( 'NONE', #43, #31, #365, .T. ) ;
#118 =( NAMED_UNIT ( * ) PLANE_ANGLE_UNIT ( ) SI_UNIT ( $, .RADIAN. ) );
#119 = AXIS2_PLACEMENT_3D ( 'NONE', #77, #315, #195 ) ;
#120 = DIRECTION ( 'NONE',  ( 1.000000000000000000, 0.000000000000000000, -0.000000000000000000 ) ) ;
#121 = VERTEX_POINT ( 'NONE', #331 ) ;
#122 = CIRCLE ( 'NONE', #257, 5.000000000000000000 ) ;
#123 = ORIENTED_EDGE ( 'NONE', *, *, #79, .T. ) ;
#124 = CC_DESIGN_DATE_AND_TIME_ASSIGNMENT ( #133, #84, ( #176 ) ) ;
#125 = CARTESIAN_POINT ( 'NONE',  ( 0.000000000000000000, 0.000000000000000000, 5.000000000000000000 ) ) ;
#126 = MANIFOLD_SOLID_BREP ( 'Odebrat vysunutím3', #142 ) ;
#127 = DIRECTION ( 'NONE',  ( 1.000000000000000000, 0.000000000000000000, 0.000000000000000000 ) ) ;
#128 = CARTESIAN_POINT ( 'NONE',  ( -8.000000000000000000, 0.000000000000000000, 0.000000000000000000 ) ) ;
#129 = ORIENTED_EDGE ( 'NONE', *, *, #254, .T. ) ;
#130 = VERTEX_POINT ( 'NONE', #324 ) ;
#131 =( GEOMETRIC_REPRESENTATION_CONTEXT ( 3 ) GLOBAL_UNCERTAINTY_ASSIGNED_CONTEXT ( ( #322 ) ) GLOBAL_UNIT_ASSIGNED_CONTEXT ( ( #153, #118, #66 ) ) REPRESENTATION_CONTEXT ( 'NONE', 'WORKASPACE' ) );
#132 = ORIENTED_EDGE ( 'NONE', *, *, #134, .T. ) ;
#133 = DATE_AND_TIME ( #169, #139 ) ;
#134 = EDGE_CURVE ( 'NONE', #305, #145, #299, .T. ) ;
#135 = CARTESIAN_POINT ( 'NONE',  ( -5.500000000000000000, 6.735557395310442023E-16, 5.499999999999949374 ) ) ;
#136 = VECTOR ( 'NONE', #29, 1000.000000000000000 ) ;
#137 = VERTEX_POINT ( 'NONE', #269 ) ;
#138 = APPLICATION_PROTOCOL_DEFINITION ( 'international standard', 'config_control_design', 1994, #184 ) ;
#139 = LOCAL_TIME ( 17, 14, 25.00000000000000000, #108 ) ;
#140 = SHAPE_DEFINITION_REPRESENTATION ( #217, #174 ) ;
#141 = DIRECTION ( 'NONE',  ( -0.000000000000000000, -0.000000000000000000, -1.000000000000000000 ) ) ;
#142 = CLOSED_SHELL ( 'NONE', ( #363, #196, #222, #245, #288, #302, #1, #374, #62, #215, #263 ) ) ;
#143 = EDGE_CURVE ( 'NONE', #35, #137, #344, .T. ) ;
#144 = CARTESIAN_POINT ( 'NONE',  ( 0.000000000000000000, 0.000000000000000000, 805.0000000000000000 ) ) ;
#145 = VERTEX_POINT ( 'NONE', #209 ) ;
#146 = CYLINDRICAL_SURFACE ( 'NONE', #333, 8.000000000000000000 ) ;
#147 = ORIENTED_EDGE ( 'NONE', *, *, #332, .T. ) ;
#148 = AXIS2_PLACEMENT_3D ( 'NONE', #218, #348, #293 ) ;
#149 = CARTESIAN_POINT ( 'NONE',  ( 0.000000000000000000, 0.000000000000000000, 5.499999999999949374 ) ) ;
#150 = CC_DESIGN_PERSON_AND_ORGANIZATION_ASSIGNMENT ( #105, #231, ( #176 ) ) ;
#151 = AXIS2_PLACEMENT_3D ( 'NONE', #368, #366, #276 ) ;
#152 = FACE_BOUND ( 'NONE', #80, .T. ) ;
#153 =( LENGTH_UNIT ( ) NAMED_UNIT ( * ) SI_UNIT ( .MILLI., .METRE. ) );
#154 = APPROVAL ( #205, 'NEURÈENÝ' ) ;
#155 = ORIENTED_EDGE ( 'NONE', *, *, #312, .F. ) ;
#156 = DIRECTION ( 'NONE',  ( 1.000000000000000000, 0.000000000000000000, 0.000000000000000000 ) ) ;
#157 = ORIENTED_EDGE ( 'NONE', *, *, #160, .F. ) ;
#158 = ORIENTED_EDGE ( 'NONE', *, *, #16, .T. ) ;
#159 = APPROVAL_DATE_TIME ( #23, #51 ) ;
#160 = EDGE_CURVE ( 'NONE', #121, #98, #88, .T. ) ;
#161 = VERTEX_POINT ( 'NONE', #337 ) ;
#162 = DATE_AND_TIME ( #165, #267 ) ;
#163 = AXIS2_PLACEMENT_3D ( 'NONE', #314, #220, #317 ) ;
#164 = EDGE_LOOP ( 'NONE', ( #25, #132, #74, #367 ) ) ;
#165 = CALENDAR_DATE ( 2022, 8, 7 ) ;
#166 = DIRECTION ( 'NONE',  ( -1.000000000000000000, 1.224646799147351482E-16, 0.000000000000000000 ) ) ;
#167 = PERSON_AND_ORGANIZATION_ROLE ( 'classification_officer' ) ;
#168 = DIRECTION ( 'NONE',  ( 0.000000000000000000, 0.000000000000000000, 1.000000000000000000 ) ) ;
#169 = CALENDAR_DATE ( 2022, 8, 7 ) ;
#170 = AXIS2_PLACEMENT_3D ( 'NONE', #340, #338, #63 ) ;
#171 = CARTESIAN_POINT ( 'NONE',  ( 0.000000000000000000, 0.000000000000000000, 5.000000000000000000 ) ) ;
#172 = CIRCLE ( 'NONE', #211, 5.000000000000000000 ) ;
#173 = CARTESIAN_POINT ( 'NONE',  ( 5.500000000000000000, 0.000000000000000000, 4.999999999999975131 ) ) ;
#174 = ADVANCED_BREP_SHAPE_REPRESENTATION ( '6921', ( #126, #33 ), #131 ) ;
#175 = DIRECTION ( 'NONE',  ( 0.000000000000000000, -1.000000000000000000, 0.000000000000000000 ) ) ;
#176 = PRODUCT_DEFINITION ( 'NEZNÁMÝ', '', #179, #102 ) ;
#177 = CIRCLE ( 'NONE', #281, 0.5000000000000004441 ) ;
#178 = FACE_OUTER_BOUND ( 'NONE', #268, .T. ) ;
#179 = PRODUCT_DEFINITION_FORMATION_WITH_SPECIFIED_SOURCE ( 'LIBOVOLNÝ', '', #284, .NOT_KNOWN. ) ;
#180 = ORIENTED_EDGE ( 'NONE', *, *, #279, .F. ) ;
#181 = PLANE ( 'NONE',  #119 ) ;
#182 = APPROVAL ( #52, 'NEURÈENÝ' ) ;
#183 = CARTESIAN_POINT ( 'NONE',  ( 0.000000000000000000, 0.000000000000000000, 0.000000000000000000 ) ) ;
#184 = APPLICATION_CONTEXT ( 'configuration controlled 3d designs of mechanical parts and assemblies' ) ;
#185 = AXIS2_PLACEMENT_3D ( 'NONE', #2, #168, #360 ) ;
#186 = EDGE_LOOP ( 'NONE', ( #147, #60 ) ) ;
#187 = DIRECTION ( 'NONE',  ( 0.000000000000000000, 0.000000000000000000, 1.000000000000000000 ) ) ;
#188 = ORIENTED_EDGE ( 'NONE', *, *, #67, .F. ) ;
#189 = ORIENTED_EDGE ( 'NONE', *, *, #143, .F. ) ;
#190 = LOCAL_TIME ( 17, 14, 25.00000000000000000, #83 ) ;
#191 = DIRECTION ( 'NONE',  ( -1.000000000000000000, 0.000000000000000000, 0.000000000000000000 ) ) ;
#192 = FACE_OUTER_BOUND ( 'NONE', #349, .T. ) ;
#193 = EDGE_LOOP ( 'NONE', ( #90, #354, #326, #328 ) ) ;
#194 = DIRECTION ( 'NONE',  ( -0.000000000000000000, -0.000000000000000000, -1.000000000000000000 ) ) ;
#195 = DIRECTION ( 'NONE',  ( 1.000000000000000000, 0.000000000000000000, -0.000000000000000000 ) ) ;
#196 = ADVANCED_FACE ( 'NONE', ( #41 ), #32, .F. ) ;
#197 = ORIENTED_EDGE ( 'NONE', *, *, #254, .F. ) ;
#198 = VECTOR ( 'NONE', #59, 1000.000000000000000 ) ;
#199 = APPROVAL_ROLE ( '' ) ;
#200 = CIRCLE ( 'NONE', #206, 5.500000000000000000 ) ;
#201 = CARTESIAN_POINT ( 'NONE',  ( 2.500000000000000000, 3.061616997868383141E-16, 805.0000000000000000 ) ) ;
#202 = EDGE_CURVE ( 'NONE', #305, #313, #285, .T. ) ;
#203 = COORDINATED_UNIVERSAL_TIME_OFFSET ( 1, 0, .AHEAD. ) ;
#204 = CARTESIAN_POINT ( 'NONE',  ( -5.000000000000000000, 0.000000000000000000, 805.0000000000000000 ) ) ;
#205 = APPROVAL_STATUS ( 'not_yet_approved' ) ;
#206 = AXIS2_PLACEMENT_3D ( 'NONE', #171, #11, #304 ) ;
#207 = DIRECTION ( 'NONE',  ( 0.000000000000000000, 0.000000000000000000, -1.000000000000000000 ) ) ;
#208 = AXIS2_PLACEMENT_3D ( 'NONE', #45, #380, #156 ) ;
#209 = CARTESIAN_POINT ( 'NONE',  ( 5.000000000000000000, 6.123233995736766282E-16, 5.499999999999949374 ) ) ;
#210 = ORIENTED_EDGE ( 'NONE', *, *, #10, .T. ) ;
#211 = AXIS2_PLACEMENT_3D ( 'NONE', #149, #244, #91 ) ;
#212 = CARTESIAN_POINT ( 'NONE',  ( 0.000000000000000000, 0.000000000000000000, 0.000000000000000000 ) ) ;
#213 = DIRECTION ( 'NONE',  ( 0.000000000000000000, 0.000000000000000000, 1.000000000000000000 ) ) ;
#214 = FACE_BOUND ( 'NONE', #369, .T. ) ;
#215 = ADVANCED_FACE ( 'NONE', ( #178 ), #373, .F. ) ;
#216 = CC_DESIGN_APPROVAL ( #51, ( #179 ) ) ;
#217 = PRODUCT_DEFINITION_SHAPE ( 'NONE', 'NONE',  #176 ) ;
#218 = CARTESIAN_POINT ( 'NONE',  ( 0.000000000000000000, 0.000000000000000000, 0.000000000000000000 ) ) ;
#219 = VERTEX_POINT ( 'NONE', #173 ) ;
#220 = DIRECTION ( 'NONE',  ( 0.000000000000000000, 0.000000000000000000, -1.000000000000000000 ) ) ;
#221 = AXIS2_PLACEMENT_3D ( 'NONE', #68, #194, #191 ) ;
#222 = ADVANCED_FACE ( 'NONE', ( #36 ), #58, .T. ) ;
#223 = FACE_OUTER_BOUND ( 'NONE', #75, .T. ) ;
#224 = PERSON_AND_ORGANIZATION ( #249, #361 ) ;
#225 = VECTOR ( 'NONE', #262, 1000.000000000000000 ) ;
#226 = EDGE_LOOP ( 'NONE', ( #189, #48, #310, #54 ) ) ;
#227 = CARTESIAN_POINT ( 'NONE',  ( 0.000000000000000000, 0.000000000000000000, 0.000000000000000000 ) ) ;
#228 = EDGE_CURVE ( 'NONE', #130, #145, #172, .T. ) ;
#229 = ORIENTED_EDGE ( 'NONE', *, *, #279, .T. ) ;
#230 = APPLICATION_CONTEXT ( 'configuration controlled 3d designs of mechanical parts and assemblies' ) ;
#231 = PERSON_AND_ORGANIZATION_ROLE ( 'creator' ) ;
#232 = CC_DESIGN_APPROVAL ( #182, ( #176 ) ) ;
#233 = ORIENTED_EDGE ( 'NONE', *, *, #240, .F. ) ;
#234 = PERSON_AND_ORGANIZATION_ROLE ( 'design_owner' ) ;
#235 = ORIENTED_EDGE ( 'NONE', *, *, #160, .T. ) ;
#236 = MECHANICAL_CONTEXT ( 'NONE', #184, 'mechanical' ) ;
#237 = DIRECTION ( 'NONE',  ( 1.224646799147353207E-16, 1.000000000000000000, -0.000000000000000000 ) ) ;
#238 = ORIENTED_EDGE ( 'NONE', *, *, #355, .T. ) ;
#239 = DIRECTION ( 'NONE',  ( -0.000000000000000000, -0.000000000000000000, -1.000000000000000000 ) ) ;
#240 = EDGE_CURVE ( 'NONE', #358, #98, #100, .T. ) ;
#241 = APPROVAL_PERSON_ORGANIZATION ( #353, #51, #323 ) ;
#242 = DIRECTION ( 'NONE',  ( 1.000000000000000000, 0.000000000000000000, 0.000000000000000000 ) ) ;
#243 = VECTOR ( 'NONE', #141, 1000.000000000000000 ) ;
#244 = DIRECTION ( 'NONE',  ( 0.000000000000000000, 0.000000000000000000, 1.000000000000000000 ) ) ;
#245 = ADVANCED_FACE ( 'NONE', ( #64 ), #146, .T. ) ;
#246 = FACE_OUTER_BOUND ( 'NONE', #18, .T. ) ;
#247 = CYLINDRICAL_SURFACE ( 'NONE', #163, 2.500000000000000000 ) ;
#248 = AXIS2_PLACEMENT_3D ( 'NONE', #183, #318, #290 ) ;
#249 = PERSON ( 'NEURÈENÝ', 'NEURÈENÝ', 'NEURÈENÝ', ('NEURÈENÝ'), ('NEURÈENÝ'), ('NEURÈENÝ') ) ;
#250 = CARTESIAN_POINT ( 'NONE',  ( 0.000000000000000000, 0.000000000000000000, 5.000000000000000000 ) ) ;
#251 = ORIENTED_EDGE ( 'NONE', *, *, #111, .T. ) ;
#252 = ORIENTED_EDGE ( 'NONE', *, *, #57, .F. ) ;
#253 = CARTESIAN_POINT ( 'NONE',  ( 8.000000000000000000, 9.797174393178825657E-16, 5.000000000000000000 ) ) ;
#254 = EDGE_CURVE ( 'NONE', #145, #219, #9, .T. ) ;
#255 = CARTESIAN_POINT ( 'NONE',  ( -5.500000000000000000, 6.735557395310442023E-16, 4.999999999999975131 ) ) ;
#256 = LINE ( 'NONE', #253, #357 ) ;
#257 = AXIS2_PLACEMENT_3D ( 'NONE', #343, #187, #21 ) ;
#258 = CALENDAR_DATE ( 2022, 8, 7 ) ;
#259 = LINE ( 'NONE', #22, #303 ) ;
#260 = EDGE_LOOP ( 'NONE', ( #252, #316, #158, #210 ) ) ;
#261 = COORDINATED_UNIVERSAL_TIME_OFFSET ( 1, 0, .AHEAD. ) ;
#262 = DIRECTION ( 'NONE',  ( 0.000000000000000000, 0.000000000000000000, -1.000000000000000000 ) ) ;
#263 = ADVANCED_FACE ( 'NONE', ( #246 ), #362, .F. ) ;
#264 = AXIS2_PLACEMENT_3D ( 'NONE', #107, #265, #26 ) ;
#265 = DIRECTION ( 'NONE',  ( 0.000000000000000000, 0.000000000000000000, 1.000000000000000000 ) ) ;
#266 = COORDINATED_UNIVERSAL_TIME_OFFSET ( 1, 0, .AHEAD. ) ;
#267 = LOCAL_TIME ( 17, 14, 25.00000000000000000, #266 ) ;
#268 = EDGE_LOOP ( 'NONE', ( #20, #291, #129, #364 ) ) ;
#269 = CARTESIAN_POINT ( 'NONE',  ( -8.000000000000000000, 0.000000000000000000, 5.000000000000000000 ) ) ;
#270 = EDGE_CURVE ( 'NONE', #371, #219, #200, .T. ) ;
#271 = CARTESIAN_POINT ( 'NONE',  ( -2.500000000000000000, 0.000000000000000000, 805.0000000000000000 ) ) ;
#272 = CARTESIAN_POINT ( 'NONE',  ( 0.000000000000000000, 0.000000000000000000, 805.0000000000000000 ) ) ;
#273 = CIRCLE ( 'NONE', #301, 5.500000000000000000 ) ;
#274 = DIRECTION ( 'NONE',  ( 0.000000000000000000, 0.000000000000000000, -1.000000000000000000 ) ) ;
#275 = DIRECTION ( 'NONE',  ( 1.000000000000000000, 0.000000000000000000, 0.000000000000000000 ) ) ;
#276 = DIRECTION ( 'NONE',  ( -1.000000000000000000, 0.000000000000000000, 0.000000000000000000 ) ) ;
#277 = LOCAL_TIME ( 17, 14, 25.00000000000000000, #203 ) ;
#278 = CARTESIAN_POINT ( 'NONE',  ( 0.000000000000000000, 0.000000000000000000, 0.000000000000000000 ) ) ;
#279 = EDGE_CURVE ( 'NONE', #161, #121, #42, .T. ) ;
#280 = DIRECTION ( 'NONE',  ( -0.000000000000000000, -0.000000000000000000, -1.000000000000000000 ) ) ;
#281 = AXIS2_PLACEMENT_3D ( 'NONE', #135, #237, #166 ) ;
#282 = EDGE_LOOP ( 'NONE', ( #37, #375, #103, #157 ) ) ;
#283 = DIRECTION ( 'NONE',  ( -1.000000000000000000, 0.000000000000000000, 0.000000000000000000 ) ) ;
#284 = PRODUCT ( '6921', '6921', '', ( #236 ) ) ;
#285 = CIRCLE ( 'NONE', #294, 5.000000000000000000 ) ;
#286 = FACE_OUTER_BOUND ( 'NONE', #186, .T. ) ;
#287 = CARTESIAN_POINT ( 'NONE',  ( 8.000000000000000000, 9.797174393178825657E-16, 0.000000000000000000 ) ) ;
#288 = ADVANCED_FACE ( 'NONE', ( #40 ), #112, .T. ) ;
#289 = ORIENTED_EDGE ( 'NONE', *, *, #228, .F. ) ;
#290 = DIRECTION ( 'NONE',  ( 1.000000000000000000, 0.000000000000000000, 0.000000000000000000 ) ) ;
#291 = ORIENTED_EDGE ( 'NONE', *, *, #296, .F. ) ;
#292 = PERSON_AND_ORGANIZATION_ROLE ( 'design_supplier' ) ;
#293 = DIRECTION ( 'NONE',  ( 1.000000000000000000, 0.000000000000000000, -0.000000000000000000 ) ) ;
#294 = AXIS2_PLACEMENT_3D ( 'NONE', #116, #213, #275 ) ;
#295 = AXIS2_PLACEMENT_3D ( 'NONE', #272, #309, #242 ) ;
#296 = EDGE_CURVE ( 'NONE', #145, #130, #122, .T. ) ;
#297 = CARTESIAN_POINT ( 'NONE',  ( 0.000000000000000000, 0.000000000000000000, 5.000000000000000000 ) ) ;
#298 = ORIENTED_EDGE ( 'NONE', *, *, #355, .F. ) ;
#299 = LINE ( 'NONE', #7, #243 ) ;
#300 = PERSON_AND_ORGANIZATION ( #249, #361 ) ;
#301 = AXIS2_PLACEMENT_3D ( 'NONE', #250, #376, #127 ) ;
#302 = ADVANCED_FACE ( 'NONE', ( #152, #286 ), #17, .T. ) ;
#303 = VECTOR ( 'NONE', #44, 1000.000000000000000 ) ;
#304 = DIRECTION ( 'NONE',  ( 1.000000000000000000, 0.000000000000000000, 0.000000000000000000 ) ) ;
#305 = VERTEX_POINT ( 'NONE', #372 ) ;
#306 = CC_DESIGN_DATE_AND_TIME_ASSIGNMENT ( #86, #81, ( #109 ) ) ;
#307 = DIRECTION ( 'NONE',  ( 0.000000000000000000, 0.000000000000000000, 1.000000000000000000 ) ) ;
#308 = ORIENTED_EDGE ( 'NONE', *, *, #312, .T. ) ;
#309 = DIRECTION ( 'NONE',  ( 0.000000000000000000, 0.000000000000000000, 1.000000000000000000 ) ) ;
#310 = ORIENTED_EDGE ( 'NONE', *, *, #117, .T. ) ;
#311 = DIRECTION ( 'NONE',  ( 1.000000000000000000, 0.000000000000000000, 0.000000000000000000 ) ) ;
#312 = EDGE_CURVE ( 'NONE', #98, #358, #115, .T. ) ;
#313 = VERTEX_POINT ( 'NONE', #69 ) ;
#314 = CARTESIAN_POINT ( 'NONE',  ( 0.000000000000000000, 0.000000000000000000, 805.0000000000000000 ) ) ;
#315 = DIRECTION ( 'NONE',  ( 0.000000000000000000, 0.000000000000000000, 1.000000000000000000 ) ) ;
#316 = ORIENTED_EDGE ( 'NONE', *, *, #332, .F. ) ;
#317 = DIRECTION ( 'NONE',  ( -1.000000000000000000, 0.000000000000000000, 0.000000000000000000 ) ) ;
#318 = DIRECTION ( 'NONE',  ( 0.000000000000000000, 0.000000000000000000, 1.000000000000000000 ) ) ;
#319 = FACE_OUTER_BOUND ( 'NONE', #282, .T. ) ;
#320 = AXIS2_PLACEMENT_3D ( 'NONE', #144, #207, #334 ) ;
#321 = LINE ( 'NONE', #201, #225 ) ;
#322 = UNCERTAINTY_MEASURE_WITH_UNIT (LENGTH_MEASURE( 1.000000000000000082E-05 ), #153, 'distance_accuracy_value', 'NONE');
#323 = APPROVAL_ROLE ( '' ) ;
#324 = CARTESIAN_POINT ( 'NONE',  ( -5.000000000000000000, 0.000000000000000000, 5.499999999999949374 ) ) ;
#325 = AXIS2_PLACEMENT_3D ( 'NONE', #125, #378, #120 ) ;
#326 = ORIENTED_EDGE ( 'NONE', *, *, #73, .T. ) ;
#327 = CALENDAR_DATE ( 2022, 8, 7 ) ;
#328 = ORIENTED_EDGE ( 'NONE', *, *, #228, .T. ) ;
#329 = APPROVAL_DATE_TIME ( #162, #154 ) ;
#330 = PERSON_AND_ORGANIZATION_ROLE ( 'creator' ) ;
#331 = CARTESIAN_POINT ( 'NONE',  ( -2.500000000000000000, 0.000000000000000000, 805.0000000000000000 ) ) ;
#332 = EDGE_CURVE ( 'NONE', #137, #35, #339, .T. ) ;
#333 = AXIS2_PLACEMENT_3D ( 'NONE', #110, #13, #65 ) ;
#334 = DIRECTION ( 'NONE',  ( -1.000000000000000000, 0.000000000000000000, 0.000000000000000000 ) ) ;
#335 = CC_DESIGN_PERSON_AND_ORGANIZATION_ASSIGNMENT ( #351, #167, ( #109 ) ) ;
#336 = CIRCLE ( 'NONE', #264, 5.000000000000000000 ) ;
#337 = CARTESIAN_POINT ( 'NONE',  ( 2.500000000000000000, 3.061616997868383141E-16, 805.0000000000000000 ) ) ;
#338 = DIRECTION ( 'NONE',  ( 0.000000000000000000, 0.000000000000000000, 1.000000000000000000 ) ) ;
#339 = CIRCLE ( 'NONE', #14, 8.000000000000000000 ) ;
#340 = CARTESIAN_POINT ( 'NONE',  ( 0.000000000000000000, 0.000000000000000000, 5.499999999999949374 ) ) ;
#341 = AXIS2_PLACEMENT_3D ( 'NONE', #30, #175, #274 ) ;
#342 = EDGE_LOOP ( 'NONE', ( #155, #233 ) ) ;
#343 = CARTESIAN_POINT ( 'NONE',  ( 0.000000000000000000, 0.000000000000000000, 5.499999999999949374 ) ) ;
#344 = CIRCLE ( 'NONE', #39, 8.000000000000000000 ) ;
#345 = DIRECTION ( 'NONE',  ( 0.000000000000000000, 0.000000000000000000, 1.000000000000000000 ) ) ;
#346 = PLANE ( 'NONE',  #148 ) ;
#347 = CARTESIAN_POINT ( 'NONE',  ( 0.000000000000000000, 0.000000000000000000, 5.000000000000000000 ) ) ;
#348 = DIRECTION ( 'NONE',  ( 0.000000000000000000, 0.000000000000000000, 1.000000000000000000 ) ) ;
#349 = EDGE_LOOP ( 'NONE', ( #96, #15 ) ) ;
#350 = CC_DESIGN_PERSON_AND_ORGANIZATION_ASSIGNMENT ( #50, #292, ( #179 ) ) ;
#351 = PERSON_AND_ORGANIZATION ( #249, #361 ) ;
#352 = APPROVAL_PERSON_ORGANIZATION ( #55, #182, #199 ) ;
#353 = PERSON_AND_ORGANIZATION ( #249, #361 ) ;
#354 = ORIENTED_EDGE ( 'NONE', *, *, #111, .F. ) ;
#355 = EDGE_CURVE ( 'NONE', #219, #371, #273, .T. ) ;
#356 = DIRECTION ( 'NONE',  ( 0.000000000000000000, 0.000000000000000000, 1.000000000000000000 ) ) ;
#357 = VECTOR ( 'NONE', #92, 1000.000000000000000 ) ;
#358 = VERTEX_POINT ( 'NONE', #379 ) ;
#359 = APPROVAL_STATUS ( 'not_yet_approved' ) ;
#360 = DIRECTION ( 'NONE',  ( 1.000000000000000000, 0.000000000000000000, 0.000000000000000000 ) ) ;
#361 = ORGANIZATION ( 'NEURÈENÝ', 'NEURÈENÝ', '' ) ;
#362 = CYLINDRICAL_SURFACE ( 'NONE', #320, 2.500000000000000000 ) ;
#363 = ADVANCED_FACE ( 'NONE', ( #319 ), #247, .F. ) ;
#364 = ORIENTED_EDGE ( 'NONE', *, *, #270, .F. ) ;
#365 = CIRCLE ( 'NONE', #185, 8.000000000000000000 ) ;
#366 = DIRECTION ( 'NONE',  ( -0.000000000000000000, -0.000000000000000000, -1.000000000000000000 ) ) ;
#367 = ORIENTED_EDGE ( 'NONE', *, *, #73, .F. ) ;
#368 = CARTESIAN_POINT ( 'NONE',  ( 0.000000000000000000, 0.000000000000000000, 805.0000000000000000 ) ) ;
#369 = EDGE_LOOP ( 'NONE', ( #113, #180 ) ) ;
#370 = CIRCLE ( 'NONE', #248, 8.000000000000000000 ) ;
#371 = VERTEX_POINT ( 'NONE', #255 ) ;
#372 = CARTESIAN_POINT ( 'NONE',  ( 5.000000000000000000, 6.123233995736766282E-16, 805.0000000000000000 ) ) ;
#373 = TOROIDAL_SURFACE ( 'NONE', #106, 5.500000000000000000, 0.5000000000000000000 ) ;
#374 = ADVANCED_FACE ( 'NONE', ( #76 ), #72, .T. ) ;
#375 = ORIENTED_EDGE ( 'NONE', *, *, #67, .T. ) ;
#376 = DIRECTION ( 'NONE',  ( -0.000000000000000000, -0.000000000000000000, -1.000000000000000000 ) ) ;
#377 = FACE_BOUND ( 'NONE', #342, .T. ) ;
#378 = DIRECTION ( 'NONE',  ( 0.000000000000000000, 0.000000000000000000, 1.000000000000000000 ) ) ;
#379 = CARTESIAN_POINT ( 'NONE',  ( 2.500000000000000000, 3.061616997868383141E-16, 0.000000000000000000 ) ) ;
#380 = DIRECTION ( 'NONE',  ( 0.000000000000000000, 0.000000000000000000, 1.000000000000000000 ) ) ;
#381 = PERSON_AND_ORGANIZATION ( #249, #361 ) ;
ENDSEC;
END-ISO-10303-21;
