ISO-10303-21;
HEADER;
FILE_DESCRIPTION (( 'STEP AP203' ),
    '1' );
FILE_NAME ('f38d.STEP',
    '2022-07-08T15:17:37',
    ( '' ),
    ( '' ),
    'SwSTEP 2.0',
    'SolidWorks 2019',
    '' );
FILE_SCHEMA (( 'CONFIG_CONTROL_DESIGN' ));
ENDSEC;

DATA;
#1 = EDGE_LOOP ( 'NONE', ( #55, #201 ) ) ;
#2 = CC_DESIGN_DATE_AND_TIME_ASSIGNMENT ( #45, #142, ( #97 ) ) ;
#3 = VECTOR ( 'NONE', #96, 1000.000000000000000 ) ;
#4 = EDGE_LOOP ( 'NONE', ( #330, #178, #79, #148 ) ) ;
#5 = APPROVAL ( #333, 'NEURÈENÝ' ) ;
#6 = CARTESIAN_POINT ( 'NONE',  ( 5.000000000000000000, 6.123233995736766282E-16, 80.00000000000000000 ) ) ;
#7 = CARTESIAN_POINT ( 'NONE',  ( -2.500000000000000000, 0.000000000000000000, 80.00000000000000000 ) ) ;
#8 = ORIENTED_EDGE ( 'NONE', *, *, #46, .F. ) ;
#9 = AXIS2_PLACEMENT_3D ( 'NONE', #128, #88, #27 ) ;
#10 = APPROVAL_ROLE ( '' ) ;
#11 = DIRECTION ( 'NONE',  ( 1.000000000000000000, 0.000000000000000000, 0.000000000000000000 ) ) ;
#12 = CARTESIAN_POINT ( 'NONE',  ( 0.000000000000000000, 0.000000000000000000, 80.00000000000000000 ) ) ;
#13 = EDGE_CURVE ( 'NONE', #336, #354, #26, .T. ) ;
#14 = DIRECTION ( 'NONE',  ( -1.000000000000000000, 0.000000000000000000, 0.000000000000000000 ) ) ;
#15 = EDGE_LOOP ( 'NONE', ( #283, #236 ) ) ;
#16 = CIRCLE ( 'NONE', #69, 2.500000000000000000 ) ;
#17 = CARTESIAN_POINT ( 'NONE',  ( 5.000000000000000000, 6.123233995736766282E-16, 5.500000000000005329 ) ) ;
#18 = DIRECTION ( 'NONE',  ( 0.000000000000000000, 0.000000000000000000, 1.000000000000000000 ) ) ;
#19 = APPLICATION_CONTEXT ( 'configuration controlled 3d designs of mechanical parts and assemblies' ) ;
#20 = CARTESIAN_POINT ( 'NONE',  ( -8.000000000000000000, 0.000000000000000000, 5.000000000000000000 ) ) ;
#21 = CIRCLE ( 'NONE', #324, 8.000000000000000000 ) ;
#22 = DIRECTION ( 'NONE',  ( 0.000000000000000000, 0.000000000000000000, 1.000000000000000000 ) ) ;
#23 = ORIENTED_EDGE ( 'NONE', *, *, #351, .T. ) ;
#24 = CARTESIAN_POINT ( 'NONE',  ( -2.500000000000000000, 0.000000000000000000, 0.000000000000000000 ) ) ;
#25 = EDGE_LOOP ( 'NONE', ( #109, #227, #350, #290 ) ) ;
#26 = CIRCLE ( 'NONE', #56, 5.000000000000000000 ) ;
#27 = DIRECTION ( 'NONE',  ( -1.000000000000000000, 0.000000000000000000, 0.000000000000000000 ) ) ;
#28 = ORIENTED_EDGE ( 'NONE', *, *, #328, .T. ) ;
#29 = EDGE_CURVE ( 'NONE', #150, #265, #184, .T. ) ;
#30 = ORIENTED_EDGE ( 'NONE', *, *, #377, .F. ) ;
#31 = AXIS2_PLACEMENT_3D ( 'NONE', #127, #362, #186 ) ;
#32 = CARTESIAN_POINT ( 'NONE',  ( 0.000000000000000000, 0.000000000000000000, 80.00000000000000000 ) ) ;
#33 = CARTESIAN_POINT ( 'NONE',  ( 0.000000000000000000, 0.000000000000000000, 0.000000000000000000 ) ) ;
#34 = CARTESIAN_POINT ( 'NONE',  ( -5.500000000000000000, 6.735557395310442023E-16, 5.000000000000002665 ) ) ;
#35 = DIRECTION ( 'NONE',  ( -0.000000000000000000, -0.000000000000000000, -1.000000000000000000 ) ) ;
#36 = APPROVAL_PERSON_ORGANIZATION ( #48, #37, #175 ) ;
#37 = APPROVAL ( #110, 'NEURÈENÝ' ) ;
#38 = CALENDAR_DATE ( 2022, 8, 7 ) ;
#39 = DIRECTION ( 'NONE',  ( 0.000000000000000000, 0.000000000000000000, -1.000000000000000000 ) ) ;
#40 = FACE_OUTER_BOUND ( 'NONE', #176, .T. ) ;
#41 = ORIENTED_EDGE ( 'NONE', *, *, #239, .F. ) ;
#42 = PERSON_AND_ORGANIZATION_ROLE ( 'design_owner' ) ;
#43 = FACE_BOUND ( 'NONE', #100, .T. ) ;
#44 = AXIS2_PLACEMENT_3D ( 'NONE', #347, #18, #309 ) ;
#45 = DATE_AND_TIME ( #203, #115 ) ;
#46 = EDGE_CURVE ( 'NONE', #174, #354, #60, .T. ) ;
#47 = ORIENTED_EDGE ( 'NONE', *, *, #248, .F. ) ;
#48 = PERSON_AND_ORGANIZATION ( #339, #158 ) ;
#49 = CARTESIAN_POINT ( 'NONE',  ( 0.000000000000000000, 0.000000000000000000, 80.00000000000000000 ) ) ;
#50 = COORDINATED_UNIVERSAL_TIME_OFFSET ( 1, 0, .AHEAD. ) ;
#51 = LINE ( 'NONE', #289, #138 ) ;
#52 = CC_DESIGN_APPROVAL ( #264, ( #97 ) ) ;
#53 = EDGE_LOOP ( 'NONE', ( #8, #271, #171, #54 ) ) ;
#54 = ORIENTED_EDGE ( 'NONE', *, *, #13, .T. ) ;
#55 = ORIENTED_EDGE ( 'NONE', *, *, #221, .F. ) ;
#56 = AXIS2_PLACEMENT_3D ( 'NONE', #187, #297, #153 ) ;
#57 = FACE_OUTER_BOUND ( 'NONE', #144, .T. ) ;
#58 = ADVANCED_FACE ( 'NONE', ( #123 ), #323, .T. ) ;
#59 = DIRECTION ( 'NONE',  ( 0.000000000000000000, 0.000000000000000000, 1.000000000000000000 ) ) ;
#60 = LINE ( 'NONE', #6, #162 ) ;
#61 = ADVANCED_BREP_SHAPE_REPRESENTATION ( 'f38d', ( #298, #313 ), #286 ) ;
#62 = CC_DESIGN_PERSON_AND_ORGANIZATION_ASSIGNMENT ( #367, #67, ( #126 ) ) ;
#63 = AXIS2_PLACEMENT_3D ( 'NONE', #366, #218, #163 ) ;
#64 = DIRECTION ( 'NONE',  ( 0.000000000000000000, 0.000000000000000000, 1.000000000000000000 ) ) ;
#65 = CALENDAR_DATE ( 2022, 8, 7 ) ;
#66 = DIRECTION ( 'NONE',  ( 0.000000000000000000, 0.000000000000000000, -1.000000000000000000 ) ) ;
#67 = PERSON_AND_ORGANIZATION_ROLE ( 'creator' ) ;
#68 = CARTESIAN_POINT ( 'NONE',  ( 2.500000000000000000, 3.061616997868383141E-16, 80.00000000000000000 ) ) ;
#69 = AXIS2_PLACEMENT_3D ( 'NONE', #166, #370, #368 ) ;
#70 = AXIS2_PLACEMENT_3D ( 'NONE', #125, #274, #213 ) ;
#71 = PLANE ( 'NONE',  #250 ) ;
#72 = ORIENTED_EDGE ( 'NONE', *, *, #335, .F. ) ;
#73 = CYLINDRICAL_SURFACE ( 'NONE', #95, 2.500000000000000000 ) ;
#74 = PERSON_AND_ORGANIZATION_ROLE ( 'design_supplier' ) ;
#75 = CYLINDRICAL_SURFACE ( 'NONE', #185, 8.000000000000000000 ) ;
#76 = EDGE_CURVE ( 'NONE', #345, #208, #157, .T. ) ;
#77 = ORIENTED_EDGE ( 'NONE', *, *, #365, .T. ) ;
#78 = CIRCLE ( 'NONE', #206, 2.500000000000000000 ) ;
#79 = ORIENTED_EDGE ( 'NONE', *, *, #328, .F. ) ;
#80 = ORIENTED_EDGE ( 'NONE', *, *, #356, .F. ) ;
#81 = CC_DESIGN_PERSON_AND_ORGANIZATION_ASSIGNMENT ( #82, #149, ( #97 ) ) ;
#82 = PERSON_AND_ORGANIZATION ( #339, #158 ) ;
#83 = CARTESIAN_POINT ( 'NONE',  ( -5.000000000000000000, 0.000000000000000000, 5.500000000000005329 ) ) ;
#84 = ORIENTED_EDGE ( 'NONE', *, *, #232, .F. ) ;
#85 = AXIS2_PLACEMENT_3D ( 'NONE', #320, #111, #147 ) ;
#86 = VERTEX_POINT ( 'NONE', #269 ) ;
#87 = ORIENTED_EDGE ( 'NONE', *, *, #282, .F. ) ;
#88 = DIRECTION ( 'NONE',  ( -0.000000000000000000, -0.000000000000000000, -1.000000000000000000 ) ) ;
#89 = CIRCLE ( 'NONE', #355, 5.000000000000000000 ) ;
#90 = CC_DESIGN_APPROVAL ( #37, ( #212 ) ) ;
#91 = CARTESIAN_POINT ( 'NONE',  ( 0.000000000000000000, 0.000000000000000000, 5.500000000000005329 ) ) ;
#92 = CC_DESIGN_SECURITY_CLASSIFICATION ( #97, ( #212 ) ) ;
#93 = CARTESIAN_POINT ( 'NONE',  ( 0.000000000000000000, 0.000000000000000000, 0.000000000000000000 ) ) ;
#94 = DIRECTION ( 'NONE',  ( -1.000000000000000000, 1.224646799147351482E-16, 0.000000000000000000 ) ) ;
#95 = AXIS2_PLACEMENT_3D ( 'NONE', #12, #66, #14 ) ;
#96 = DIRECTION ( 'NONE',  ( 0.000000000000000000, 0.000000000000000000, -1.000000000000000000 ) ) ;
#97 = SECURITY_CLASSIFICATION ( '', '', #107 ) ;
#98 = PERSON_AND_ORGANIZATION ( #339, #158 ) ;
#99 = FACE_OUTER_BOUND ( 'NONE', #209, .T. ) ;
#100 = EDGE_LOOP ( 'NONE', ( #28, #361 ) ) ;
#101 = CARTESIAN_POINT ( 'NONE',  ( 0.000000000000000000, 0.000000000000000000, 80.00000000000000000 ) ) ;
#102 = ADVANCED_FACE ( 'NONE', ( #154 ), #259, .F. ) ;
#103 =( NAMED_UNIT ( * ) SI_UNIT ( $, .STERADIAN. ) SOLID_ANGLE_UNIT ( ) );
#104 = CARTESIAN_POINT ( 'NONE',  ( 5.000000000000000000, 6.123233995736766282E-16, 80.00000000000000000 ) ) ;
#105 = CARTESIAN_POINT ( 'NONE',  ( -5.500000000000000000, 6.735557395310442023E-16, 5.500000000000005329 ) ) ;
#106 = ADVANCED_FACE ( 'NONE', ( #332 ), #181, .T. ) ;
#107 = SECURITY_CLASSIFICATION_LEVEL ( 'unclassified' ) ;
#108 = DIRECTION ( 'NONE',  ( -0.000000000000000000, -0.000000000000000000, -1.000000000000000000 ) ) ;
#109 = ORIENTED_EDGE ( 'NONE', *, *, #356, .T. ) ;
#110 = APPROVAL_STATUS ( 'not_yet_approved' ) ;
#111 = DIRECTION ( 'NONE',  ( -0.000000000000000000, -0.000000000000000000, -1.000000000000000000 ) ) ;
#112 = ORIENTED_EDGE ( 'NONE', *, *, #369, .F. ) ;
#113 = AXIS2_PLACEMENT_3D ( 'NONE', #32, #122, #364 ) ;
#114 = PERSON_AND_ORGANIZATION_ROLE ( 'creator' ) ;
#115 = LOCAL_TIME ( 17, 17, 37.00000000000000000, #352 ) ;
#116 = CARTESIAN_POINT ( 'NONE',  ( 0.000000000000000000, 0.000000000000000000, 0.000000000000000000 ) ) ;
#117 = CC_DESIGN_DATE_AND_TIME_ASSIGNMENT ( #164, #195, ( #126 ) ) ;
#118 = CARTESIAN_POINT ( 'NONE',  ( 0.000000000000000000, 0.000000000000000000, 5.000000000000000000 ) ) ;
#119 = ORIENTED_EDGE ( 'NONE', *, *, #248, .T. ) ;
#120 = AXIS2_PLACEMENT_3D ( 'NONE', #251, #219, #301 ) ;
#121 = ADVANCED_FACE ( 'NONE', ( #57 ), #159, .F. ) ;
#122 = DIRECTION ( 'NONE',  ( -0.000000000000000000, -0.000000000000000000, -1.000000000000000000 ) ) ;
#123 = FACE_OUTER_BOUND ( 'NONE', #237, .T. ) ;
#124 = CIRCLE ( 'NONE', #241, 5.500000000000000000 ) ;
#125 = CARTESIAN_POINT ( 'NONE',  ( 0.000000000000000000, 0.000000000000000000, 80.00000000000000000 ) ) ;
#126 = PRODUCT_DEFINITION ( 'NEZNÁMÝ', '', #212, #238 ) ;
#127 = CARTESIAN_POINT ( 'NONE',  ( 0.000000000000000000, 0.000000000000000000, 5.500000000000005329 ) ) ;
#128 = CARTESIAN_POINT ( 'NONE',  ( 0.000000000000000000, 0.000000000000000000, 5.000000000000000000 ) ) ;
#129 = CIRCLE ( 'NONE', #85, 5.500000000000000000 ) ;
#130 = DIRECTION ( 'NONE',  ( 1.000000000000000000, 0.000000000000000000, 0.000000000000000000 ) ) ;
#131 = LOCAL_TIME ( 17, 17, 37.00000000000000000, #191 ) ;
#132 = DATE_AND_TIME ( #65, #131 ) ;
#133 = EDGE_CURVE ( 'NONE', #254, #174, #89, .T. ) ;
#134 = FACE_BOUND ( 'NONE', #287, .T. ) ;
#135 = PERSON_AND_ORGANIZATION ( #339, #158 ) ;
#136 = DIRECTION ( 'NONE',  ( 0.000000000000000000, 0.000000000000000000, 1.000000000000000000 ) ) ;
#137 = LINE ( 'NONE', #312, #170 ) ;
#138 = VECTOR ( 'NONE', #304, 1000.000000000000000 ) ;
#139 = ADVANCED_FACE ( 'NONE', ( #272 ), #277, .F. ) ;
#140 = DIRECTION ( 'NONE',  ( 0.000000000000000000, 0.000000000000000000, -1.000000000000000000 ) ) ;
#141 = ORIENTED_EDGE ( 'NONE', *, *, #76, .T. ) ;
#142 = DATE_TIME_ROLE ( 'classification_date' ) ;
#143 = DIRECTION ( 'NONE',  ( -0.000000000000000000, -0.000000000000000000, -1.000000000000000000 ) ) ;
#144 = EDGE_LOOP ( 'NONE', ( #84, #322, #291, #321 ) ) ;
#145 = CIRCLE ( 'NONE', #211, 2.500000000000000000 ) ;
#146 = PERSON_AND_ORGANIZATION ( #339, #158 ) ;
#147 = DIRECTION ( 'NONE',  ( 1.000000000000000000, 0.000000000000000000, 0.000000000000000000 ) ) ;
#148 = ORIENTED_EDGE ( 'NONE', *, *, #194, .F. ) ;
#149 = PERSON_AND_ORGANIZATION_ROLE ( 'classification_officer' ) ;
#150 = VERTEX_POINT ( 'NONE', #7 ) ;
#151 = ORIENTED_EDGE ( 'NONE', *, *, #255, .F. ) ;
#152 = AXIS2_PLACEMENT_3D ( 'NONE', #101, #344, #169 ) ;
#153 = DIRECTION ( 'NONE',  ( 1.000000000000000000, 0.000000000000000000, 0.000000000000000000 ) ) ;
#154 = FACE_OUTER_BOUND ( 'NONE', #357, .T. ) ;
#155 = EDGE_CURVE ( 'NONE', #279, #260, #21, .T. ) ;
#156 = DIRECTION ( 'NONE',  ( 1.000000000000000000, 0.000000000000000000, 0.000000000000000000 ) ) ;
#157 = CIRCLE ( 'NONE', #296, 8.000000000000000000 ) ;
#158 = ORGANIZATION ( 'NEURÈENÝ', 'NEURÈENÝ', '' ) ;
#159 = CYLINDRICAL_SURFACE ( 'NONE', #70, 2.500000000000000000 ) ;
#160 = DIRECTION ( 'NONE',  ( 0.000000000000000000, 0.000000000000000000, 1.000000000000000000 ) ) ;
#161 = ADVANCED_FACE ( 'NONE', ( #43, #249 ), #226, .T. ) ;
#162 = VECTOR ( 'NONE', #295, 1000.000000000000000 ) ;
#163 = DIRECTION ( 'NONE',  ( 1.000000000000000000, 0.000000000000000000, -0.000000000000000000 ) ) ;
#164 = DATE_AND_TIME ( #38, #378 ) ;
#165 = CARTESIAN_POINT ( 'NONE',  ( 8.000000000000000000, 9.797174393178825657E-16, 0.000000000000000000 ) ) ;
#166 = CARTESIAN_POINT ( 'NONE',  ( 0.000000000000000000, 0.000000000000000000, 80.00000000000000000 ) ) ;
#167 = CARTESIAN_POINT ( 'NONE',  ( 0.000000000000000000, 0.000000000000000000, 0.000000000000000000 ) ) ;
#168 = APPLICATION_PROTOCOL_DEFINITION ( 'international standard', 'config_control_design', 1994, #235 ) ;
#169 = DIRECTION ( 'NONE',  ( -1.000000000000000000, 0.000000000000000000, 0.000000000000000000 ) ) ;
#170 = VECTOR ( 'NONE', #267, 1000.000000000000000 ) ;
#171 = ORIENTED_EDGE ( 'NONE', *, *, #255, .T. ) ;
#172 = ADVANCED_FACE ( 'NONE', ( #134, #99 ), #193, .T. ) ;
#173 = PERSON_AND_ORGANIZATION ( #339, #158 ) ;
#174 = VERTEX_POINT ( 'NONE', #104 ) ;
#175 = APPROVAL_ROLE ( '' ) ;
#176 = EDGE_LOOP ( 'NONE', ( #315, #190, #77, #141 ) ) ;
#177 = ADVANCED_FACE ( 'NONE', ( #334 ), #247, .T. ) ;
#178 = ORIENTED_EDGE ( 'NONE', *, *, #377, .T. ) ;
#179 = CIRCLE ( 'NONE', #233, 5.000000000000000000 ) ;
#180 = CC_DESIGN_APPROVAL ( #5, ( #126 ) ) ;
#181 = CYLINDRICAL_SURFACE ( 'NONE', #113, 5.000000000000000000 ) ;
#182 = CC_DESIGN_PERSON_AND_ORGANIZATION_ASSIGNMENT ( #98, #42, ( #183 ) ) ;
#183 = PRODUCT ( 'f38d', 'f38d', '', ( #308 ) ) ;
#184 = LINE ( 'NONE', #329, #3 ) ;
#185 = AXIS2_PLACEMENT_3D ( 'NONE', #253, #108, #302 ) ;
#186 = DIRECTION ( 'NONE',  ( 1.000000000000000000, 0.000000000000000000, 0.000000000000000000 ) ) ;
#187 = CARTESIAN_POINT ( 'NONE',  ( 0.000000000000000000, 0.000000000000000000, 5.500000000000005329 ) ) ;
#188 = ADVANCED_FACE ( 'NONE', ( #196 ), #73, .F. ) ;
#189 = LINE ( 'NONE', #363, #281 ) ;
#190 = ORIENTED_EDGE ( 'NONE', *, *, #316, .F. ) ;
#191 = COORDINATED_UNIVERSAL_TIME_OFFSET ( 1, 0, .AHEAD. ) ;
#192 = AXIS2_PLACEMENT_3D ( 'NONE', #118, #231, #207 ) ;
#193 = PLANE ( 'NONE',  #63 ) ;
#194 = EDGE_CURVE ( 'NONE', #354, #234, #303, .T. ) ;
#195 = DATE_TIME_ROLE ( 'creation_date' ) ;
#196 = FACE_OUTER_BOUND ( 'NONE', #25, .T. ) ;
#197 = APPLICATION_PROTOCOL_DEFINITION ( 'international standard', 'config_control_design', 1994, #19 ) ;
#198 = DIRECTION ( 'NONE',  ( 0.000000000000000000, -1.000000000000000000, 0.000000000000000000 ) ) ;
#199 = VERTEX_POINT ( 'NONE', #220 ) ;
#200 = AXIS2_PLACEMENT_3D ( 'NONE', #278, #198, #140 ) ;
#201 = ORIENTED_EDGE ( 'NONE', *, *, #270, .F. ) ;
#202 = ADVANCED_FACE ( 'NONE', ( #40 ), #75, .T. ) ;
#203 = CALENDAR_DATE ( 2022, 8, 7 ) ;
#204 = CARTESIAN_POINT ( 'NONE',  ( -8.000000000000000000, 0.000000000000000000, 0.000000000000000000 ) ) ;
#205 = ORIENTED_EDGE ( 'NONE', *, *, #133, .T. ) ;
#206 = AXIS2_PLACEMENT_3D ( 'NONE', #300, #136, #252 ) ;
#207 = DIRECTION ( 'NONE',  ( 1.000000000000000000, 0.000000000000000000, 0.000000000000000000 ) ) ;
#208 = VERTEX_POINT ( 'NONE', #165 ) ;
#209 = EDGE_LOOP ( 'NONE', ( #205, #318 ) ) ;
#210 = DIRECTION ( 'NONE',  ( 0.000000000000000000, 0.000000000000000000, 1.000000000000000000 ) ) ;
#211 = AXIS2_PLACEMENT_3D ( 'NONE', #116, #143, #374 ) ;
#212 = PRODUCT_DEFINITION_FORMATION_WITH_SPECIFIED_SOURCE ( 'LIBOVOLNÝ', '', #183, .NOT_KNOWN. ) ;
#213 = DIRECTION ( 'NONE',  ( -1.000000000000000000, 0.000000000000000000, 0.000000000000000000 ) ) ;
#214 = DIRECTION ( 'NONE',  ( 1.000000000000000000, 0.000000000000000000, 0.000000000000000000 ) ) ;
#215 = PRODUCT_RELATED_PRODUCT_CATEGORY ( 'detail', '', ( #183 ) ) ;
#216 = EDGE_LOOP ( 'NONE', ( #72, #379, #349, #151 ) ) ;
#217 =( LENGTH_UNIT ( ) NAMED_UNIT ( * ) SI_UNIT ( .MILLI., .METRE. ) );
#218 = DIRECTION ( 'NONE',  ( 0.000000000000000000, 0.000000000000000000, 1.000000000000000000 ) ) ;
#219 = DIRECTION ( 'NONE',  ( 0.000000000000000000, 0.000000000000000000, 1.000000000000000000 ) ) ;
#220 = CARTESIAN_POINT ( 'NONE',  ( 2.500000000000000000, 3.061616997868383141E-16, 80.00000000000000000 ) ) ;
#221 = EDGE_CURVE ( 'NONE', #265, #86, #244, .T. ) ;
#222 = VECTOR ( 'NONE', #39, 1000.000000000000000 ) ;
#223 = APPROVAL_DATE_TIME ( #132, #5 ) ;
#224 = FACE_BOUND ( 'NONE', #1, .T. ) ;
#225 = CARTESIAN_POINT ( 'NONE',  ( 0.000000000000000000, 0.000000000000000000, 0.000000000000000000 ) ) ;
#226 = PLANE ( 'NONE',  #44 ) ;
#227 = ORIENTED_EDGE ( 'NONE', *, *, #232, .T. ) ;
#228 = APPROVAL_ROLE ( '' ) ;
#229 = CARTESIAN_POINT ( 'NONE',  ( 5.500000000000000000, 0.000000000000000000, 5.000000000000002665 ) ) ;
#230 = CALENDAR_DATE ( 2022, 8, 7 ) ;
#231 = DIRECTION ( 'NONE',  ( 0.000000000000000000, 0.000000000000000000, 1.000000000000000000 ) ) ;
#232 = EDGE_CURVE ( 'NONE', #199, #86, #338, .T. ) ;
#233 = AXIS2_PLACEMENT_3D ( 'NONE', #49, #22, #263 ) ;
#234 = VERTEX_POINT ( 'NONE', #229 ) ;
#235 = APPLICATION_CONTEXT ( 'configuration controlled 3d designs of mechanical parts and assemblies' ) ;
#236 = ORIENTED_EDGE ( 'NONE', *, *, #155, .T. ) ;
#237 = EDGE_LOOP ( 'NONE', ( #292, #23, #119, #268 ) ) ;
#238 = DESIGN_CONTEXT ( 'detailed design', #235, 'design' ) ;
#239 = EDGE_CURVE ( 'NONE', #199, #150, #78, .T. ) ;
#240 = AXIS2_PLACEMENT_3D ( 'NONE', #305, #35, #11 ) ;
#241 = AXIS2_PLACEMENT_3D ( 'NONE', #314, #348, #258 ) ;
#242 = CARTESIAN_POINT ( 'NONE',  ( 0.000000000000000000, 0.000000000000000000, 5.000000000000000000 ) ) ;
#243 = ADVANCED_FACE ( 'NONE', ( #224, #342 ), #71, .F. ) ;
#244 = CIRCLE ( 'NONE', #240, 2.500000000000000000 ) ;
#245 = APPROVAL_PERSON_ORGANIZATION ( #135, #5, #10 ) ;
#246 = ORIENTED_EDGE ( 'NONE', *, *, #76, .F. ) ;
#247 = CYLINDRICAL_SURFACE ( 'NONE', #152, 5.000000000000000000 ) ;
#248 = EDGE_CURVE ( 'NONE', #208, #345, #293, .T. ) ;
#249 = FACE_OUTER_BOUND ( 'NONE', #15, .T. ) ;
#250 = AXIS2_PLACEMENT_3D ( 'NONE', #33, #160, #307 ) ;
#251 = CARTESIAN_POINT ( 'NONE',  ( 0.000000000000000000, 0.000000000000000000, 5.500000000000005329 ) ) ;
#252 = DIRECTION ( 'NONE',  ( 1.000000000000000000, 0.000000000000000000, 0.000000000000000000 ) ) ;
#253 = CARTESIAN_POINT ( 'NONE',  ( 0.000000000000000000, 0.000000000000000000, 5.000000000000000000 ) ) ;
#254 = VERTEX_POINT ( 'NONE', #280 ) ;
#255 = EDGE_CURVE ( 'NONE', #254, #336, #137, .T. ) ;
#256 = CARTESIAN_POINT ( 'NONE',  ( 8.000000000000000000, 9.797174393178825657E-16, 5.000000000000000000 ) ) ;
#257 = APPROVAL_DATE_TIME ( #319, #37 ) ;
#258 = DIRECTION ( 'NONE',  ( 1.000000000000000000, 0.000000000000000000, 0.000000000000000000 ) ) ;
#259 = TOROIDAL_SURFACE ( 'NONE', #311, 5.500000000000000000, 0.5000000000000000000 ) ;
#260 = VERTEX_POINT ( 'NONE', #20 ) ;
#261 = LOCAL_TIME ( 17, 17, 37.00000000000000000, #50 ) ;
#262 = LOCAL_TIME ( 17, 17, 37.00000000000000000, #373 ) ;
#263 = DIRECTION ( 'NONE',  ( 1.000000000000000000, 0.000000000000000000, 0.000000000000000000 ) ) ;
#264 = APPROVAL ( #288, 'NEURÈENÝ' ) ;
#265 = VERTEX_POINT ( 'NONE', #24 ) ;
#266 = APPROVAL_DATE_TIME ( #317, #264 ) ;
#267 = DIRECTION ( 'NONE',  ( -0.000000000000000000, -0.000000000000000000, -1.000000000000000000 ) ) ;
#268 = ORIENTED_EDGE ( 'NONE', *, *, #365, .F. ) ;
#269 = CARTESIAN_POINT ( 'NONE',  ( 2.500000000000000000, 3.061616997868383141E-16, 0.000000000000000000 ) ) ;
#270 = EDGE_CURVE ( 'NONE', #86, #265, #145, .T. ) ;
#271 = ORIENTED_EDGE ( 'NONE', *, *, #133, .F. ) ;
#272 = FACE_OUTER_BOUND ( 'NONE', #4, .T. ) ;
#273 = CLOSED_SHELL ( 'NONE', ( #188, #139, #106, #58, #202, #161, #243, #177, #172, #102, #121 ) ) ;
#274 = DIRECTION ( 'NONE',  ( 0.000000000000000000, 0.000000000000000000, -1.000000000000000000 ) ) ;
#275 = DIRECTION ( 'NONE',  ( 1.000000000000000000, 0.000000000000000000, 0.000000000000000000 ) ) ;
#276 = DIRECTION ( 'NONE',  ( 0.000000000000000000, 0.000000000000000000, 1.000000000000000000 ) ) ;
#277 = TOROIDAL_SURFACE ( 'NONE', #31, 5.500000000000000000, 0.5000000000000000000 ) ;
#278 = CARTESIAN_POINT ( 'NONE',  ( 5.500000000000000000, 0.000000000000000000, 5.500000000000005329 ) ) ;
#279 = VERTEX_POINT ( 'NONE', #256 ) ;
#280 = CARTESIAN_POINT ( 'NONE',  ( -5.000000000000000000, 0.000000000000000000, 80.00000000000000000 ) ) ;
#281 = VECTOR ( 'NONE', #337, 1000.000000000000000 ) ;
#282 = EDGE_CURVE ( 'NONE', #381, #234, #129, .T. ) ;
#283 = ORIENTED_EDGE ( 'NONE', *, *, #316, .T. ) ;
#284 = CC_DESIGN_PERSON_AND_ORGANIZATION_ASSIGNMENT ( #380, #74, ( #212 ) ) ;
#285 = CIRCLE ( 'NONE', #120, 5.000000000000000000 ) ;
#286 =( GEOMETRIC_REPRESENTATION_CONTEXT ( 3 ) GLOBAL_UNCERTAINTY_ASSIGNED_CONTEXT ( ( #326 ) ) GLOBAL_UNIT_ASSIGNED_CONTEXT ( ( #217, #306, #103 ) ) REPRESENTATION_CONTEXT ( 'NONE', 'WORKASPACE' ) );
#287 = EDGE_LOOP ( 'NONE', ( #80, #41 ) ) ;
#288 = APPROVAL_STATUS ( 'not_yet_approved' ) ;
#289 = CARTESIAN_POINT ( 'NONE',  ( 8.000000000000000000, 9.797174393178825657E-16, 5.000000000000000000 ) ) ;
#290 = ORIENTED_EDGE ( 'NONE', *, *, #29, .F. ) ;
#291 = ORIENTED_EDGE ( 'NONE', *, *, #29, .T. ) ;
#292 = ORIENTED_EDGE ( 'NONE', *, *, #155, .F. ) ;
#293 = CIRCLE ( 'NONE', #375, 8.000000000000000000 ) ;
#294 = DIRECTION ( 'NONE',  ( 1.000000000000000000, 0.000000000000000000, 0.000000000000000000 ) ) ;
#295 = DIRECTION ( 'NONE',  ( -0.000000000000000000, -0.000000000000000000, -1.000000000000000000 ) ) ;
#296 = AXIS2_PLACEMENT_3D ( 'NONE', #93, #210, #156 ) ;
#297 = DIRECTION ( 'NONE',  ( 0.000000000000000000, 0.000000000000000000, 1.000000000000000000 ) ) ;
#298 = MANIFOLD_SOLID_BREP ( 'Odebrat vysunutím3', #273 ) ;
#299 = DIRECTION ( 'NONE',  ( 1.224646799147353207E-16, 1.000000000000000000, -0.000000000000000000 ) ) ;
#300 = CARTESIAN_POINT ( 'NONE',  ( 0.000000000000000000, 0.000000000000000000, 80.00000000000000000 ) ) ;
#301 = DIRECTION ( 'NONE',  ( 1.000000000000000000, 0.000000000000000000, 0.000000000000000000 ) ) ;
#302 = DIRECTION ( 'NONE',  ( -1.000000000000000000, 0.000000000000000000, 0.000000000000000000 ) ) ;
#303 = CIRCLE ( 'NONE', #200, 0.5000000000000004441 ) ;
#304 = DIRECTION ( 'NONE',  ( -0.000000000000000000, -0.000000000000000000, -1.000000000000000000 ) ) ;
#305 = CARTESIAN_POINT ( 'NONE',  ( 0.000000000000000000, 0.000000000000000000, 0.000000000000000000 ) ) ;
#306 =( NAMED_UNIT ( * ) PLANE_ANGLE_UNIT ( ) SI_UNIT ( $, .RADIAN. ) );
#307 = DIRECTION ( 'NONE',  ( 1.000000000000000000, 0.000000000000000000, -0.000000000000000000 ) ) ;
#308 = MECHANICAL_CONTEXT ( 'NONE', #19, 'mechanical' ) ;
#309 = DIRECTION ( 'NONE',  ( 1.000000000000000000, 0.000000000000000000, -0.000000000000000000 ) ) ;
#310 = ORIENTED_EDGE ( 'NONE', *, *, #194, .T. ) ;
#311 = AXIS2_PLACEMENT_3D ( 'NONE', #91, #64, #214 ) ;
#312 = CARTESIAN_POINT ( 'NONE',  ( -5.000000000000000000, 0.000000000000000000, 80.00000000000000000 ) ) ;
#313 = AXIS2_PLACEMENT_3D ( 'NONE', #225, #343, #275 ) ;
#314 = CARTESIAN_POINT ( 'NONE',  ( 0.000000000000000000, 0.000000000000000000, 5.000000000000000000 ) ) ;
#315 = ORIENTED_EDGE ( 'NONE', *, *, #351, .F. ) ;
#316 = EDGE_CURVE ( 'NONE', #260, #279, #359, .T. ) ;
#317 = DATE_AND_TIME ( #346, #262 ) ;
#318 = ORIENTED_EDGE ( 'NONE', *, *, #335, .T. ) ;
#319 = DATE_AND_TIME ( #230, #261 ) ;
#320 = CARTESIAN_POINT ( 'NONE',  ( 0.000000000000000000, 0.000000000000000000, 5.000000000000000000 ) ) ;
#321 = ORIENTED_EDGE ( 'NONE', *, *, #221, .T. ) ;
#322 = ORIENTED_EDGE ( 'NONE', *, *, #239, .T. ) ;
#323 = CYLINDRICAL_SURFACE ( 'NONE', #9, 8.000000000000000000 ) ;
#324 = AXIS2_PLACEMENT_3D ( 'NONE', #242, #372, #371 ) ;
#325 = APPROVAL_PERSON_ORGANIZATION ( #146, #264, #228 ) ;
#326 = UNCERTAINTY_MEASURE_WITH_UNIT (LENGTH_MEASURE( 1.000000000000000082E-05 ), #217, 'distance_accuracy_value', 'NONE');
#327 = CARTESIAN_POINT ( 'NONE',  ( 0.000000000000000000, 0.000000000000000000, 80.00000000000000000 ) ) ;
#328 = EDGE_CURVE ( 'NONE', #234, #381, #124, .T. ) ;
#329 = CARTESIAN_POINT ( 'NONE',  ( -2.500000000000000000, 0.000000000000000000, 80.00000000000000000 ) ) ;
#330 = ORIENTED_EDGE ( 'NONE', *, *, #13, .F. ) ;
#331 = CIRCLE ( 'NONE', #340, 0.5000000000000004441 ) ;
#332 = FACE_OUTER_BOUND ( 'NONE', #216, .T. ) ;
#333 = APPROVAL_STATUS ( 'not_yet_approved' ) ;
#334 = FACE_OUTER_BOUND ( 'NONE', #53, .T. ) ;
#335 = EDGE_CURVE ( 'NONE', #174, #254, #179, .T. ) ;
#336 = VERTEX_POINT ( 'NONE', #83 ) ;
#337 = DIRECTION ( 'NONE',  ( -0.000000000000000000, -0.000000000000000000, -1.000000000000000000 ) ) ;
#338 = LINE ( 'NONE', #68, #222 ) ;
#339 = PERSON ( 'NEURÈENÝ', 'NEURÈENÝ', 'NEURÈENÝ', ('NEURÈENÝ'), ('NEURÈENÝ'), ('NEURÈENÝ') ) ;
#340 = AXIS2_PLACEMENT_3D ( 'NONE', #105, #299, #94 ) ;
#341 = COORDINATED_UNIVERSAL_TIME_OFFSET ( 1, 0, .AHEAD. ) ;
#342 = FACE_OUTER_BOUND ( 'NONE', #358, .T. ) ;
#343 = DIRECTION ( 'NONE',  ( 0.000000000000000000, 0.000000000000000000, 1.000000000000000000 ) ) ;
#344 = DIRECTION ( 'NONE',  ( -0.000000000000000000, -0.000000000000000000, -1.000000000000000000 ) ) ;
#345 = VERTEX_POINT ( 'NONE', #204 ) ;
#346 = CALENDAR_DATE ( 2022, 8, 7 ) ;
#347 = CARTESIAN_POINT ( 'NONE',  ( 0.000000000000000000, 0.000000000000000000, 5.000000000000000000 ) ) ;
#348 = DIRECTION ( 'NONE',  ( -0.000000000000000000, -0.000000000000000000, -1.000000000000000000 ) ) ;
#349 = ORIENTED_EDGE ( 'NONE', *, *, #369, .T. ) ;
#350 = ORIENTED_EDGE ( 'NONE', *, *, #270, .T. ) ;
#351 = EDGE_CURVE ( 'NONE', #279, #208, #51, .T. ) ;
#352 = COORDINATED_UNIVERSAL_TIME_OFFSET ( 1, 0, .AHEAD. ) ;
#353 = PRODUCT_DEFINITION_SHAPE ( 'NONE', 'NONE',  #126 ) ;
#354 = VERTEX_POINT ( 'NONE', #17 ) ;
#355 = AXIS2_PLACEMENT_3D ( 'NONE', #327, #59, #294 ) ;
#356 = EDGE_CURVE ( 'NONE', #150, #199, #16, .T. ) ;
#357 = EDGE_LOOP ( 'NONE', ( #30, #112, #310, #87 ) ) ;
#358 = EDGE_LOOP ( 'NONE', ( #246, #47 ) ) ;
#359 = CIRCLE ( 'NONE', #192, 8.000000000000000000 ) ;
#360 = CC_DESIGN_PERSON_AND_ORGANIZATION_ASSIGNMENT ( #173, #114, ( #212 ) ) ;
#361 = ORIENTED_EDGE ( 'NONE', *, *, #282, .T. ) ;
#362 = DIRECTION ( 'NONE',  ( 0.000000000000000000, 0.000000000000000000, 1.000000000000000000 ) ) ;
#363 = CARTESIAN_POINT ( 'NONE',  ( -8.000000000000000000, 0.000000000000000000, 5.000000000000000000 ) ) ;
#364 = DIRECTION ( 'NONE',  ( -1.000000000000000000, 0.000000000000000000, 0.000000000000000000 ) ) ;
#365 = EDGE_CURVE ( 'NONE', #260, #345, #189, .T. ) ;
#366 = CARTESIAN_POINT ( 'NONE',  ( 0.000000000000000000, 0.000000000000000000, 80.00000000000000000 ) ) ;
#367 = PERSON_AND_ORGANIZATION ( #339, #158 ) ;
#368 = DIRECTION ( 'NONE',  ( 1.000000000000000000, 0.000000000000000000, 0.000000000000000000 ) ) ;
#369 = EDGE_CURVE ( 'NONE', #354, #336, #285, .T. ) ;
#370 = DIRECTION ( 'NONE',  ( 0.000000000000000000, 0.000000000000000000, 1.000000000000000000 ) ) ;
#371 = DIRECTION ( 'NONE',  ( 1.000000000000000000, 0.000000000000000000, 0.000000000000000000 ) ) ;
#372 = DIRECTION ( 'NONE',  ( 0.000000000000000000, 0.000000000000000000, 1.000000000000000000 ) ) ;
#373 = COORDINATED_UNIVERSAL_TIME_OFFSET ( 1, 0, .AHEAD. ) ;
#374 = DIRECTION ( 'NONE',  ( 1.000000000000000000, 0.000000000000000000, 0.000000000000000000 ) ) ;
#375 = AXIS2_PLACEMENT_3D ( 'NONE', #167, #276, #130 ) ;
#376 = SHAPE_DEFINITION_REPRESENTATION ( #353, #61 ) ;
#377 = EDGE_CURVE ( 'NONE', #336, #381, #331, .T. ) ;
#378 = LOCAL_TIME ( 17, 17, 37.00000000000000000, #341 ) ;
#379 = ORIENTED_EDGE ( 'NONE', *, *, #46, .T. ) ;
#380 = PERSON_AND_ORGANIZATION ( #339, #158 ) ;
#381 = VERTEX_POINT ( 'NONE', #34 ) ;
ENDSEC;
END-ISO-10303-21;
