ISO-10303-21;
HEADER;
FILE_DESCRIPTION (( 'STEP AP203' ),
    '1' );
FILE_NAME ('45f1.STEP',
    '2022-07-08T14:27:55',
    ( '' ),
    ( '' ),
    'SwSTEP 2.0',
    'SolidWorks 2019',
    '' );
FILE_SCHEMA (( 'CONFIG_CONTROL_DESIGN' ));
ENDSEC;

DATA;
#1 = DIRECTION ( 'NONE',  ( 0.000000000000000000, 0.000000000000000000, 1.000000000000000000 ) ) ;
#2 =( NAMED_UNIT ( * ) PLANE_ANGLE_UNIT ( ) SI_UNIT ( $, .RADIAN. ) );
#3 = CARTESIAN_POINT ( 'NONE',  ( 0.000000000000000000, 0.000000000000000000, 157.0000000000000000 ) ) ;
#4 = ORIENTED_EDGE ( 'NONE', *, *, #113, .F. ) ;
#5 = ORGANIZATION ( 'NEURÈENÝ', 'NEURÈENÝ', '' ) ;
#6 = ORIENTED_EDGE ( 'NONE', *, *, #226, .F. ) ;
#7 = ORIENTED_EDGE ( 'NONE', *, *, #153, .T. ) ;
#8 = DIRECTION ( 'NONE',  ( -1.000000000000000000, 0.000000000000000000, 0.000000000000000000 ) ) ;
#9 = ORIENTED_EDGE ( 'NONE', *, *, #345, .F. ) ;
#10 = PRODUCT_RELATED_PRODUCT_CATEGORY ( 'detail', '', ( #277 ) ) ;
#11 = CC_DESIGN_SECURITY_CLASSIFICATION ( #26, ( #361 ) ) ;
#12 = ORIENTED_EDGE ( 'NONE', *, *, #247, .T. ) ;
#13 = PERSON_AND_ORGANIZATION_ROLE ( 'design_supplier' ) ;
#14 = DIRECTION ( 'NONE',  ( 0.000000000000000000, 0.000000000000000000, 1.000000000000000000 ) ) ;
#15 = EDGE_CURVE ( 'NONE', #49, #144, #24, .T. ) ;
#16 = ORIENTED_EDGE ( 'NONE', *, *, #50, .F. ) ;
#17 = AXIS2_PLACEMENT_3D ( 'NONE', #344, #201, #112 ) ;
#18 = TOROIDAL_SURFACE ( 'NONE', #180, 6.700000000000001066, 0.6999999999999999556 ) ;
#19 = CYLINDRICAL_SURFACE ( 'NONE', #378, 6.000000000000000888 ) ;
#20 = AXIS2_PLACEMENT_3D ( 'NONE', #70, #40, #197 ) ;
#21 = FACE_BOUND ( 'NONE', #282, .T. ) ;
#22 = FACE_OUTER_BOUND ( 'NONE', #157, .T. ) ;
#23 = ORIENTED_EDGE ( 'NONE', *, *, #113, .T. ) ;
#24 = LINE ( 'NONE', #77, #107 ) ;
#25 = AXIS2_PLACEMENT_3D ( 'NONE', #30, #1, #152 ) ;
#26 = SECURITY_CLASSIFICATION ( '', '', #109 ) ;
#27 = DIRECTION ( 'NONE',  ( -0.000000000000000000, -0.000000000000000000, -1.000000000000000000 ) ) ;
#28 = DIRECTION ( 'NONE',  ( 1.000000000000000000, 0.000000000000000000, 0.000000000000000000 ) ) ;
#29 = CARTESIAN_POINT ( 'NONE',  ( 0.000000000000000000, 0.000000000000000000, 157.0000000000000000 ) ) ;
#30 = CARTESIAN_POINT ( 'NONE',  ( 0.000000000000000000, 0.000000000000000000, 7.700000000000012612 ) ) ;
#31 = CARTESIAN_POINT ( 'NONE',  ( 0.000000000000000000, 0.000000000000000000, 7.000000000000000000 ) ) ;
#32 =( LENGTH_UNIT ( ) NAMED_UNIT ( * ) SI_UNIT ( .MILLI., .METRE. ) );
#33 = FACE_OUTER_BOUND ( 'NONE', #115, .T. ) ;
#34 = DIRECTION ( 'NONE',  ( -0.000000000000000000, -0.000000000000000000, -1.000000000000000000 ) ) ;
#35 = CC_DESIGN_DATE_AND_TIME_ASSIGNMENT ( #318, #76, ( #172 ) ) ;
#36 = APPLICATION_PROTOCOL_DEFINITION ( 'international standard', 'config_control_design', 1994, #233 ) ;
#37 = DIRECTION ( 'NONE',  ( 1.000000000000000000, 0.000000000000000000, -0.000000000000000000 ) ) ;
#38 = ORIENTED_EDGE ( 'NONE', *, *, #264, .F. ) ;
#39 = CIRCLE ( 'NONE', #313, 10.00000000000000000 ) ;
#40 = DIRECTION ( 'NONE',  ( 0.000000000000000000, 0.000000000000000000, -1.000000000000000000 ) ) ;
#41 = ORIENTED_EDGE ( 'NONE', *, *, #145, .T. ) ;
#42 = EDGE_CURVE ( 'NONE', #349, #280, #46, .T. ) ;
#43 = DIRECTION ( 'NONE',  ( 0.000000000000000000, 0.000000000000000000, 1.000000000000000000 ) ) ;
#44 = PERSON_AND_ORGANIZATION ( #89, #5 ) ;
#45 = ORIENTED_EDGE ( 'NONE', *, *, #97, .F. ) ;
#46 = CIRCLE ( 'NONE', #129, 4.500000000000000000 ) ;
#47 = COORDINATED_UNIVERSAL_TIME_OFFSET ( 1, 0, .AHEAD. ) ;
#48 = CC_DESIGN_APPROVAL ( #139, ( #172 ) ) ;
#49 = VERTEX_POINT ( 'NONE', #138 ) ;
#50 = EDGE_CURVE ( 'NONE', #62, #324, #291, .T. ) ;
#51 = CC_DESIGN_APPROVAL ( #353, ( #361 ) ) ;
#52 = ORIENTED_EDGE ( 'NONE', *, *, #50, .T. ) ;
#53 = DIRECTION ( 'NONE',  ( 0.000000000000000000, 0.000000000000000000, 1.000000000000000000 ) ) ;
#54 = AXIS2_PLACEMENT_3D ( 'NONE', #117, #212, #55 ) ;
#55 = DIRECTION ( 'NONE',  ( 1.000000000000000000, 0.000000000000000000, 0.000000000000000000 ) ) ;
#56 = PERSON_AND_ORGANIZATION ( #89, #5 ) ;
#57 = DIRECTION ( 'NONE',  ( -0.000000000000000000, -0.000000000000000000, -1.000000000000000000 ) ) ;
#58 = VERTEX_POINT ( 'NONE', #374 ) ;
#59 = COORDINATED_UNIVERSAL_TIME_OFFSET ( 1, 0, .AHEAD. ) ;
#60 = CIRCLE ( 'NONE', #17, 6.000000000000000888 ) ;
#61 = DIRECTION ( 'NONE',  ( 0.000000000000000000, 0.000000000000000000, 1.000000000000000000 ) ) ;
#62 = VERTEX_POINT ( 'NONE', #369 ) ;
#63 = AXIS2_PLACEMENT_3D ( 'NONE', #169, #320, #164 ) ;
#64 = CARTESIAN_POINT ( 'NONE',  ( 0.000000000000000000, 0.000000000000000000, 157.0000000000000000 ) ) ;
#65 = ADVANCED_FACE ( 'NONE', ( #21, #166 ), #136, .T. ) ;
#66 = PLANE ( 'NONE',  #336 ) ;
#67 = VERTEX_POINT ( 'NONE', #228 ) ;
#68 = CYLINDRICAL_SURFACE ( 'NONE', #225, 10.00000000000000000 ) ;
#69 = ORIENTED_EDGE ( 'NONE', *, *, #379, .T. ) ;
#70 = CARTESIAN_POINT ( 'NONE',  ( 0.000000000000000000, 0.000000000000000000, 157.0000000000000000 ) ) ;
#71 = EDGE_CURVE ( 'NONE', #116, #162, #60, .T. ) ;
#72 = CIRCLE ( 'NONE', #356, 10.00000000000000000 ) ;
#73 = DATE_AND_TIME ( #254, #133 ) ;
#74 = AXIS2_PLACEMENT_3D ( 'NONE', #29, #294, #146 ) ;
#75 = CARTESIAN_POINT ( 'NONE',  ( 0.000000000000000000, 0.000000000000000000, 7.700000000000012612 ) ) ;
#76 = DATE_TIME_ROLE ( 'creation_date' ) ;
#77 = CARTESIAN_POINT ( 'NONE',  ( -10.00000000000000000, 0.000000000000000000, 7.000000000000000000 ) ) ;
#78 = APPLICATION_CONTEXT ( 'configuration controlled 3d designs of mechanical parts and assemblies' ) ;
#79 = CIRCLE ( 'NONE', #132, 4.500000000000000000 ) ;
#80 = CARTESIAN_POINT ( 'NONE',  ( 0.000000000000000000, 0.000000000000000000, 157.0000000000000000 ) ) ;
#81 = AXIS2_PLACEMENT_3D ( 'NONE', #93, #95, #127 ) ;
#82 = APPROVAL ( #258, 'NEURÈENÝ' ) ;
#83 = CARTESIAN_POINT ( 'NONE',  ( 6.000000000000000888, 7.347880794884120722E-16, 7.700000000000012612 ) ) ;
#84 = CARTESIAN_POINT ( 'NONE',  ( -6.000000000000000888, 0.000000000000000000, 157.0000000000000000 ) ) ;
#85 = ADVANCED_FACE ( 'NONE', ( #263 ), #88, .T. ) ;
#86 = CIRCLE ( 'NONE', #54, 4.500000000000000000 ) ;
#87 = APPROVAL_PERSON_ORGANIZATION ( #199, #353, #314 ) ;
#88 = CYLINDRICAL_SURFACE ( 'NONE', #255, 10.00000000000000000 ) ;
#89 = PERSON ( 'NEURÈENÝ', 'NEURÈENÝ', 'NEURÈENÝ', ('NEURÈENÝ'), ('NEURÈENÝ'), ('NEURÈENÝ') ) ;
#90 = CARTESIAN_POINT ( 'NONE',  ( 6.700000000000001066, 0.000000000000000000, 7.000000000000006217 ) ) ;
#91 = ORIENTED_EDGE ( 'NONE', *, *, #331, .T. ) ;
#92 = LOCAL_TIME ( 16, 27, 55.00000000000000000, #47 ) ;
#93 = CARTESIAN_POINT ( 'NONE',  ( 0.000000000000000000, 0.000000000000000000, 0.000000000000000000 ) ) ;
#94 = EDGE_LOOP ( 'NONE', ( #214, #4, #7, #52 ) ) ;
#95 = DIRECTION ( 'NONE',  ( 0.000000000000000000, 0.000000000000000000, 1.000000000000000000 ) ) ;
#96 = VERTEX_POINT ( 'NONE', #176 ) ;
#97 = EDGE_CURVE ( 'NONE', #308, #232, #86, .T. ) ;
#98 = EDGE_CURVE ( 'NONE', #96, #347, #99, .T. ) ;
#99 = CIRCLE ( 'NONE', #283, 6.700000000000001066 ) ;
#100 = EDGE_LOOP ( 'NONE', ( #6, #207, #339, #364 ) ) ;
#101 = CIRCLE ( 'NONE', #203, 10.00000000000000000 ) ;
#102 = DIRECTION ( 'NONE',  ( 1.000000000000000000, 0.000000000000000000, 0.000000000000000000 ) ) ;
#103 = APPROVAL_DATE_TIME ( #73, #353 ) ;
#104 = ORIENTED_EDGE ( 'NONE', *, *, #321, .F. ) ;
#105 = PERSON_AND_ORGANIZATION ( #89, #5 ) ;
#106 = AXIS2_PLACEMENT_3D ( 'NONE', #259, #257, #111 ) ;
#107 = VECTOR ( 'NONE', #253, 1000.000000000000000 ) ;
#108 = LOCAL_TIME ( 16, 27, 55.00000000000000000, #59 ) ;
#109 = SECURITY_CLASSIFICATION_LEVEL ( 'unclassified' ) ;
#110 = DIRECTION ( 'NONE',  ( 1.000000000000000000, 0.000000000000000000, 0.000000000000000000 ) ) ;
#111 = DIRECTION ( 'NONE',  ( 1.000000000000000000, 0.000000000000000000, -0.000000000000000000 ) ) ;
#112 = DIRECTION ( 'NONE',  ( 1.000000000000000000, 0.000000000000000000, 0.000000000000000000 ) ) ;
#113 = EDGE_CURVE ( 'NONE', #162, #116, #149, .T. ) ;
#114 = COORDINATED_UNIVERSAL_TIME_OFFSET ( 1, 0, .AHEAD. ) ;
#115 = EDGE_LOOP ( 'NONE', ( #131, #293, #191, #12 ) ) ;
#116 = VERTEX_POINT ( 'NONE', #266 ) ;
#117 = CARTESIAN_POINT ( 'NONE',  ( 0.000000000000000000, 0.000000000000000000, 0.000000000000000000 ) ) ;
#118 = DIRECTION ( 'NONE',  ( 0.000000000000000000, 0.000000000000000000, -1.000000000000000000 ) ) ;
#119 = VECTOR ( 'NONE', #217, 1000.000000000000000 ) ;
#120 = AXIS2_PLACEMENT_3D ( 'NONE', #367, #327, #299 ) ;
#121 = EDGE_LOOP ( 'NONE', ( #188, #224, #41, #359 ) ) ;
#122 = DIRECTION ( 'NONE',  ( 0.000000000000000000, 0.000000000000000000, -1.000000000000000000 ) ) ;
#123 = ADVANCED_FACE ( 'NONE', ( #330 ), #194, .F. ) ;
#124 = APPROVAL_ROLE ( '' ) ;
#125 = CARTESIAN_POINT ( 'NONE',  ( -10.00000000000000000, 0.000000000000000000, 0.000000000000000000 ) ) ;
#126 =( GEOMETRIC_REPRESENTATION_CONTEXT ( 3 ) GLOBAL_UNCERTAINTY_ASSIGNED_CONTEXT ( ( #167 ) ) GLOBAL_UNIT_ASSIGNED_CONTEXT ( ( #32, #2, #271 ) ) REPRESENTATION_CONTEXT ( 'NONE', 'WORKASPACE' ) );
#127 = DIRECTION ( 'NONE',  ( 1.000000000000000000, 0.000000000000000000, 0.000000000000000000 ) ) ;
#128 = DIRECTION ( 'NONE',  ( -1.000000000000000000, 0.000000000000000000, 0.000000000000000000 ) ) ;
#129 = AXIS2_PLACEMENT_3D ( 'NONE', #365, #262, #343 ) ;
#130 = DIRECTION ( 'NONE',  ( 1.000000000000000000, 0.000000000000000000, 0.000000000000000000 ) ) ;
#131 = ORIENTED_EDGE ( 'NONE', *, *, #333, .F. ) ;
#132 = AXIS2_PLACEMENT_3D ( 'NONE', #360, #57, #337 ) ;
#133 = LOCAL_TIME ( 16, 27, 55.00000000000000000, #317 ) ;
#134 = CARTESIAN_POINT ( 'NONE',  ( -4.500000000000000000, 0.000000000000000000, 157.0000000000000000 ) ) ;
#135 = FACE_OUTER_BOUND ( 'NONE', #310, .T. ) ;
#136 = PLANE ( 'NONE',  #106 ) ;
#137 = AXIS2_PLACEMENT_3D ( 'NONE', #154, #147, #122 ) ;
#138 = CARTESIAN_POINT ( 'NONE',  ( -10.00000000000000000, 0.000000000000000000, 7.000000000000000000 ) ) ;
#139 = APPROVAL ( #284, 'NEURÈENÝ' ) ;
#140 = CC_DESIGN_PERSON_AND_ORGANIZATION_ASSIGNMENT ( #44, #163, ( #26 ) ) ;
#141 = APPROVAL_DATE_TIME ( #288, #82 ) ;
#142 = DIRECTION ( 'NONE',  ( 1.000000000000000000, 0.000000000000000000, 0.000000000000000000 ) ) ;
#143 = DIRECTION ( 'NONE',  ( -0.000000000000000000, -0.000000000000000000, -1.000000000000000000 ) ) ;
#144 = VERTEX_POINT ( 'NONE', #125 ) ;
#145 = EDGE_CURVE ( 'NONE', #324, #347, #202, .T. ) ;
#146 = DIRECTION ( 'NONE',  ( -1.000000000000000000, 0.000000000000000000, 0.000000000000000000 ) ) ;
#147 = DIRECTION ( 'NONE',  ( 0.000000000000000000, -1.000000000000000000, 0.000000000000000000 ) ) ;
#148 = CARTESIAN_POINT ( 'NONE',  ( 0.000000000000000000, 0.000000000000000000, 157.0000000000000000 ) ) ;
#149 = CIRCLE ( 'NONE', #373, 6.000000000000000888 ) ;
#150 = CARTESIAN_POINT ( 'NONE',  ( -4.500000000000000000, 0.000000000000000000, 0.000000000000000000 ) ) ;
#151 = VECTOR ( 'NONE', #118, 1000.000000000000000 ) ;
#152 = DIRECTION ( 'NONE',  ( 1.000000000000000000, 0.000000000000000000, 0.000000000000000000 ) ) ;
#153 = EDGE_CURVE ( 'NONE', #162, #62, #354, .T. ) ;
#154 = CARTESIAN_POINT ( 'NONE',  ( 6.700000000000001066, 0.000000000000000000, 7.700000000000012612 ) ) ;
#155 = ORIENTED_EDGE ( 'NONE', *, *, #97, .T. ) ;
#156 = ADVANCED_FACE ( 'NONE', ( #381 ), #18, .F. ) ;
#157 = EDGE_LOOP ( 'NONE', ( #104, #159, #230, #155 ) ) ;
#158 = DIRECTION ( 'NONE',  ( 0.000000000000000000, 0.000000000000000000, 1.000000000000000000 ) ) ;
#159 = ORIENTED_EDGE ( 'NONE', *, *, #42, .T. ) ;
#160 = APPLICATION_PROTOCOL_DEFINITION ( 'international standard', 'config_control_design', 1994, #78 ) ;
#161 = LINE ( 'NONE', #134, #295 ) ;
#162 = VERTEX_POINT ( 'NONE', #84 ) ;
#163 = PERSON_AND_ORGANIZATION_ROLE ( 'classification_officer' ) ;
#164 = DIRECTION ( 'NONE',  ( 1.000000000000000000, 0.000000000000000000, 0.000000000000000000 ) ) ;
#165 = PERSON_AND_ORGANIZATION ( #89, #5 ) ;
#166 = FACE_OUTER_BOUND ( 'NONE', #195, .T. ) ;
#167 = UNCERTAINTY_MEASURE_WITH_UNIT (LENGTH_MEASURE( 1.000000000000000082E-05 ), #32, 'distance_accuracy_value', 'NONE');
#168 = APPROVAL_STATUS ( 'not_yet_approved' ) ;
#169 = CARTESIAN_POINT ( 'NONE',  ( 0.000000000000000000, 0.000000000000000000, 7.000000000000000000 ) ) ;
#170 = EDGE_CURVE ( 'NONE', #232, #308, #79, .T. ) ;
#171 = ORIENTED_EDGE ( 'NONE', *, *, #71, .F. ) ;
#172 = PRODUCT_DEFINITION ( 'NEZNÁMÝ', '', #361, #316 ) ;
#173 = APPROVAL_ROLE ( '' ) ;
#174 = DIRECTION ( 'NONE',  ( -1.000000000000000000, 0.000000000000000000, 0.000000000000000000 ) ) ;
#175 = AXIS2_PLACEMENT_3D ( 'NONE', #309, #158, #274 ) ;
#176 = CARTESIAN_POINT ( 'NONE',  ( -6.700000000000001066, 8.205133554287267548E-16, 7.000000000000006217 ) ) ;
#177 = ORIENTED_EDGE ( 'NONE', *, *, #345, .T. ) ;
#178 = EDGE_CURVE ( 'NONE', #116, #324, #357, .T. ) ;
#179 = DIRECTION ( 'NONE',  ( -1.000000000000000000, 1.224646799147353454E-16, 0.000000000000000000 ) ) ;
#180 = AXIS2_PLACEMENT_3D ( 'NONE', #326, #61, #272 ) ;
#181 = AXIS2_PLACEMENT_3D ( 'NONE', #210, #269, #380 ) ;
#182 = PERSON_AND_ORGANIZATION ( #89, #5 ) ;
#183 = CARTESIAN_POINT ( 'NONE',  ( 6.000000000000000888, 7.347880794884120722E-16, 157.0000000000000000 ) ) ;
#184 = ORIENTED_EDGE ( 'NONE', *, *, #71, .T. ) ;
#185 = PRODUCT_DEFINITION_SHAPE ( 'NONE', 'NONE',  #172 ) ;
#186 = CARTESIAN_POINT ( 'NONE',  ( 4.500000000000000000, 5.510910596163088569E-16, 0.000000000000000000 ) ) ;
#187 = APPROVAL_PERSON_ORGANIZATION ( #56, #139, #124 ) ;
#188 = ORIENTED_EDGE ( 'NONE', *, *, #331, .F. ) ;
#189 = CARTESIAN_POINT ( 'NONE',  ( 4.500000000000000000, 5.510910596163088569E-16, 157.0000000000000000 ) ) ;
#190 = CARTESIAN_POINT ( 'NONE',  ( 0.000000000000000000, 0.000000000000000000, 7.000000000000000000 ) ) ;
#191 = ORIENTED_EDGE ( 'NONE', *, *, #15, .T. ) ;
#192 = FACE_OUTER_BOUND ( 'NONE', #302, .T. ) ;
#193 = PERSON_AND_ORGANIZATION_ROLE ( 'creator' ) ;
#194 = TOROIDAL_SURFACE ( 'NONE', #25, 6.700000000000001066, 0.6999999999999999556 ) ;
#195 = EDGE_LOOP ( 'NONE', ( #306, #341 ) ) ;
#196 = CIRCLE ( 'NONE', #63, 10.00000000000000000 ) ;
#197 = DIRECTION ( 'NONE',  ( -1.000000000000000000, 0.000000000000000000, 0.000000000000000000 ) ) ;
#198 = CC_DESIGN_DATE_AND_TIME_ASSIGNMENT ( #251, #312, ( #26 ) ) ;
#199 = PERSON_AND_ORGANIZATION ( #89, #5 ) ;
#200 = CARTESIAN_POINT ( 'NONE',  ( 0.000000000000000000, 0.000000000000000000, 0.000000000000000000 ) ) ;
#201 = DIRECTION ( 'NONE',  ( 0.000000000000000000, 0.000000000000000000, 1.000000000000000000 ) ) ;
#202 = CIRCLE ( 'NONE', #137, 0.7000000000000000666 ) ;
#203 = AXIS2_PLACEMENT_3D ( 'NONE', #200, #14, #110 ) ;
#204 = DIRECTION ( 'NONE',  ( -1.000000000000000000, 0.000000000000000000, 0.000000000000000000 ) ) ;
#205 = EDGE_LOOP ( 'NONE', ( #171, #265, #69, #215 ) ) ;
#206 = CARTESIAN_POINT ( 'NONE',  ( -6.700000000000001066, 8.205133554287267548E-16, 7.700000000000012612 ) ) ;
#207 = ORIENTED_EDGE ( 'NONE', *, *, #333, .T. ) ;
#208 = ORIENTED_EDGE ( 'NONE', *, *, #42, .F. ) ;
#209 = ADVANCED_FACE ( 'NONE', ( #305, #192 ), #66, .T. ) ;
#210 = CARTESIAN_POINT ( 'NONE',  ( 0.000000000000000000, 0.000000000000000000, 157.0000000000000000 ) ) ;
#211 = CC_DESIGN_PERSON_AND_ORGANIZATION_ASSIGNMENT ( #165, #366, ( #361 ) ) ;
#212 = DIRECTION ( 'NONE',  ( -0.000000000000000000, -0.000000000000000000, -1.000000000000000000 ) ) ;
#213 = DATE_AND_TIME ( #239, #108 ) ;
#214 = ORIENTED_EDGE ( 'NONE', *, *, #178, .F. ) ;
#215 = ORIENTED_EDGE ( 'NONE', *, *, #153, .F. ) ;
#216 = PERSON_AND_ORGANIZATION_ROLE ( 'design_owner' ) ;
#217 = DIRECTION ( 'NONE',  ( -0.000000000000000000, -0.000000000000000000, -1.000000000000000000 ) ) ;
#218 = AXIS2_PLACEMENT_3D ( 'NONE', #223, #143, #229 ) ;
#219 = ORIENTED_EDGE ( 'NONE', *, *, #321, .T. ) ;
#220 = FACE_OUTER_BOUND ( 'NONE', #338, .T. ) ;
#221 = CC_DESIGN_PERSON_AND_ORGANIZATION_ASSIGNMENT ( #346, #13, ( #361 ) ) ;
#222 = EDGE_LOOP ( 'NONE', ( #45, #332 ) ) ;
#223 = CARTESIAN_POINT ( 'NONE',  ( 0.000000000000000000, 0.000000000000000000, 7.000000000000000000 ) ) ;
#224 = ORIENTED_EDGE ( 'NONE', *, *, #379, .F. ) ;
#225 = AXIS2_PLACEMENT_3D ( 'NONE', #278, #34, #8 ) ;
#226 = EDGE_CURVE ( 'NONE', #58, #49, #39, .T. ) ;
#227 = FACE_OUTER_BOUND ( 'NONE', #94, .T. ) ;
#228 = CARTESIAN_POINT ( 'NONE',  ( 10.00000000000000000, 1.224646799147353256E-15, 0.000000000000000000 ) ) ;
#229 = DIRECTION ( 'NONE',  ( 1.000000000000000000, 0.000000000000000000, 0.000000000000000000 ) ) ;
#230 = ORIENTED_EDGE ( 'NONE', *, *, #231, .T. ) ;
#231 = EDGE_CURVE ( 'NONE', #280, #308, #161, .T. ) ;
#232 = VERTEX_POINT ( 'NONE', #186 ) ;
#233 = APPLICATION_CONTEXT ( 'configuration controlled 3d designs of mechanical parts and assemblies' ) ;
#234 = ORIENTED_EDGE ( 'NONE', *, *, #264, .T. ) ;
#235 = ADVANCED_FACE ( 'NONE', ( #33 ), #68, .T. ) ;
#236 = CIRCLE ( 'NONE', #181, 4.500000000000000000 ) ;
#237 = CARTESIAN_POINT ( 'NONE',  ( 10.00000000000000000, 1.224646799147353256E-15, 7.000000000000000000 ) ) ;
#238 = LINE ( 'NONE', #376, #151 ) ;
#239 = CALENDAR_DATE ( 2022, 8, 7 ) ;
#240 = APPROVAL_DATE_TIME ( #213, #139 ) ;
#241 = CIRCLE ( 'NONE', #323, 0.7000000000000000666 ) ;
#242 = LOCAL_TIME ( 16, 27, 55.00000000000000000, #114 ) ;
#243 = ORIENTED_EDGE ( 'NONE', *, *, #145, .F. ) ;
#244 = DIRECTION ( 'NONE',  ( 0.000000000000000000, 0.000000000000000000, 1.000000000000000000 ) ) ;
#245 = EDGE_LOOP ( 'NONE', ( #16, #91, #38, #243 ) ) ;
#246 = MECHANICAL_CONTEXT ( 'NONE', #78, 'mechanical' ) ;
#247 = EDGE_CURVE ( 'NONE', #144, #67, #72, .T. ) ;
#248 = CLOSED_SHELL ( 'NONE', ( #358, #156, #307, #85, #235, #65, #303, #279, #209, #123, #296 ) ) ;
#249 = DIRECTION ( 'NONE',  ( 0.000000000000000000, 0.000000000000000000, 1.000000000000000000 ) ) ;
#250 = VECTOR ( 'NONE', #270, 1000.000000000000000 ) ;
#251 = DATE_AND_TIME ( #260, #242 ) ;
#252 = CALENDAR_DATE ( 2022, 8, 7 ) ;
#253 = DIRECTION ( 'NONE',  ( -0.000000000000000000, -0.000000000000000000, -1.000000000000000000 ) ) ;
#254 = CALENDAR_DATE ( 2022, 8, 7 ) ;
#255 = AXIS2_PLACEMENT_3D ( 'NONE', #31, #298, #174 ) ;
#256 = PLANE ( 'NONE',  #120 ) ;
#257 = DIRECTION ( 'NONE',  ( 0.000000000000000000, 0.000000000000000000, 1.000000000000000000 ) ) ;
#258 = APPROVAL_STATUS ( 'not_yet_approved' ) ;
#259 = CARTESIAN_POINT ( 'NONE',  ( 0.000000000000000000, 0.000000000000000000, 7.000000000000000000 ) ) ;
#260 = CALENDAR_DATE ( 2022, 8, 7 ) ;
#261 = DIRECTION ( 'NONE',  ( -0.000000000000000000, -0.000000000000000000, -1.000000000000000000 ) ) ;
#262 = DIRECTION ( 'NONE',  ( 0.000000000000000000, 0.000000000000000000, 1.000000000000000000 ) ) ;
#263 = FACE_OUTER_BOUND ( 'NONE', #100, .T. ) ;
#264 = EDGE_CURVE ( 'NONE', #347, #96, #286, .T. ) ;
#265 = ORIENTED_EDGE ( 'NONE', *, *, #178, .T. ) ;
#266 = CARTESIAN_POINT ( 'NONE',  ( 6.000000000000000888, 7.347880794884120722E-16, 157.0000000000000000 ) ) ;
#267 = EDGE_LOOP ( 'NONE', ( #9, #208 ) ) ;
#268 = LOCAL_TIME ( 16, 27, 55.00000000000000000, #362 ) ;
#269 = DIRECTION ( 'NONE',  ( 0.000000000000000000, 0.000000000000000000, 1.000000000000000000 ) ) ;
#270 = DIRECTION ( 'NONE',  ( -0.000000000000000000, -0.000000000000000000, -1.000000000000000000 ) ) ;
#271 =( NAMED_UNIT ( * ) SI_UNIT ( $, .STERADIAN. ) SOLID_ANGLE_UNIT ( ) );
#272 = DIRECTION ( 'NONE',  ( 1.000000000000000000, 0.000000000000000000, 0.000000000000000000 ) ) ;
#273 = ORIENTED_EDGE ( 'NONE', *, *, #170, .T. ) ;
#274 = DIRECTION ( 'NONE',  ( 1.000000000000000000, 0.000000000000000000, 0.000000000000000000 ) ) ;
#275 = APPROVAL_PERSON_ORGANIZATION ( #105, #82, #173 ) ;
#276 = ORIENTED_EDGE ( 'NONE', *, *, #231, .F. ) ;
#277 = PRODUCT ( '45f1', '45f1', '', ( #246 ) ) ;
#278 = CARTESIAN_POINT ( 'NONE',  ( 0.000000000000000000, 0.000000000000000000, 7.000000000000000000 ) ) ;
#279 = ADVANCED_FACE ( 'NONE', ( #227 ), #19, .T. ) ;
#280 = VERTEX_POINT ( 'NONE', #340 ) ;
#281 = EDGE_CURVE ( 'NONE', #67, #144, #101, .T. ) ;
#282 = EDGE_LOOP ( 'NONE', ( #234, #377 ) ) ;
#283 = AXIS2_PLACEMENT_3D ( 'NONE', #329, #27, #28 ) ;
#284 = APPROVAL_STATUS ( 'not_yet_approved' ) ;
#285 = CARTESIAN_POINT ( 'NONE',  ( 0.000000000000000000, 0.000000000000000000, 0.000000000000000000 ) ) ;
#286 = CIRCLE ( 'NONE', #218, 6.700000000000001066 ) ;
#287 = CC_DESIGN_PERSON_AND_ORGANIZATION_ASSIGNMENT ( #311, #216, ( #277 ) ) ;
#288 = DATE_AND_TIME ( #252, #92 ) ;
#289 = SHAPE_DEFINITION_REPRESENTATION ( #185, #355 ) ;
#290 = CALENDAR_DATE ( 2022, 8, 7 ) ;
#291 = CIRCLE ( 'NONE', #319, 6.000000000000000888 ) ;
#292 = EDGE_CURVE ( 'NONE', #49, #58, #196, .T. ) ;
#293 = ORIENTED_EDGE ( 'NONE', *, *, #292, .F. ) ;
#294 = DIRECTION ( 'NONE',  ( -0.000000000000000000, -0.000000000000000000, -1.000000000000000000 ) ) ;
#295 = VECTOR ( 'NONE', #335, 1000.000000000000000 ) ;
#296 = ADVANCED_FACE ( 'NONE', ( #22 ), #371, .F. ) ;
#297 = FACE_OUTER_BOUND ( 'NONE', #205, .T. ) ;
#298 = DIRECTION ( 'NONE',  ( -0.000000000000000000, -0.000000000000000000, -1.000000000000000000 ) ) ;
#299 = DIRECTION ( 'NONE',  ( 1.000000000000000000, 0.000000000000000000, -0.000000000000000000 ) ) ;
#300 = CARTESIAN_POINT ( 'NONE',  ( -6.000000000000000888, 0.000000000000000000, 157.0000000000000000 ) ) ;
#301 = CIRCLE ( 'NONE', #175, 6.000000000000000888 ) ;
#302 = EDGE_LOOP ( 'NONE', ( #23, #184 ) ) ;
#303 = ADVANCED_FACE ( 'NONE', ( #315, #135 ), #256, .F. ) ;
#304 = DIRECTION ( 'NONE',  ( 0.000000000000000000, 0.000000000000000000, -1.000000000000000000 ) ) ;
#305 = FACE_BOUND ( 'NONE', #267, .T. ) ;
#306 = ORIENTED_EDGE ( 'NONE', *, *, #292, .T. ) ;
#307 = ADVANCED_FACE ( 'NONE', ( #297 ), #325, .T. ) ;
#308 = VERTEX_POINT ( 'NONE', #150 ) ;
#309 = CARTESIAN_POINT ( 'NONE',  ( 0.000000000000000000, 0.000000000000000000, 7.700000000000012612 ) ) ;
#310 = EDGE_LOOP ( 'NONE', ( #372, #322 ) ) ;
#311 = PERSON_AND_ORGANIZATION ( #89, #5 ) ;
#312 = DATE_TIME_ROLE ( 'classification_date' ) ;
#313 = AXIS2_PLACEMENT_3D ( 'NONE', #190, #249, #102 ) ;
#314 = APPROVAL_ROLE ( '' ) ;
#315 = FACE_BOUND ( 'NONE', #222, .T. ) ;
#316 = DESIGN_CONTEXT ( 'detailed design', #233, 'design' ) ;
#317 = COORDINATED_UNIVERSAL_TIME_OFFSET ( 1, 0, .AHEAD. ) ;
#318 = DATE_AND_TIME ( #290, #268 ) ;
#319 = AXIS2_PLACEMENT_3D ( 'NONE', #75, #43, #142 ) ;
#320 = DIRECTION ( 'NONE',  ( 0.000000000000000000, 0.000000000000000000, 1.000000000000000000 ) ) ;
#321 = EDGE_CURVE ( 'NONE', #349, #232, #238, .T. ) ;
#322 = ORIENTED_EDGE ( 'NONE', *, *, #281, .F. ) ;
#323 = AXIS2_PLACEMENT_3D ( 'NONE', #206, #375, #179 ) ;
#324 = VERTEX_POINT ( 'NONE', #83 ) ;
#325 = CYLINDRICAL_SURFACE ( 'NONE', #74, 6.000000000000000888 ) ;
#326 = CARTESIAN_POINT ( 'NONE',  ( 0.000000000000000000, 0.000000000000000000, 7.700000000000012612 ) ) ;
#327 = DIRECTION ( 'NONE',  ( 0.000000000000000000, 0.000000000000000000, 1.000000000000000000 ) ) ;
#328 = MANIFOLD_SOLID_BREP ( 'Odebrat vysunutím3', #248 ) ;
#329 = CARTESIAN_POINT ( 'NONE',  ( 0.000000000000000000, 0.000000000000000000, 7.000000000000000000 ) ) ;
#330 = FACE_OUTER_BOUND ( 'NONE', #121, .T. ) ;
#331 = EDGE_CURVE ( 'NONE', #62, #96, #241, .T. ) ;
#332 = ORIENTED_EDGE ( 'NONE', *, *, #170, .F. ) ;
#333 = EDGE_CURVE ( 'NONE', #58, #67, #350, .T. ) ;
#334 = CYLINDRICAL_SURFACE ( 'NONE', #342, 4.500000000000000000 ) ;
#335 = DIRECTION ( 'NONE',  ( 0.000000000000000000, 0.000000000000000000, -1.000000000000000000 ) ) ;
#336 = AXIS2_PLACEMENT_3D ( 'NONE', #3, #244, #37 ) ;
#337 = DIRECTION ( 'NONE',  ( 1.000000000000000000, 0.000000000000000000, 0.000000000000000000 ) ) ;
#338 = EDGE_LOOP ( 'NONE', ( #177, #219, #273, #276 ) ) ;
#339 = ORIENTED_EDGE ( 'NONE', *, *, #281, .T. ) ;
#340 = CARTESIAN_POINT ( 'NONE',  ( -4.500000000000000000, 0.000000000000000000, 157.0000000000000000 ) ) ;
#341 = ORIENTED_EDGE ( 'NONE', *, *, #226, .T. ) ;
#342 = AXIS2_PLACEMENT_3D ( 'NONE', #64, #304, #128 ) ;
#343 = DIRECTION ( 'NONE',  ( 1.000000000000000000, 0.000000000000000000, 0.000000000000000000 ) ) ;
#344 = CARTESIAN_POINT ( 'NONE',  ( 0.000000000000000000, 0.000000000000000000, 157.0000000000000000 ) ) ;
#345 = EDGE_CURVE ( 'NONE', #280, #349, #236, .T. ) ;
#346 = PERSON_AND_ORGANIZATION ( #89, #5 ) ;
#347 = VERTEX_POINT ( 'NONE', #90 ) ;
#348 = CC_DESIGN_APPROVAL ( #82, ( #26 ) ) ;
#349 = VERTEX_POINT ( 'NONE', #189 ) ;
#350 = LINE ( 'NONE', #237, #368 ) ;
#351 = DIRECTION ( 'NONE',  ( -0.000000000000000000, -0.000000000000000000, -1.000000000000000000 ) ) ;
#352 = DIRECTION ( 'NONE',  ( 1.000000000000000000, 0.000000000000000000, 0.000000000000000000 ) ) ;
#353 = APPROVAL ( #168, 'NEURÈENÝ' ) ;
#354 = LINE ( 'NONE', #300, #250 ) ;
#355 = ADVANCED_BREP_SHAPE_REPRESENTATION ( '45f1', ( #328, #81 ), #126 ) ;
#356 = AXIS2_PLACEMENT_3D ( 'NONE', #285, #363, #130 ) ;
#357 = LINE ( 'NONE', #183, #119 ) ;
#358 = ADVANCED_FACE ( 'NONE', ( #220 ), #334, .F. ) ;
#359 = ORIENTED_EDGE ( 'NONE', *, *, #98, .F. ) ;
#360 = CARTESIAN_POINT ( 'NONE',  ( 0.000000000000000000, 0.000000000000000000, 0.000000000000000000 ) ) ;
#361 = PRODUCT_DEFINITION_FORMATION_WITH_SPECIFIED_SOURCE ( 'LIBOVOLNÝ', '', #277, .NOT_KNOWN. ) ;
#362 = COORDINATED_UNIVERSAL_TIME_OFFSET ( 1, 0, .AHEAD. ) ;
#363 = DIRECTION ( 'NONE',  ( 0.000000000000000000, 0.000000000000000000, 1.000000000000000000 ) ) ;
#364 = ORIENTED_EDGE ( 'NONE', *, *, #15, .F. ) ;
#365 = CARTESIAN_POINT ( 'NONE',  ( 0.000000000000000000, 0.000000000000000000, 157.0000000000000000 ) ) ;
#366 = PERSON_AND_ORGANIZATION_ROLE ( 'creator' ) ;
#367 = CARTESIAN_POINT ( 'NONE',  ( 0.000000000000000000, 0.000000000000000000, 0.000000000000000000 ) ) ;
#368 = VECTOR ( 'NONE', #351, 1000.000000000000000 ) ;
#369 = CARTESIAN_POINT ( 'NONE',  ( -6.000000000000000888, 0.000000000000000000, 7.700000000000012612 ) ) ;
#370 = CC_DESIGN_PERSON_AND_ORGANIZATION_ASSIGNMENT ( #182, #193, ( #172 ) ) ;
#371 = CYLINDRICAL_SURFACE ( 'NONE', #20, 4.500000000000000000 ) ;
#372 = ORIENTED_EDGE ( 'NONE', *, *, #247, .F. ) ;
#373 = AXIS2_PLACEMENT_3D ( 'NONE', #148, #53, #352 ) ;
#374 = CARTESIAN_POINT ( 'NONE',  ( 10.00000000000000000, 1.224646799147353256E-15, 7.000000000000000000 ) ) ;
#375 = DIRECTION ( 'NONE',  ( 1.224646799147353207E-16, 1.000000000000000000, -0.000000000000000000 ) ) ;
#376 = CARTESIAN_POINT ( 'NONE',  ( 4.500000000000000000, 5.510910596163088569E-16, 157.0000000000000000 ) ) ;
#377 = ORIENTED_EDGE ( 'NONE', *, *, #98, .T. ) ;
#378 = AXIS2_PLACEMENT_3D ( 'NONE', #80, #261, #204 ) ;
#379 = EDGE_CURVE ( 'NONE', #324, #62, #301, .T. ) ;
#380 = DIRECTION ( 'NONE',  ( 1.000000000000000000, 0.000000000000000000, 0.000000000000000000 ) ) ;
#381 = FACE_OUTER_BOUND ( 'NONE', #245, .T. ) ;
ENDSEC;
END-ISO-10303-21;
