ISO-10303-21;
HEADER;
FILE_DESCRIPTION (( 'STEP AP203' ),
    '1' );
FILE_NAME ('2dd1.STEP',
    '2022-07-08T15:12:02',
    ( '' ),
    ( '' ),
    'SwSTEP 2.0',
    'SolidWorks 2019',
    '' );
FILE_SCHEMA (( 'CONFIG_CONTROL_DESIGN' ));
ENDSEC;

DATA;
#1 = CARTESIAN_POINT ( 'NONE',  ( 0.000000000000000000, 0.000000000000000000, 0.000000000000000000 ) ) ;
#2 = DATE_AND_TIME ( #151, #121 ) ;
#3 = ADVANCED_FACE ( 'NONE', ( #237 ), #278, .F. ) ;
#4 = DIRECTION ( 'NONE',  ( 1.000000000000000000, 0.000000000000000000, 0.000000000000000000 ) ) ;
#5 = APPROVAL_ROLE ( '' ) ;
#6 = EDGE_LOOP ( 'NONE', ( #60, #128, #194, #113 ) ) ;
#7 = AXIS2_PLACEMENT_3D ( 'NONE', #160, #72, #269 ) ;
#8 = PERSON_AND_ORGANIZATION_ROLE ( 'classification_officer' ) ;
#9 = ORIENTED_EDGE ( 'NONE', *, *, #217, .F. ) ;
#10 = CALENDAR_DATE ( 2022, 8, 7 ) ;
#11 = LINE ( 'NONE', #131, #333 ) ;
#12 = CARTESIAN_POINT ( 'NONE',  ( 2.500000000000000000, 3.061616997868383141E-16, 357.0000000000000000 ) ) ;
#13 =( GEOMETRIC_REPRESENTATION_CONTEXT ( 3 ) GLOBAL_UNCERTAINTY_ASSIGNED_CONTEXT ( ( #355 ) ) GLOBAL_UNIT_ASSIGNED_CONTEXT ( ( #309, #166, #193 ) ) REPRESENTATION_CONTEXT ( 'NONE', 'WORKASPACE' ) );
#14 = CARTESIAN_POINT ( 'NONE',  ( -10.00000000000000000, 0.000000000000000000, 7.000000000000000000 ) ) ;
#15 = CARTESIAN_POINT ( 'NONE',  ( 0.000000000000000000, 0.000000000000000000, 7.500000000000007105 ) ) ;
#16 = ADVANCED_FACE ( 'NONE', ( #360 ), #130, .F. ) ;
#17 = LINE ( 'NONE', #365, #75 ) ;
#18 = AXIS2_PLACEMENT_3D ( 'NONE', #197, #145, #315 ) ;
#19 = CARTESIAN_POINT ( 'NONE',  ( 0.000000000000000000, 0.000000000000000000, 7.000000000000000000 ) ) ;
#20 = CC_DESIGN_DATE_AND_TIME_ASSIGNMENT ( #177, #319, ( #302 ) ) ;
#21 = PLANE ( 'NONE',  #196 ) ;
#22 = VERTEX_POINT ( 'NONE', #69 ) ;
#23 = CIRCLE ( 'NONE', #322, 10.00000000000000000 ) ;
#24 = DIRECTION ( 'NONE',  ( 0.000000000000000000, 0.000000000000000000, 1.000000000000000000 ) ) ;
#25 = FACE_BOUND ( 'NONE', #86, .T. ) ;
#26 = ORIENTED_EDGE ( 'NONE', *, *, #32, .T. ) ;
#27 = CARTESIAN_POINT ( 'NONE',  ( 10.00000000000000000, 1.224646799147353256E-15, 0.000000000000000000 ) ) ;
#28 = ORIENTED_EDGE ( 'NONE', *, *, #88, .T. ) ;
#29 = APPROVAL_DATE_TIME ( #154, #303 ) ;
#30 = AXIS2_PLACEMENT_3D ( 'NONE', #15, #104, #336 ) ;
#31 = VERTEX_POINT ( 'NONE', #239 ) ;
#32 = EDGE_CURVE ( 'NONE', #206, #31, #170, .T. ) ;
#33 = DATE_TIME_ROLE ( 'creation_date' ) ;
#34 = CARTESIAN_POINT ( 'NONE',  ( 0.000000000000000000, 0.000000000000000000, 7.500000000000007105 ) ) ;
#35 = APPROVAL_ROLE ( '' ) ;
#36 = EDGE_LOOP ( 'NONE', ( #122, #320, #288, #93 ) ) ;
#37 = COORDINATED_UNIVERSAL_TIME_OFFSET ( 1, 0, .AHEAD. ) ;
#38 = CIRCLE ( 'NONE', #372, 2.500000000000000000 ) ;
#39 = LOCAL_TIME ( 17, 12, 2.000000000000000000, #234 ) ;
#40 = APPROVAL_STATUS ( 'not_yet_approved' ) ;
#41 = DIRECTION ( 'NONE',  ( 0.000000000000000000, 0.000000000000000000, 1.000000000000000000 ) ) ;
#42 = FACE_OUTER_BOUND ( 'NONE', #6, .T. ) ;
#43 = PRODUCT_DEFINITION_FORMATION_WITH_SPECIFIED_SOURCE ( 'LIBOVOLNÝ', '', #46, .NOT_KNOWN. ) ;
#44 = EDGE_CURVE ( 'NONE', #31, #206, #120, .T. ) ;
#45 = DIRECTION ( 'NONE',  ( 0.000000000000000000, 0.000000000000000000, 1.000000000000000000 ) ) ;
#46 = PRODUCT ( '2dd1', '2dd1', '', ( #59 ) ) ;
#47 = CARTESIAN_POINT ( 'NONE',  ( 0.000000000000000000, 0.000000000000000000, 0.000000000000000000 ) ) ;
#48 = FACE_OUTER_BOUND ( 'NONE', #317, .T. ) ;
#49 = LOCAL_TIME ( 17, 12, 2.000000000000000000, #230 ) ;
#50 = CARTESIAN_POINT ( 'NONE',  ( 0.000000000000000000, 0.000000000000000000, 7.000000000000000000 ) ) ;
#51 = VERTEX_POINT ( 'NONE', #65 ) ;
#52 = CARTESIAN_POINT ( 'NONE',  ( 0.000000000000000000, 0.000000000000000000, 357.0000000000000000 ) ) ;
#53 = CIRCLE ( 'NONE', #308, 10.00000000000000000 ) ;
#54 = EDGE_CURVE ( 'NONE', #285, #277, #11, .T. ) ;
#55 = DIRECTION ( 'NONE',  ( -1.000000000000000000, 0.000000000000000000, 0.000000000000000000 ) ) ;
#56 = ORIENTED_EDGE ( 'NONE', *, *, #191, .F. ) ;
#57 = FACE_BOUND ( 'NONE', #371, .T. ) ;
#58 = ORIENTED_EDGE ( 'NONE', *, *, #217, .T. ) ;
#59 = MECHANICAL_CONTEXT ( 'NONE', #318, 'mechanical' ) ;
#60 = ORIENTED_EDGE ( 'NONE', *, *, #201, .F. ) ;
#61 = PERSON_AND_ORGANIZATION_ROLE ( 'design_owner' ) ;
#62 = AXIS2_PLACEMENT_3D ( 'NONE', #52, #229, #167 ) ;
#63 = ORIENTED_EDGE ( 'NONE', *, *, #286, .T. ) ;
#64 = COORDINATED_UNIVERSAL_TIME_OFFSET ( 1, 0, .AHEAD. ) ;
#65 = CARTESIAN_POINT ( 'NONE',  ( -10.00000000000000000, 0.000000000000000000, 0.000000000000000000 ) ) ;
#66 = APPLICATION_PROTOCOL_DEFINITION ( 'international standard', 'config_control_design', 1994, #352 ) ;
#67 = ORIENTED_EDGE ( 'NONE', *, *, #138, .F. ) ;
#68 = CALENDAR_DATE ( 2022, 8, 7 ) ;
#69 = CARTESIAN_POINT ( 'NONE',  ( -6.500000000000000888, 7.960204194457796463E-16, 7.000000000000002665 ) ) ;
#70 = ORIENTED_EDGE ( 'NONE', *, *, #337, .F. ) ;
#71 = PRODUCT_RELATED_PRODUCT_CATEGORY ( 'detail', '', ( #46 ) ) ;
#72 = DIRECTION ( 'NONE',  ( -0.000000000000000000, -0.000000000000000000, -1.000000000000000000 ) ) ;
#73 = MANIFOLD_SOLID_BREP ( 'Odebrat vysunutím3', #248 ) ;
#74 = CARTESIAN_POINT ( 'NONE',  ( 0.000000000000000000, 0.000000000000000000, 7.000000000000000000 ) ) ;
#75 = VECTOR ( 'NONE', #186, 1000.000000000000000 ) ;
#76 = APPROVAL ( #359, 'NEURÈENÝ' ) ;
#77 = CARTESIAN_POINT ( 'NONE',  ( 0.000000000000000000, 0.000000000000000000, 357.0000000000000000 ) ) ;
#78 = FACE_BOUND ( 'NONE', #155, .T. ) ;
#79 = DIRECTION ( 'NONE',  ( 1.000000000000000000, 0.000000000000000000, 0.000000000000000000 ) ) ;
#80 = FACE_OUTER_BOUND ( 'NONE', #381, .T. ) ;
#81 = ORIENTED_EDGE ( 'NONE', *, *, #54, .T. ) ;
#82 = DIRECTION ( 'NONE',  ( -1.000000000000000000, 1.224646799147351482E-16, 0.000000000000000000 ) ) ;
#83 = ORIENTED_EDGE ( 'NONE', *, *, #231, .F. ) ;
#84 = AXIS2_PLACEMENT_3D ( 'NONE', #149, #258, #203 ) ;
#85 = DIRECTION ( 'NONE',  ( -1.000000000000000000, 0.000000000000000000, 0.000000000000000000 ) ) ;
#86 = EDGE_LOOP ( 'NONE', ( #373, #247 ) ) ;
#87 = PLANE ( 'NONE',  #262 ) ;
#88 = EDGE_CURVE ( 'NONE', #140, #173, #180, .T. ) ;
#89 = ORIENTED_EDGE ( 'NONE', *, *, #310, .F. ) ;
#90 = VERTEX_POINT ( 'NONE', #299 ) ;
#91 = CALENDAR_DATE ( 2022, 8, 7 ) ;
#92 = CIRCLE ( 'NONE', #313, 2.500000000000000000 ) ;
#93 = ORIENTED_EDGE ( 'NONE', *, *, #213, .F. ) ;
#94 = APPROVAL_DATE_TIME ( #2, #76 ) ;
#95 = ORIENTED_EDGE ( 'NONE', *, *, #114, .F. ) ;
#96 = PERSON_AND_ORGANIZATION_ROLE ( 'creator' ) ;
#97 = EDGE_CURVE ( 'NONE', #295, #22, #368, .T. ) ;
#98 = DIRECTION ( 'NONE',  ( 0.000000000000000000, 0.000000000000000000, -1.000000000000000000 ) ) ;
#99 = CARTESIAN_POINT ( 'NONE',  ( 2.500000000000000000, 3.061616997868383141E-16, 357.0000000000000000 ) ) ;
#100 = VECTOR ( 'NONE', #216, 1000.000000000000000 ) ;
#101 = FACE_OUTER_BOUND ( 'NONE', #224, .T. ) ;
#102 = EDGE_CURVE ( 'NONE', #173, #277, #38, .T. ) ;
#103 = DIRECTION ( 'NONE',  ( 0.000000000000000000, 0.000000000000000000, -1.000000000000000000 ) ) ;
#104 = DIRECTION ( 'NONE',  ( 0.000000000000000000, 0.000000000000000000, 1.000000000000000000 ) ) ;
#105 = AXIS2_PLACEMENT_3D ( 'NONE', #223, #221, #82 ) ;
#106 = CC_DESIGN_SECURITY_CLASSIFICATION ( #302, ( #43 ) ) ;
#107 = DIRECTION ( 'NONE',  ( 1.000000000000000000, 0.000000000000000000, 0.000000000000000000 ) ) ;
#108 = CARTESIAN_POINT ( 'NONE',  ( 0.000000000000000000, 0.000000000000000000, 0.000000000000000000 ) ) ;
#109 = DIRECTION ( 'NONE',  ( 0.000000000000000000, 0.000000000000000000, 1.000000000000000000 ) ) ;
#110 = ORIENTED_EDGE ( 'NONE', *, *, #374, .F. ) ;
#111 = CIRCLE ( 'NONE', #228, 6.000000000000000888 ) ;
#112 = DIRECTION ( 'NONE',  ( 1.000000000000000000, 0.000000000000000000, -0.000000000000000000 ) ) ;
#113 = ORIENTED_EDGE ( 'NONE', *, *, #44, .T. ) ;
#114 = EDGE_CURVE ( 'NONE', #51, #323, #23, .T. ) ;
#115 = ADVANCED_BREP_SHAPE_REPRESENTATION ( '2dd1', ( #73, #340 ), #13 ) ;
#116 = CARTESIAN_POINT ( 'NONE',  ( 0.000000000000000000, 0.000000000000000000, 7.000000000000000000 ) ) ;
#117 = ORIENTED_EDGE ( 'NONE', *, *, #102, .T. ) ;
#118 = FACE_OUTER_BOUND ( 'NONE', #283, .T. ) ;
#119 = ORIENTED_EDGE ( 'NONE', *, *, #132, .F. ) ;
#120 = CIRCLE ( 'NONE', #273, 6.000000000000000888 ) ;
#121 = LOCAL_TIME ( 17, 12, 2.000000000000000000, #291 ) ;
#122 = ORIENTED_EDGE ( 'NONE', *, *, #44, .F. ) ;
#123 = PERSON_AND_ORGANIZATION ( #233, #159 ) ;
#124 = DIRECTION ( 'NONE',  ( -0.000000000000000000, -0.000000000000000000, -1.000000000000000000 ) ) ;
#125 = APPROVAL_DATE_TIME ( #327, #307 ) ;
#126 = AXIS2_PLACEMENT_3D ( 'NONE', #137, #136, #103 ) ;
#127 = APPROVAL_PERSON_ORGANIZATION ( #129, #303, #259 ) ;
#128 = ORIENTED_EDGE ( 'NONE', *, *, #379, .F. ) ;
#129 = PERSON_AND_ORGANIZATION ( #233, #159 ) ;
#130 = CYLINDRICAL_SURFACE ( 'NONE', #162, 2.500000000000000000 ) ;
#131 = CARTESIAN_POINT ( 'NONE',  ( -2.500000000000000000, 0.000000000000000000, 357.0000000000000000 ) ) ;
#132 = EDGE_CURVE ( 'NONE', #235, #51, #293, .T. ) ;
#133 = DIRECTION ( 'NONE',  ( 1.000000000000000000, 0.000000000000000000, 0.000000000000000000 ) ) ;
#134 = VECTOR ( 'NONE', #267, 1000.000000000000000 ) ;
#135 = CARTESIAN_POINT ( 'NONE',  ( 0.000000000000000000, 0.000000000000000000, 357.0000000000000000 ) ) ;
#136 = DIRECTION ( 'NONE',  ( 0.000000000000000000, -1.000000000000000000, 0.000000000000000000 ) ) ;
#137 = CARTESIAN_POINT ( 'NONE',  ( 6.500000000000000888, 0.000000000000000000, 7.500000000000007105 ) ) ;
#138 = EDGE_CURVE ( 'NONE', #90, #168, #363, .T. ) ;
#139 = PLANE ( 'NONE',  #330 ) ;
#140 = VERTEX_POINT ( 'NONE', #12 ) ;
#141 = AXIS2_PLACEMENT_3D ( 'NONE', #74, #331, #133 ) ;
#142 = DIRECTION ( 'NONE',  ( 1.000000000000000000, 0.000000000000000000, 0.000000000000000000 ) ) ;
#143 = DIRECTION ( 'NONE',  ( -0.000000000000000000, -0.000000000000000000, -1.000000000000000000 ) ) ;
#144 = EDGE_LOOP ( 'NONE', ( #153, #28, #117, #378 ) ) ;
#145 = DIRECTION ( 'NONE',  ( -0.000000000000000000, -0.000000000000000000, -1.000000000000000000 ) ) ;
#146 = ORIENTED_EDGE ( 'NONE', *, *, #114, .T. ) ;
#147 = AXIS2_PLACEMENT_3D ( 'NONE', #304, #161, #338 ) ;
#148 = DESIGN_CONTEXT ( 'detailed design', #352, 'design' ) ;
#149 = CARTESIAN_POINT ( 'NONE',  ( 0.000000000000000000, 0.000000000000000000, 7.000000000000000000 ) ) ;
#150 = ORIENTED_EDGE ( 'NONE', *, *, #213, .T. ) ;
#151 = CALENDAR_DATE ( 2022, 8, 7 ) ;
#152 = ORIENTED_EDGE ( 'NONE', *, *, #310, .T. ) ;
#153 = ORIENTED_EDGE ( 'NONE', *, *, #231, .T. ) ;
#154 = DATE_AND_TIME ( #91, #39 ) ;
#155 = EDGE_LOOP ( 'NONE', ( #83, #314 ) ) ;
#156 = EDGE_CURVE ( 'NONE', #235, #311, #164, .T. ) ;
#157 = PRODUCT_DEFINITION ( 'NEZNÁMÝ', '', #43, #148 ) ;
#158 = CARTESIAN_POINT ( 'NONE',  ( 2.500000000000000000, 3.061616997868383141E-16, 0.000000000000000000 ) ) ;
#159 = ORGANIZATION ( 'NEURÈENÝ', 'NEURÈENÝ', '' ) ;
#160 = CARTESIAN_POINT ( 'NONE',  ( 0.000000000000000000, 0.000000000000000000, 357.0000000000000000 ) ) ;
#161 = DIRECTION ( 'NONE',  ( 0.000000000000000000, 0.000000000000000000, 1.000000000000000000 ) ) ;
#162 = AXIS2_PLACEMENT_3D ( 'NONE', #184, #98, #328 ) ;
#163 = DIRECTION ( 'NONE',  ( -0.000000000000000000, -0.000000000000000000, -1.000000000000000000 ) ) ;
#164 = CIRCLE ( 'NONE', #141, 10.00000000000000000 ) ;
#165 = CC_DESIGN_APPROVAL ( #76, ( #157 ) ) ;
#166 =( NAMED_UNIT ( * ) PLANE_ANGLE_UNIT ( ) SI_UNIT ( $, .RADIAN. ) );
#167 = DIRECTION ( 'NONE',  ( -1.000000000000000000, 0.000000000000000000, 0.000000000000000000 ) ) ;
#168 = VERTEX_POINT ( 'NONE', #271 ) ;
#169 = DIRECTION ( 'NONE',  ( 1.000000000000000000, 0.000000000000000000, -0.000000000000000000 ) ) ;
#170 = CIRCLE ( 'NONE', #272, 6.000000000000000888 ) ;
#171 = CYLINDRICAL_SURFACE ( 'NONE', #183, 2.500000000000000000 ) ;
#172 = EDGE_LOOP ( 'NONE', ( #256, #343, #81, #63 ) ) ;
#173 = VERTEX_POINT ( 'NONE', #158 ) ;
#174 = PERSON_AND_ORGANIZATION ( #233, #159 ) ;
#175 = ORIENTED_EDGE ( 'NONE', *, *, #279, .T. ) ;
#176 = AXIS2_PLACEMENT_3D ( 'NONE', #108, #218, #79 ) ;
#177 = DATE_AND_TIME ( #68, #356 ) ;
#178 = CARTESIAN_POINT ( 'NONE',  ( 0.000000000000000000, 0.000000000000000000, 7.500000000000007105 ) ) ;
#179 = PERSON_AND_ORGANIZATION ( #233, #159 ) ;
#180 = LINE ( 'NONE', #99, #227 ) ;
#181 = DATE_AND_TIME ( #10, #289 ) ;
#182 = ORIENTED_EDGE ( 'NONE', *, *, #201, .T. ) ;
#183 = AXIS2_PLACEMENT_3D ( 'NONE', #226, #377, #85 ) ;
#184 = CARTESIAN_POINT ( 'NONE',  ( 0.000000000000000000, 0.000000000000000000, 357.0000000000000000 ) ) ;
#185 = DIRECTION ( 'NONE',  ( 0.000000000000000000, 0.000000000000000000, -1.000000000000000000 ) ) ;
#186 = DIRECTION ( 'NONE',  ( -0.000000000000000000, -0.000000000000000000, -1.000000000000000000 ) ) ;
#187 = CIRCLE ( 'NONE', #176, 2.500000000000000000 ) ;
#188 = ADVANCED_FACE ( 'NONE', ( #78, #274 ), #139, .T. ) ;
#189 = CARTESIAN_POINT ( 'NONE',  ( 6.000000000000000888, 7.347880794884120722E-16, 7.500000000000007105 ) ) ;
#190 = AXIS2_PLACEMENT_3D ( 'NONE', #246, #268, #332 ) ;
#191 = EDGE_CURVE ( 'NONE', #168, #31, #17, .T. ) ;
#192 = CARTESIAN_POINT ( 'NONE',  ( 6.500000000000000888, 0.000000000000000000, 7.000000000000002665 ) ) ;
#193 =( NAMED_UNIT ( * ) SI_UNIT ( $, .STERADIAN. ) SOLID_ANGLE_UNIT ( ) );
#194 = ORIENTED_EDGE ( 'NONE', *, *, #191, .T. ) ;
#195 = DIRECTION ( 'NONE',  ( 0.000000000000000000, 0.000000000000000000, 1.000000000000000000 ) ) ;
#196 = AXIS2_PLACEMENT_3D ( 'NONE', #116, #195, #112 ) ;
#197 = CARTESIAN_POINT ( 'NONE',  ( 0.000000000000000000, 0.000000000000000000, 7.000000000000000000 ) ) ;
#198 = CC_DESIGN_DATE_AND_TIME_ASSIGNMENT ( #181, #33, ( #157 ) ) ;
#199 = ORIENTED_EDGE ( 'NONE', *, *, #379, .T. ) ;
#200 = CARTESIAN_POINT ( 'NONE',  ( 0.000000000000000000, 0.000000000000000000, 0.000000000000000000 ) ) ;
#201 = EDGE_CURVE ( 'NONE', #90, #206, #306, .T. ) ;
#202 = SECURITY_CLASSIFICATION_LEVEL ( 'unclassified' ) ;
#203 = DIRECTION ( 'NONE',  ( 1.000000000000000000, 0.000000000000000000, 0.000000000000000000 ) ) ;
#204 = CC_DESIGN_PERSON_AND_ORGANIZATION_ASSIGNMENT ( #179, #205, ( #43 ) ) ;
#205 = PERSON_AND_ORGANIZATION_ROLE ( 'design_supplier' ) ;
#206 = VERTEX_POINT ( 'NONE', #189 ) ;
#207 = PERSON_AND_ORGANIZATION ( #233, #159 ) ;
#208 = DIRECTION ( 'NONE',  ( 1.000000000000000000, 0.000000000000000000, 0.000000000000000000 ) ) ;
#209 = CIRCLE ( 'NONE', #18, 6.500000000000000888 ) ;
#210 = DIRECTION ( 'NONE',  ( 1.000000000000000000, 0.000000000000000000, 0.000000000000000000 ) ) ;
#211 = CYLINDRICAL_SURFACE ( 'NONE', #7, 6.000000000000000888 ) ;
#212 = CYLINDRICAL_SURFACE ( 'NONE', #190, 10.00000000000000000 ) ;
#213 = EDGE_CURVE ( 'NONE', #206, #295, #281, .T. ) ;
#214 = CARTESIAN_POINT ( 'NONE',  ( -10.00000000000000000, 0.000000000000000000, 7.000000000000000000 ) ) ;
#215 = TOROIDAL_SURFACE ( 'NONE', #30, 6.500000000000000888, 0.5000000000000000000 ) ;
#216 = DIRECTION ( 'NONE',  ( -0.000000000000000000, -0.000000000000000000, -1.000000000000000000 ) ) ;
#217 = EDGE_CURVE ( 'NONE', #311, #323, #364, .T. ) ;
#218 = DIRECTION ( 'NONE',  ( -0.000000000000000000, -0.000000000000000000, -1.000000000000000000 ) ) ;
#219 = APPROVAL_PERSON_ORGANIZATION ( #207, #307, #5 ) ;
#220 = CC_DESIGN_PERSON_AND_ORGANIZATION_ASSIGNMENT ( #123, #61, ( #46 ) ) ;
#221 = DIRECTION ( 'NONE',  ( 1.224646799147353207E-16, 1.000000000000000000, -0.000000000000000000 ) ) ;
#222 = ORIENTED_EDGE ( 'NONE', *, *, #286, .F. ) ;
#223 = CARTESIAN_POINT ( 'NONE',  ( -6.500000000000000888, 7.960204194457796463E-16, 7.500000000000007105 ) ) ;
#224 = EDGE_LOOP ( 'NONE', ( #9, #251, #321, #146 ) ) ;
#225 = ADVANCED_FACE ( 'NONE', ( #101 ), #212, .T. ) ;
#226 = CARTESIAN_POINT ( 'NONE',  ( 0.000000000000000000, 0.000000000000000000, 357.0000000000000000 ) ) ;
#227 = VECTOR ( 'NONE', #185, 1000.000000000000000 ) ;
#228 = AXIS2_PLACEMENT_3D ( 'NONE', #280, #255, #276 ) ;
#229 = DIRECTION ( 'NONE',  ( -0.000000000000000000, -0.000000000000000000, -1.000000000000000000 ) ) ;
#230 = COORDINATED_UNIVERSAL_TIME_OFFSET ( 1, 0, .AHEAD. ) ;
#231 = EDGE_CURVE ( 'NONE', #285, #140, #329, .T. ) ;
#232 = DIRECTION ( 'NONE',  ( 1.000000000000000000, 0.000000000000000000, 0.000000000000000000 ) ) ;
#233 = PERSON ( 'NEURÈENÝ', 'NEURÈENÝ', 'NEURÈENÝ', ('NEURÈENÝ'), ('NEURÈENÝ'), ('NEURÈENÝ') ) ;
#234 = COORDINATED_UNIVERSAL_TIME_OFFSET ( 1, 0, .AHEAD. ) ;
#235 = VERTEX_POINT ( 'NONE', #214 ) ;
#236 = AXIS2_PLACEMENT_3D ( 'NONE', #77, #243, #305 ) ;
#237 = FACE_OUTER_BOUND ( 'NONE', #36, .T. ) ;
#238 = PERSON_AND_ORGANIZATION ( #233, #159 ) ;
#239 = CARTESIAN_POINT ( 'NONE',  ( -6.000000000000000888, 0.000000000000000000, 7.500000000000007105 ) ) ;
#240 = CIRCLE ( 'NONE', #105, 0.5000000000000004441 ) ;
#241 = DIRECTION ( 'NONE',  ( 1.000000000000000000, 0.000000000000000000, -0.000000000000000000 ) ) ;
#242 = ADVANCED_FACE ( 'NONE', ( #245 ), #211, .T. ) ;
#243 = DIRECTION ( 'NONE',  ( 0.000000000000000000, 0.000000000000000000, 1.000000000000000000 ) ) ;
#244 = PRODUCT_DEFINITION_SHAPE ( 'NONE', 'NONE',  #157 ) ;
#245 = FACE_OUTER_BOUND ( 'NONE', #376, .T. ) ;
#246 = CARTESIAN_POINT ( 'NONE',  ( 0.000000000000000000, 0.000000000000000000, 7.000000000000000000 ) ) ;
#247 = ORIENTED_EDGE ( 'NONE', *, *, #374, .T. ) ;
#248 = CLOSED_SHELL ( 'NONE', ( #367, #3, #242, #361, #225, #324, #316, #290, #188, #252, #16 ) ) ;
#249 = ORIENTED_EDGE ( 'NONE', *, *, #32, .F. ) ;
#250 = CARTESIAN_POINT ( 'NONE',  ( 0.000000000000000000, 0.000000000000000000, 0.000000000000000000 ) ) ;
#251 = ORIENTED_EDGE ( 'NONE', *, *, #156, .F. ) ;
#252 = ADVANCED_FACE ( 'NONE', ( #48 ), #215, .F. ) ;
#253 = FACE_OUTER_BOUND ( 'NONE', #144, .T. ) ;
#254 = ORIENTED_EDGE ( 'NONE', *, *, #138, .T. ) ;
#255 = DIRECTION ( 'NONE',  ( 0.000000000000000000, 0.000000000000000000, 1.000000000000000000 ) ) ;
#256 = ORIENTED_EDGE ( 'NONE', *, *, #88, .F. ) ;
#257 = CC_DESIGN_APPROVAL ( #307, ( #43 ) ) ;
#258 = DIRECTION ( 'NONE',  ( -0.000000000000000000, -0.000000000000000000, -1.000000000000000000 ) ) ;
#259 = APPROVAL_ROLE ( '' ) ;
#260 = DIRECTION ( 'NONE',  ( 0.000000000000000000, 0.000000000000000000, 1.000000000000000000 ) ) ;
#261 = PERSON_AND_ORGANIZATION ( #233, #159 ) ;
#262 = AXIS2_PLACEMENT_3D ( 'NONE', #250, #109, #169 ) ;
#263 = PERSON_AND_ORGANIZATION ( #233, #159 ) ;
#264 = DIRECTION ( 'NONE',  ( 0.000000000000000000, 0.000000000000000000, 1.000000000000000000 ) ) ;
#265 = CC_DESIGN_PERSON_AND_ORGANIZATION_ASSIGNMENT ( #261, #96, ( #157 ) ) ;
#266 = DIRECTION ( 'NONE',  ( 0.000000000000000000, 0.000000000000000000, 1.000000000000000000 ) ) ;
#267 = DIRECTION ( 'NONE',  ( -0.000000000000000000, -0.000000000000000000, -1.000000000000000000 ) ) ;
#268 = DIRECTION ( 'NONE',  ( -0.000000000000000000, -0.000000000000000000, -1.000000000000000000 ) ) ;
#269 = DIRECTION ( 'NONE',  ( -1.000000000000000000, 0.000000000000000000, 0.000000000000000000 ) ) ;
#270 = CC_DESIGN_PERSON_AND_ORGANIZATION_ASSIGNMENT ( #174, #294, ( #43 ) ) ;
#271 = CARTESIAN_POINT ( 'NONE',  ( -6.000000000000000888, 0.000000000000000000, 357.0000000000000000 ) ) ;
#272 = AXIS2_PLACEMENT_3D ( 'NONE', #298, #41, #292 ) ;
#273 = AXIS2_PLACEMENT_3D ( 'NONE', #34, #266, #210 ) ;
#274 = FACE_OUTER_BOUND ( 'NONE', #348, .T. ) ;
#275 = APPROVAL_PERSON_ORGANIZATION ( #263, #76, #35 ) ;
#276 = DIRECTION ( 'NONE',  ( 1.000000000000000000, 0.000000000000000000, 0.000000000000000000 ) ) ;
#277 = VERTEX_POINT ( 'NONE', #301 ) ;
#278 = TOROIDAL_SURFACE ( 'NONE', #287, 6.500000000000000888, 0.5000000000000000000 ) ;
#279 = EDGE_CURVE ( 'NONE', #323, #51, #53, .T. ) ;
#280 = CARTESIAN_POINT ( 'NONE',  ( 0.000000000000000000, 0.000000000000000000, 357.0000000000000000 ) ) ;
#281 = CIRCLE ( 'NONE', #126, 0.5000000000000004441 ) ;
#282 = CARTESIAN_POINT ( 'NONE',  ( 0.000000000000000000, 0.000000000000000000, 357.0000000000000000 ) ) ;
#283 = EDGE_LOOP ( 'NONE', ( #95, #345 ) ) ;
#284 = CYLINDRICAL_SURFACE ( 'NONE', #62, 6.000000000000000888 ) ;
#285 = VERTEX_POINT ( 'NONE', #370 ) ;
#286 = EDGE_CURVE ( 'NONE', #277, #173, #187, .T. ) ;
#287 = AXIS2_PLACEMENT_3D ( 'NONE', #178, #264, #208 ) ;
#288 = ORIENTED_EDGE ( 'NONE', *, *, #97, .F. ) ;
#289 = LOCAL_TIME ( 17, 12, 2.000000000000000000, #64 ) ;
#290 = ADVANCED_FACE ( 'NONE', ( #42 ), #284, .T. ) ;
#291 = COORDINATED_UNIVERSAL_TIME_OFFSET ( 1, 0, .AHEAD. ) ;
#292 = DIRECTION ( 'NONE',  ( 1.000000000000000000, 0.000000000000000000, 0.000000000000000000 ) ) ;
#293 = LINE ( 'NONE', #14, #334 ) ;
#294 = PERSON_AND_ORGANIZATION_ROLE ( 'creator' ) ;
#295 = VERTEX_POINT ( 'NONE', #192 ) ;
#296 = AXIS2_PLACEMENT_3D ( 'NONE', #50, #143, #55 ) ;
#297 = APPROVAL_STATUS ( 'not_yet_approved' ) ;
#298 = CARTESIAN_POINT ( 'NONE',  ( 0.000000000000000000, 0.000000000000000000, 7.500000000000007105 ) ) ;
#299 = CARTESIAN_POINT ( 'NONE',  ( 6.000000000000000888, 7.347880794884120722E-16, 357.0000000000000000 ) ) ;
#300 = EDGE_CURVE ( 'NONE', #140, #285, #92, .T. ) ;
#301 = CARTESIAN_POINT ( 'NONE',  ( -2.500000000000000000, 0.000000000000000000, 0.000000000000000000 ) ) ;
#302 = SECURITY_CLASSIFICATION ( '', '', #202 ) ;
#303 = APPROVAL ( #40, 'NEURÈENÝ' ) ;
#304 = CARTESIAN_POINT ( 'NONE',  ( 0.000000000000000000, 0.000000000000000000, 357.0000000000000000 ) ) ;
#305 = DIRECTION ( 'NONE',  ( 1.000000000000000000, 0.000000000000000000, 0.000000000000000000 ) ) ;
#306 = LINE ( 'NONE', #339, #134 ) ;
#307 = APPROVAL ( #297, 'NEURÈENÝ' ) ;
#308 = AXIS2_PLACEMENT_3D ( 'NONE', #47, #369, #107 ) ;
#309 =( LENGTH_UNIT ( ) NAMED_UNIT ( * ) SI_UNIT ( .MILLI., .METRE. ) );
#310 = EDGE_CURVE ( 'NONE', #311, #235, #380, .T. ) ;
#311 = VERTEX_POINT ( 'NONE', #349 ) ;
#312 = CYLINDRICAL_SURFACE ( 'NONE', #296, 10.00000000000000000 ) ;
#313 = AXIS2_PLACEMENT_3D ( 'NONE', #282, #346, #344 ) ;
#314 = ORIENTED_EDGE ( 'NONE', *, *, #300, .F. ) ;
#315 = DIRECTION ( 'NONE',  ( 1.000000000000000000, 0.000000000000000000, 0.000000000000000000 ) ) ;
#316 = ADVANCED_FACE ( 'NONE', ( #57, #118 ), #87, .F. ) ;
#317 = EDGE_LOOP ( 'NONE', ( #70, #249, #150, #110 ) ) ;
#318 = APPLICATION_CONTEXT ( 'configuration controlled 3d designs of mechanical parts and assemblies' ) ;
#319 = DATE_TIME_ROLE ( 'classification_date' ) ;
#320 = ORIENTED_EDGE ( 'NONE', *, *, #337, .T. ) ;
#321 = ORIENTED_EDGE ( 'NONE', *, *, #132, .T. ) ;
#322 = AXIS2_PLACEMENT_3D ( 'NONE', #353, #260, #4 ) ;
#323 = VERTEX_POINT ( 'NONE', #27 ) ;
#324 = ADVANCED_FACE ( 'NONE', ( #25, #375 ), #21, .T. ) ;
#325 = DIRECTION ( 'NONE',  ( 1.000000000000000000, 0.000000000000000000, 0.000000000000000000 ) ) ;
#326 = ORIENTED_EDGE ( 'NONE', *, *, #156, .T. ) ;
#327 = DATE_AND_TIME ( #357, #49 ) ;
#328 = DIRECTION ( 'NONE',  ( -1.000000000000000000, 0.000000000000000000, 0.000000000000000000 ) ) ;
#329 = CIRCLE ( 'NONE', #147, 2.500000000000000000 ) ;
#330 = AXIS2_PLACEMENT_3D ( 'NONE', #135, #45, #241 ) ;
#331 = DIRECTION ( 'NONE',  ( 0.000000000000000000, 0.000000000000000000, 1.000000000000000000 ) ) ;
#332 = DIRECTION ( 'NONE',  ( -1.000000000000000000, 0.000000000000000000, 0.000000000000000000 ) ) ;
#333 = VECTOR ( 'NONE', #362, 1000.000000000000000 ) ;
#334 = VECTOR ( 'NONE', #163, 1000.000000000000000 ) ;
#335 = CC_DESIGN_APPROVAL ( #303, ( #302 ) ) ;
#336 = DIRECTION ( 'NONE',  ( 1.000000000000000000, 0.000000000000000000, 0.000000000000000000 ) ) ;
#337 = EDGE_CURVE ( 'NONE', #31, #22, #240, .T. ) ;
#338 = DIRECTION ( 'NONE',  ( 1.000000000000000000, 0.000000000000000000, 0.000000000000000000 ) ) ;
#339 = CARTESIAN_POINT ( 'NONE',  ( 6.000000000000000888, 7.347880794884120722E-16, 357.0000000000000000 ) ) ;
#340 = AXIS2_PLACEMENT_3D ( 'NONE', #200, #354, #325 ) ;
#341 = ORIENTED_EDGE ( 'NONE', *, *, #102, .F. ) ;
#342 = APPLICATION_PROTOCOL_DEFINITION ( 'international standard', 'config_control_design', 1994, #318 ) ;
#343 = ORIENTED_EDGE ( 'NONE', *, *, #300, .T. ) ;
#344 = DIRECTION ( 'NONE',  ( 1.000000000000000000, 0.000000000000000000, 0.000000000000000000 ) ) ;
#345 = ORIENTED_EDGE ( 'NONE', *, *, #279, .F. ) ;
#346 = DIRECTION ( 'NONE',  ( 0.000000000000000000, 0.000000000000000000, 1.000000000000000000 ) ) ;
#347 = AXIS2_PLACEMENT_3D ( 'NONE', #19, #24, #142 ) ;
#348 = EDGE_LOOP ( 'NONE', ( #199, #254 ) ) ;
#349 = CARTESIAN_POINT ( 'NONE',  ( 10.00000000000000000, 1.224646799147353256E-15, 7.000000000000000000 ) ) ;
#350 = CC_DESIGN_PERSON_AND_ORGANIZATION_ASSIGNMENT ( #238, #8, ( #302 ) ) ;
#351 = SHAPE_DEFINITION_REPRESENTATION ( #244, #115 ) ;
#352 = APPLICATION_CONTEXT ( 'configuration controlled 3d designs of mechanical parts and assemblies' ) ;
#353 = CARTESIAN_POINT ( 'NONE',  ( 0.000000000000000000, 0.000000000000000000, 0.000000000000000000 ) ) ;
#354 = DIRECTION ( 'NONE',  ( 0.000000000000000000, 0.000000000000000000, 1.000000000000000000 ) ) ;
#355 = UNCERTAINTY_MEASURE_WITH_UNIT (LENGTH_MEASURE( 1.000000000000000082E-05 ), #309, 'distance_accuracy_value', 'NONE');
#356 = LOCAL_TIME ( 17, 12, 2.000000000000000000, #37 ) ;
#357 = CALENDAR_DATE ( 2022, 8, 7 ) ;
#358 = EDGE_LOOP ( 'NONE', ( #326, #152 ) ) ;
#359 = APPROVAL_STATUS ( 'not_yet_approved' ) ;
#360 = FACE_OUTER_BOUND ( 'NONE', #172, .T. ) ;
#361 = ADVANCED_FACE ( 'NONE', ( #80 ), #312, .T. ) ;
#362 = DIRECTION ( 'NONE',  ( 0.000000000000000000, 0.000000000000000000, -1.000000000000000000 ) ) ;
#363 = CIRCLE ( 'NONE', #236, 6.000000000000000888 ) ;
#364 = LINE ( 'NONE', #366, #100 ) ;
#365 = CARTESIAN_POINT ( 'NONE',  ( -6.000000000000000888, 0.000000000000000000, 357.0000000000000000 ) ) ;
#366 = CARTESIAN_POINT ( 'NONE',  ( 10.00000000000000000, 1.224646799147353256E-15, 7.000000000000000000 ) ) ;
#367 = ADVANCED_FACE ( 'NONE', ( #253 ), #171, .F. ) ;
#368 = CIRCLE ( 'NONE', #84, 6.500000000000000888 ) ;
#369 = DIRECTION ( 'NONE',  ( 0.000000000000000000, 0.000000000000000000, 1.000000000000000000 ) ) ;
#370 = CARTESIAN_POINT ( 'NONE',  ( -2.500000000000000000, 0.000000000000000000, 357.0000000000000000 ) ) ;
#371 = EDGE_LOOP ( 'NONE', ( #222, #341 ) ) ;
#372 = AXIS2_PLACEMENT_3D ( 'NONE', #1, #124, #232 ) ;
#373 = ORIENTED_EDGE ( 'NONE', *, *, #97, .T. ) ;
#374 = EDGE_CURVE ( 'NONE', #22, #295, #209, .T. ) ;
#375 = FACE_OUTER_BOUND ( 'NONE', #358, .T. ) ;
#376 = EDGE_LOOP ( 'NONE', ( #67, #182, #26, #56 ) ) ;
#377 = DIRECTION ( 'NONE',  ( 0.000000000000000000, 0.000000000000000000, -1.000000000000000000 ) ) ;
#378 = ORIENTED_EDGE ( 'NONE', *, *, #54, .F. ) ;
#379 = EDGE_CURVE ( 'NONE', #168, #90, #111, .T. ) ;
#380 = CIRCLE ( 'NONE', #347, 10.00000000000000000 ) ;
#381 = EDGE_LOOP ( 'NONE', ( #89, #58, #175, #119 ) ) ;
ENDSEC;
END-ISO-10303-21;
