ISO-10303-21;
HEADER;
FILE_DESCRIPTION (( 'STEP AP203' ),
    '1' );
FILE_NAME ('f859.STEP',
    '2022-07-08T15:09:38',
    ( '' ),
    ( '' ),
    'SwSTEP 2.0',
    'SolidWorks 2019',
    '' );
FILE_SCHEMA (( 'CONFIG_CONTROL_DESIGN' ));
ENDSEC;

DATA;
#1 = VERTEX_POINT ( 'NONE', #263 ) ;
#2 = CYLINDRICAL_SURFACE ( 'NONE', #213, 4.000000000000000000 ) ;
#3 = DIRECTION ( 'NONE',  ( 0.000000000000000000, 0.000000000000000000, 1.000000000000000000 ) ) ;
#4 = CARTESIAN_POINT ( 'NONE',  ( 0.000000000000000000, 0.000000000000000000, 0.000000000000000000 ) ) ;
#5 = ADVANCED_FACE ( 'NONE', ( #6 ), #366, .F. ) ;
#6 = FACE_OUTER_BOUND ( 'NONE', #117, .T. ) ;
#7 = APPROVAL_ROLE ( '' ) ;
#8 = ADVANCED_FACE ( 'NONE', ( #289 ), #293, .F. ) ;
#9 = DIRECTION ( 'NONE',  ( -1.000000000000000000, 1.224646799147351482E-16, 0.000000000000000000 ) ) ;
#10 = ORIENTED_EDGE ( 'NONE', *, *, #360, .F. ) ;
#11 = DATE_AND_TIME ( #103, #333 ) ;
#12 = CARTESIAN_POINT ( 'NONE',  ( 0.000000000000000000, 0.000000000000000000, 5.000000000000000000 ) ) ;
#13 = EDGE_CURVE ( 'NONE', #88, #232, #90, .T. ) ;
#14 = DIRECTION ( 'NONE',  ( 1.000000000000000000, 0.000000000000000000, 0.000000000000000000 ) ) ;
#15 = COORDINATED_UNIVERSAL_TIME_OFFSET ( 1, 0, .AHEAD. ) ;
#16 = CARTESIAN_POINT ( 'NONE',  ( 7.000000000000000000, 8.572527594031473190E-16, 0.000000000000000000 ) ) ;
#17 = CIRCLE ( 'NONE', #262, 2.600000000000000089 ) ;
#18 = CARTESIAN_POINT ( 'NONE',  ( 7.000000000000000000, 8.572527594031473190E-16, 5.000000000000000000 ) ) ;
#19 = FACE_OUTER_BOUND ( 'NONE', #190, .T. ) ;
#20 = CC_DESIGN_DATE_AND_TIME_ASSIGNMENT ( #244, #365, ( #378 ) ) ;
#21 = CC_DESIGN_PERSON_AND_ORGANIZATION_ASSIGNMENT ( #196, #161, ( #120 ) ) ;
#22 = DIRECTION ( 'NONE',  ( -1.000000000000000000, 0.000000000000000000, 0.000000000000000000 ) ) ;
#23 = VERTEX_POINT ( 'NONE', #298 ) ;
#24 = DIRECTION ( 'NONE',  ( 0.000000000000000000, 0.000000000000000000, -1.000000000000000000 ) ) ;
#25 = ORIENTED_EDGE ( 'NONE', *, *, #145, .T. ) ;
#26 = CARTESIAN_POINT ( 'NONE',  ( 0.000000000000000000, 0.000000000000000000, 165.0000000000000000 ) ) ;
#27 = EDGE_CURVE ( 'NONE', #168, #310, #308, .T. ) ;
#28 = ORIENTED_EDGE ( 'NONE', *, *, #38, .T. ) ;
#29 = VECTOR ( 'NONE', #264, 1000.000000000000000 ) ;
#30 = LINE ( 'NONE', #201, #29 ) ;
#31 = EDGE_LOOP ( 'NONE', ( #377, #112 ) ) ;
#32 = LINE ( 'NONE', #356, #43 ) ;
#33 =( NAMED_UNIT ( * ) SI_UNIT ( $, .STERADIAN. ) SOLID_ANGLE_UNIT ( ) );
#34 = DIRECTION ( 'NONE',  ( 1.000000000000000000, 0.000000000000000000, 0.000000000000000000 ) ) ;
#35 = DIRECTION ( 'NONE',  ( 1.000000000000000000, 0.000000000000000000, 0.000000000000000000 ) ) ;
#36 = ORIENTED_EDGE ( 'NONE', *, *, #261, .T. ) ;
#37 = COORDINATED_UNIVERSAL_TIME_OFFSET ( 1, 0, .AHEAD. ) ;
#38 = EDGE_CURVE ( 'NONE', #375, #307, #180, .T. ) ;
#39 = DIRECTION ( 'NONE',  ( 1.000000000000000000, 0.000000000000000000, 0.000000000000000000 ) ) ;
#40 = LOCAL_TIME ( 17, 9, 38.00000000000000000, #37 ) ;
#41 = PERSON_AND_ORGANIZATION_ROLE ( 'creator' ) ;
#42 = DIRECTION ( 'NONE',  ( -0.000000000000000000, -0.000000000000000000, -1.000000000000000000 ) ) ;
#43 = VECTOR ( 'NONE', #216, 1000.000000000000000 ) ;
#44 = CARTESIAN_POINT ( 'NONE',  ( -7.000000000000000000, 0.000000000000000000, 5.000000000000000000 ) ) ;
#45 = CARTESIAN_POINT ( 'NONE',  ( -4.000000000000000000, 0.000000000000000000, 165.0000000000000000 ) ) ;
#46 = FACE_OUTER_BOUND ( 'NONE', #249, .T. ) ;
#47 = CARTESIAN_POINT ( 'NONE',  ( 0.000000000000000000, 0.000000000000000000, 5.500000000000005329 ) ) ;
#48 = ORIENTED_EDGE ( 'NONE', *, *, #97, .F. ) ;
#49 = EDGE_CURVE ( 'NONE', #232, #88, #246, .T. ) ;
#50 = CIRCLE ( 'NONE', #114, 7.000000000000000000 ) ;
#51 = PRODUCT_DEFINITION_SHAPE ( 'NONE', 'NONE',  #141 ) ;
#52 = FACE_OUTER_BOUND ( 'NONE', #281, .T. ) ;
#53 = ORIENTED_EDGE ( 'NONE', *, *, #38, .F. ) ;
#54 = CC_DESIGN_PERSON_AND_ORGANIZATION_ASSIGNMENT ( #99, #70, ( #141 ) ) ;
#55 = DIRECTION ( 'NONE',  ( -1.000000000000000000, 0.000000000000000000, 0.000000000000000000 ) ) ;
#56 = AXIS2_PLACEMENT_3D ( 'NONE', #354, #63, #327 ) ;
#57 = EDGE_LOOP ( 'NONE', ( #150, #83, #48, #147 ) ) ;
#58 = EDGE_CURVE ( 'NONE', #98, #208, #228, .T. ) ;
#59 = ORIENTED_EDGE ( 'NONE', *, *, #224, .T. ) ;
#60 = VECTOR ( 'NONE', #42, 1000.000000000000000 ) ;
#61 = CC_DESIGN_PERSON_AND_ORGANIZATION_ASSIGNMENT ( #329, #41, ( #120 ) ) ;
#62 = CARTESIAN_POINT ( 'NONE',  ( 0.000000000000000000, 0.000000000000000000, 0.000000000000000000 ) ) ;
#63 = DIRECTION ( 'NONE',  ( 0.000000000000000000, 0.000000000000000000, -1.000000000000000000 ) ) ;
#64 = AXIS2_PLACEMENT_3D ( 'NONE', #66, #3, #181 ) ;
#65 = ADVANCED_FACE ( 'NONE', ( #124 ), #2, .T. ) ;
#66 = CARTESIAN_POINT ( 'NONE',  ( 0.000000000000000000, 0.000000000000000000, 5.500000000000005329 ) ) ;
#67 = AXIS2_PLACEMENT_3D ( 'NONE', #26, #248, #346 ) ;
#68 = DIRECTION ( 'NONE',  ( 0.000000000000000000, 0.000000000000000000, 1.000000000000000000 ) ) ;
#69 = CARTESIAN_POINT ( 'NONE',  ( 0.000000000000000000, 0.000000000000000000, 0.000000000000000000 ) ) ;
#70 = PERSON_AND_ORGANIZATION_ROLE ( 'creator' ) ;
#71 = ORIENTED_EDGE ( 'NONE', *, *, #107, .F. ) ;
#72 = CARTESIAN_POINT ( 'NONE',  ( -4.500000000000000888, 5.510910596163088569E-16, 5.000000000000002665 ) ) ;
#73 = EDGE_LOOP ( 'NONE', ( #160, #343, #28, #268 ) ) ;
#74 = CALENDAR_DATE ( 2022, 8, 7 ) ;
#75 = AXIS2_PLACEMENT_3D ( 'NONE', #148, #255, #314 ) ;
#76 = LOCAL_TIME ( 17, 9, 38.00000000000000000, #15 ) ;
#77 = DIRECTION ( 'NONE',  ( 0.000000000000000000, 0.000000000000000000, -1.000000000000000000 ) ) ;
#78 = EDGE_CURVE ( 'NONE', #171, #375, #32, .T. ) ;
#79 = CARTESIAN_POINT ( 'NONE',  ( 4.000000000000000000, 4.898587196589412829E-16, 165.0000000000000000 ) ) ;
#80 =( GEOMETRIC_REPRESENTATION_CONTEXT ( 3 ) GLOBAL_UNCERTAINTY_ASSIGNED_CONTEXT ( ( #101 ) ) GLOBAL_UNIT_ASSIGNED_CONTEXT ( ( #214, #381, #33 ) ) REPRESENTATION_CONTEXT ( 'NONE', 'WORKASPACE' ) );
#81 = LOCAL_TIME ( 17, 9, 38.00000000000000000, #334 ) ;
#82 = CYLINDRICAL_SURFACE ( 'NONE', #87, 4.000000000000000000 ) ;
#83 = ORIENTED_EDGE ( 'NONE', *, *, #58, .T. ) ;
#84 = CARTESIAN_POINT ( 'NONE',  ( -2.600000000000000089, 0.000000000000000000, 165.0000000000000000 ) ) ;
#85 = ORIENTED_EDGE ( 'NONE', *, *, #252, .T. ) ;
#86 = ORIENTED_EDGE ( 'NONE', *, *, #224, .F. ) ;
#87 = AXIS2_PLACEMENT_3D ( 'NONE', #229, #89, #55 ) ;
#88 = VERTEX_POINT ( 'NONE', #178 ) ;
#89 = DIRECTION ( 'NONE',  ( -0.000000000000000000, -0.000000000000000000, -1.000000000000000000 ) ) ;
#90 = CIRCLE ( 'NONE', #322, 7.000000000000000000 ) ;
#91 = VERTEX_POINT ( 'NONE', #288 ) ;
#92 = AXIS2_PLACEMENT_3D ( 'NONE', #221, #166, #134 ) ;
#93 = CC_DESIGN_APPROVAL ( #258, ( #378 ) ) ;
#94 = APPLICATION_PROTOCOL_DEFINITION ( 'international standard', 'config_control_design', 1994, #102 ) ;
#95 = CARTESIAN_POINT ( 'NONE',  ( -4.000000000000000000, 0.000000000000000000, 5.500000000000005329 ) ) ;
#96 = DATE_AND_TIME ( #353, #305 ) ;
#97 = EDGE_CURVE ( 'NONE', #91, #208, #374, .T. ) ;
#98 = VERTEX_POINT ( 'NONE', #95 ) ;
#99 = PERSON_AND_ORGANIZATION ( #177, #351 ) ;
#100 = DIRECTION ( 'NONE',  ( 1.000000000000000000, 0.000000000000000000, 0.000000000000000000 ) ) ;
#101 = UNCERTAINTY_MEASURE_WITH_UNIT (LENGTH_MEASURE( 1.000000000000000082E-05 ), #214, 'distance_accuracy_value', 'NONE');
#102 = APPLICATION_CONTEXT ( 'configuration controlled 3d designs of mechanical parts and assemblies' ) ;
#103 = CALENDAR_DATE ( 2022, 8, 7 ) ;
#104 = CARTESIAN_POINT ( 'NONE',  ( 4.000000000000000000, 4.898587196589412829E-16, 5.500000000000005329 ) ) ;
#105 = CYLINDRICAL_SURFACE ( 'NONE', #175, 2.600000000000000089 ) ;
#106 = AXIS2_PLACEMENT_3D ( 'NONE', #12, #260, #100 ) ;
#107 = EDGE_CURVE ( 'NONE', #23, #187, #321, .T. ) ;
#108 = DIRECTION ( 'NONE',  ( 0.000000000000000000, 0.000000000000000000, -1.000000000000000000 ) ) ;
#109 = CC_DESIGN_PERSON_AND_ORGANIZATION_ASSIGNMENT ( #212, #176, ( #199 ) ) ;
#110 = AXIS2_PLACEMENT_3D ( 'NONE', #233, #352, #34 ) ;
#111 = CARTESIAN_POINT ( 'NONE',  ( -2.600000000000000089, 0.000000000000000000, 0.000000000000000000 ) ) ;
#112 = ORIENTED_EDGE ( 'NONE', *, *, #27, .T. ) ;
#113 = DIRECTION ( 'NONE',  ( 0.000000000000000000, 0.000000000000000000, 1.000000000000000000 ) ) ;
#114 = AXIS2_PLACEMENT_3D ( 'NONE', #203, #309, #373 ) ;
#115 = ORIENTED_EDGE ( 'NONE', *, *, #194, .F. ) ;
#116 = AXIS2_PLACEMENT_3D ( 'NONE', #162, #276, #335 ) ;
#117 = EDGE_LOOP ( 'NONE', ( #230, #285, #122, #206 ) ) ;
#118 = ORIENTED_EDGE ( 'NONE', *, *, #13, .T. ) ;
#119 = CARTESIAN_POINT ( 'NONE',  ( 0.000000000000000000, 0.000000000000000000, 165.0000000000000000 ) ) ;
#120 = PRODUCT_DEFINITION_FORMATION_WITH_SPECIFIED_SOURCE ( 'LIBOVOLNÝ', '', #199, .NOT_KNOWN. ) ;
#121 = ADVANCED_FACE ( 'NONE', ( #225, #197 ), #245, .F. ) ;
#122 = ORIENTED_EDGE ( 'NONE', *, *, #242, .T. ) ;
#123 = CARTESIAN_POINT ( 'NONE',  ( 2.600000000000000089, 3.184081677783118191E-16, 0.000000000000000000 ) ) ;
#124 = FACE_OUTER_BOUND ( 'NONE', #287, .T. ) ;
#125 = CC_DESIGN_DATE_AND_TIME_ASSIGNMENT ( #219, #133, ( #141 ) ) ;
#126 = DIRECTION ( 'NONE',  ( 0.000000000000000000, 0.000000000000000000, 1.000000000000000000 ) ) ;
#127 = ADVANCED_FACE ( 'NONE', ( #200, #19 ), #306, .T. ) ;
#128 = CALENDAR_DATE ( 2022, 8, 7 ) ;
#129 = DIRECTION ( 'NONE',  ( -0.000000000000000000, -0.000000000000000000, -1.000000000000000000 ) ) ;
#130 = SECURITY_CLASSIFICATION_LEVEL ( 'unclassified' ) ;
#131 = TOROIDAL_SURFACE ( 'NONE', #344, 4.500000000000000888, 0.5000000000000000000 ) ;
#132 = FACE_OUTER_BOUND ( 'NONE', #251, .T. ) ;
#133 = DATE_TIME_ROLE ( 'creation_date' ) ;
#134 = DIRECTION ( 'NONE',  ( 1.000000000000000000, 0.000000000000000000, 0.000000000000000000 ) ) ;
#135 = AXIS2_PLACEMENT_3D ( 'NONE', #69, #183, #237 ) ;
#136 = DIRECTION ( 'NONE',  ( 0.000000000000000000, 0.000000000000000000, 1.000000000000000000 ) ) ;
#137 = CYLINDRICAL_SURFACE ( 'NONE', #75, 7.000000000000000000 ) ;
#138 = CIRCLE ( 'NONE', #362, 0.5000000000000004441 ) ;
#139 = CC_DESIGN_SECURITY_CLASSIFICATION ( #378, ( #120 ) ) ;
#140 = ORIENTED_EDGE ( 'NONE', *, *, #163, .T. ) ;
#141 = PRODUCT_DEFINITION ( 'NEZNÁMÝ', '', #120, #185 ) ;
#142 = CYLINDRICAL_SURFACE ( 'NONE', #198, 7.000000000000000000 ) ;
#143 = EDGE_LOOP ( 'NONE', ( #115, #347 ) ) ;
#144 = APPLICATION_CONTEXT ( 'configuration controlled 3d designs of mechanical parts and assemblies' ) ;
#145 = EDGE_CURVE ( 'NONE', #310, #88, #367, .T. ) ;
#146 = DIRECTION ( 'NONE',  ( 0.000000000000000000, 0.000000000000000000, 1.000000000000000000 ) ) ;
#147 = ORIENTED_EDGE ( 'NONE', *, *, #242, .F. ) ;
#148 = CARTESIAN_POINT ( 'NONE',  ( 0.000000000000000000, 0.000000000000000000, 5.000000000000000000 ) ) ;
#149 = CIRCLE ( 'NONE', #220, 4.000000000000000000 ) ;
#150 = ORIENTED_EDGE ( 'NONE', *, *, #261, .F. ) ;
#151 = APPROVAL_PERSON_ORGANIZATION ( #269, #258, #222 ) ;
#152 = EDGE_LOOP ( 'NONE', ( #323, #315 ) ) ;
#153 = DIRECTION ( 'NONE',  ( 0.000000000000000000, 0.000000000000000000, 1.000000000000000000 ) ) ;
#154 = AXIS2_PLACEMENT_3D ( 'NONE', #4, #68, #182 ) ;
#155 = DIRECTION ( 'NONE',  ( -0.000000000000000000, -0.000000000000000000, -1.000000000000000000 ) ) ;
#156 = PERSON_AND_ORGANIZATION ( #177, #351 ) ;
#157 = APPROVAL ( #239, 'NEURÈENÝ' ) ;
#158 = AXIS2_PLACEMENT_3D ( 'NONE', #47, #340, #169 ) ;
#159 = FACE_BOUND ( 'NONE', #345, .T. ) ;
#160 = ORIENTED_EDGE ( 'NONE', *, *, #194, .T. ) ;
#161 = PERSON_AND_ORGANIZATION_ROLE ( 'design_supplier' ) ;
#162 = CARTESIAN_POINT ( 'NONE',  ( 0.000000000000000000, 0.000000000000000000, 165.0000000000000000 ) ) ;
#163 = EDGE_CURVE ( 'NONE', #1, #98, #273, .T. ) ;
#164 = APPROVAL_PERSON_ORGANIZATION ( #274, #157, #363 ) ;
#165 = CARTESIAN_POINT ( 'NONE',  ( 0.000000000000000000, 0.000000000000000000, 5.000000000000000000 ) ) ;
#166 = DIRECTION ( 'NONE',  ( -0.000000000000000000, -0.000000000000000000, -1.000000000000000000 ) ) ;
#167 = CARTESIAN_POINT ( 'NONE',  ( -2.600000000000000089, 0.000000000000000000, 165.0000000000000000 ) ) ;
#168 = VERTEX_POINT ( 'NONE', #18 ) ;
#169 = DIRECTION ( 'NONE',  ( 1.000000000000000000, 0.000000000000000000, 0.000000000000000000 ) ) ;
#170 = AXIS2_PLACEMENT_3D ( 'NONE', #189, #299, #14 ) ;
#171 = VERTEX_POINT ( 'NONE', #361 ) ;
#172 = CARTESIAN_POINT ( 'NONE',  ( 0.000000000000000000, 0.000000000000000000, 165.0000000000000000 ) ) ;
#173 = ORIENTED_EDGE ( 'NONE', *, *, #290, .F. ) ;
#174 = DIRECTION ( 'NONE',  ( -0.000000000000000000, -0.000000000000000000, -1.000000000000000000 ) ) ;
#175 = AXIS2_PLACEMENT_3D ( 'NONE', #223, #77, #22 ) ;
#176 = PERSON_AND_ORGANIZATION_ROLE ( 'design_owner' ) ;
#177 = PERSON ( 'NEURÈENÝ', 'NEURÈENÝ', 'NEURÈENÝ', ('NEURÈENÝ'), ('NEURÈENÝ'), ('NEURÈENÝ') ) ;
#178 = CARTESIAN_POINT ( 'NONE',  ( -7.000000000000000000, 0.000000000000000000, 0.000000000000000000 ) ) ;
#179 = COORDINATED_UNIVERSAL_TIME_OFFSET ( 1, 0, .AHEAD. ) ;
#180 = CIRCLE ( 'NONE', #283, 2.600000000000000089 ) ;
#181 = DIRECTION ( 'NONE',  ( 1.000000000000000000, 0.000000000000000000, 0.000000000000000000 ) ) ;
#182 = DIRECTION ( 'NONE',  ( 1.000000000000000000, 0.000000000000000000, 0.000000000000000000 ) ) ;
#183 = DIRECTION ( 'NONE',  ( 0.000000000000000000, 0.000000000000000000, 1.000000000000000000 ) ) ;
#184 = ORIENTED_EDGE ( 'NONE', *, *, #360, .T. ) ;
#185 = DESIGN_CONTEXT ( 'detailed design', #144, 'design' ) ;
#186 = CARTESIAN_POINT ( 'NONE',  ( 0.000000000000000000, 0.000000000000000000, 0.000000000000000000 ) ) ;
#187 = VERTEX_POINT ( 'NONE', #104 ) ;
#188 = EDGE_CURVE ( 'NONE', #208, #91, #337, .T. ) ;
#189 = CARTESIAN_POINT ( 'NONE',  ( 0.000000000000000000, 0.000000000000000000, 165.0000000000000000 ) ) ;
#190 = EDGE_LOOP ( 'NONE', ( #85, #59 ) ) ;
#191 = CIRCLE ( 'NONE', #67, 4.000000000000000000 ) ;
#192 = APPROVAL_PERSON_ORGANIZATION ( #156, #311, #7 ) ;
#193 = DIRECTION ( 'NONE',  ( 1.000000000000000000, 0.000000000000000000, -0.000000000000000000 ) ) ;
#194 = EDGE_CURVE ( 'NONE', #320, #171, #332, .T. ) ;
#195 = DIRECTION ( 'NONE',  ( 1.000000000000000000, 0.000000000000000000, -0.000000000000000000 ) ) ;
#196 = PERSON_AND_ORGANIZATION ( #177, #351 ) ;
#197 = FACE_OUTER_BOUND ( 'NONE', #152, .T. ) ;
#198 = AXIS2_PLACEMENT_3D ( 'NONE', #379, #342, #231 ) ;
#199 = PRODUCT ( 'f859', 'f859', '', ( #326 ) ) ;
#200 = FACE_BOUND ( 'NONE', #143, .T. ) ;
#201 = CARTESIAN_POINT ( 'NONE',  ( 7.000000000000000000, 8.572527594031473190E-16, 5.000000000000000000 ) ) ;
#202 = ORIENTED_EDGE ( 'NONE', *, *, #163, .F. ) ;
#203 = CARTESIAN_POINT ( 'NONE',  ( 0.000000000000000000, 0.000000000000000000, 5.000000000000000000 ) ) ;
#204 = ADVANCED_FACE ( 'NONE', ( #159, #364 ), #218, .T. ) ;
#205 = ORIENTED_EDGE ( 'NONE', *, *, #188, .T. ) ;
#206 = ORIENTED_EDGE ( 'NONE', *, *, #188, .F. ) ;
#207 = DIRECTION ( 'NONE',  ( 1.000000000000000000, 0.000000000000000000, 0.000000000000000000 ) ) ;
#208 = VERTEX_POINT ( 'NONE', #72 ) ;
#209 = DIRECTION ( 'NONE',  ( 0.000000000000000000, 0.000000000000000000, 1.000000000000000000 ) ) ;
#210 = VECTOR ( 'NONE', #24, 1000.000000000000000 ) ;
#211 = ORIENTED_EDGE ( 'NONE', *, *, #145, .F. ) ;
#212 = PERSON_AND_ORGANIZATION ( #177, #351 ) ;
#213 = AXIS2_PLACEMENT_3D ( 'NONE', #119, #358, #234 ) ;
#214 =( LENGTH_UNIT ( ) NAMED_UNIT ( * ) SI_UNIT ( .MILLI., .METRE. ) );
#215 = VECTOR ( 'NONE', #331, 1000.000000000000000 ) ;
#216 = DIRECTION ( 'NONE',  ( 0.000000000000000000, 0.000000000000000000, -1.000000000000000000 ) ) ;
#217 = SHAPE_DEFINITION_REPRESENTATION ( #51, #371 ) ;
#218 = PLANE ( 'NONE',  #319 ) ;
#219 = DATE_AND_TIME ( #74, #40 ) ;
#220 = AXIS2_PLACEMENT_3D ( 'NONE', #284, #146, #370 ) ;
#221 = CARTESIAN_POINT ( 'NONE',  ( 0.000000000000000000, 0.000000000000000000, 5.000000000000000000 ) ) ;
#222 = APPROVAL_ROLE ( '' ) ;
#223 = CARTESIAN_POINT ( 'NONE',  ( 0.000000000000000000, 0.000000000000000000, 165.0000000000000000 ) ) ;
#224 = EDGE_CURVE ( 'NONE', #23, #1, #324, .T. ) ;
#225 = FACE_BOUND ( 'NONE', #227, .T. ) ;
#226 = VECTOR ( 'NONE', #129, 1000.000000000000000 ) ;
#227 = EDGE_LOOP ( 'NONE', ( #10, #53 ) ) ;
#228 = CIRCLE ( 'NONE', #272, 0.5000000000000004441 ) ;
#229 = CARTESIAN_POINT ( 'NONE',  ( 0.000000000000000000, 0.000000000000000000, 165.0000000000000000 ) ) ;
#230 = ORIENTED_EDGE ( 'NONE', *, *, #58, .F. ) ;
#231 = DIRECTION ( 'NONE',  ( -1.000000000000000000, 0.000000000000000000, 0.000000000000000000 ) ) ;
#232 = VERTEX_POINT ( 'NONE', #16 ) ;
#233 = CARTESIAN_POINT ( 'NONE',  ( 0.000000000000000000, 0.000000000000000000, 5.000000000000000000 ) ) ;
#234 = DIRECTION ( 'NONE',  ( -1.000000000000000000, 0.000000000000000000, 0.000000000000000000 ) ) ;
#235 = ADVANCED_FACE ( 'NONE', ( #132 ), #105, .F. ) ;
#236 = PERSON_AND_ORGANIZATION_ROLE ( 'classification_officer' ) ;
#237 = DIRECTION ( 'NONE',  ( 1.000000000000000000, 0.000000000000000000, 0.000000000000000000 ) ) ;
#238 = CALENDAR_DATE ( 2022, 8, 7 ) ;
#239 = APPROVAL_STATUS ( 'not_yet_approved' ) ;
#240 = CIRCLE ( 'NONE', #292, 2.600000000000000089 ) ;
#241 = APPROVAL_DATE_TIME ( #330, #157 ) ;
#242 = EDGE_CURVE ( 'NONE', #187, #91, #138, .T. ) ;
#243 = DIRECTION ( 'NONE',  ( 0.000000000000000000, 0.000000000000000000, 1.000000000000000000 ) ) ;
#244 = DATE_AND_TIME ( #128, #76 ) ;
#245 = PLANE ( 'NONE',  #254 ) ;
#246 = CIRCLE ( 'NONE', #135, 7.000000000000000000 ) ;
#247 = EDGE_CURVE ( 'NONE', #187, #98, #304, .T. ) ;
#248 = DIRECTION ( 'NONE',  ( 0.000000000000000000, 0.000000000000000000, 1.000000000000000000 ) ) ;
#249 = EDGE_LOOP ( 'NONE', ( #341, #328, #277, #211 ) ) ;
#250 = EDGE_CURVE ( 'NONE', #320, #307, #338, .T. ) ;
#251 = EDGE_LOOP ( 'NONE', ( #256, #348, #325, #184 ) ) ;
#252 = EDGE_CURVE ( 'NONE', #1, #23, #191, .T. ) ;
#253 = CARTESIAN_POINT ( 'NONE',  ( -7.000000000000000000, 0.000000000000000000, 5.000000000000000000 ) ) ;
#254 = AXIS2_PLACEMENT_3D ( 'NONE', #303, #136, #193 ) ;
#255 = DIRECTION ( 'NONE',  ( -0.000000000000000000, -0.000000000000000000, -1.000000000000000000 ) ) ;
#256 = ORIENTED_EDGE ( 'NONE', *, *, #78, .F. ) ;
#257 = PRODUCT_RELATED_PRODUCT_CATEGORY ( 'detail', '', ( #199 ) ) ;
#258 = APPROVAL ( #357, 'NEURÈENÝ' ) ;
#259 = DIRECTION ( 'NONE',  ( 1.000000000000000000, 0.000000000000000000, 0.000000000000000000 ) ) ;
#260 = DIRECTION ( 'NONE',  ( 0.000000000000000000, 0.000000000000000000, 1.000000000000000000 ) ) ;
#261 = EDGE_CURVE ( 'NONE', #98, #187, #149, .T. ) ;
#262 = AXIS2_PLACEMENT_3D ( 'NONE', #172, #113, #207 ) ;
#263 = CARTESIAN_POINT ( 'NONE',  ( -4.000000000000000000, 0.000000000000000000, 165.0000000000000000 ) ) ;
#264 = DIRECTION ( 'NONE',  ( -0.000000000000000000, -0.000000000000000000, -1.000000000000000000 ) ) ;
#265 = APPROVAL_STATUS ( 'not_yet_approved' ) ;
#266 = ADVANCED_FACE ( 'NONE', ( #52 ), #137, .T. ) ;
#267 = DIRECTION ( 'NONE',  ( 1.224646799147353207E-16, 1.000000000000000000, -0.000000000000000000 ) ) ;
#268 = ORIENTED_EDGE ( 'NONE', *, *, #250, .F. ) ;
#269 = PERSON_AND_ORGANIZATION ( #177, #351 ) ;
#270 = EDGE_LOOP ( 'NONE', ( #71, #380, #140, #36 ) ) ;
#271 = PERSON_AND_ORGANIZATION ( #177, #351 ) ;
#272 = AXIS2_PLACEMENT_3D ( 'NONE', #295, #267, #9 ) ;
#273 = LINE ( 'NONE', #45, #226 ) ;
#274 = PERSON_AND_ORGANIZATION ( #177, #351 ) ;
#275 = DIRECTION ( 'NONE',  ( 1.000000000000000000, 0.000000000000000000, -0.000000000000000000 ) ) ;
#276 = DIRECTION ( 'NONE',  ( 0.000000000000000000, 0.000000000000000000, 1.000000000000000000 ) ) ;
#277 = ORIENTED_EDGE ( 'NONE', *, *, #49, .T. ) ;
#278 = CC_DESIGN_APPROVAL ( #311, ( #141 ) ) ;
#279 = MANIFOLD_SOLID_BREP ( 'Odebrat vysunutím3', #316 ) ;
#280 = DIRECTION ( 'NONE',  ( 0.000000000000000000, -1.000000000000000000, 0.000000000000000000 ) ) ;
#281 = EDGE_LOOP ( 'NONE', ( #296, #173, #25, #118 ) ) ;
#282 = ORIENTED_EDGE ( 'NONE', *, *, #107, .T. ) ;
#283 = AXIS2_PLACEMENT_3D ( 'NONE', #62, #155, #39 ) ;
#284 = CARTESIAN_POINT ( 'NONE',  ( 0.000000000000000000, 0.000000000000000000, 5.500000000000005329 ) ) ;
#285 = ORIENTED_EDGE ( 'NONE', *, *, #247, .F. ) ;
#286 = DIRECTION ( 'NONE',  ( 1.000000000000000000, 0.000000000000000000, 0.000000000000000000 ) ) ;
#287 = EDGE_LOOP ( 'NONE', ( #86, #282, #318, #202 ) ) ;
#288 = CARTESIAN_POINT ( 'NONE',  ( 4.500000000000000888, 0.000000000000000000, 5.000000000000002665 ) ) ;
#289 = FACE_OUTER_BOUND ( 'NONE', #73, .T. ) ;
#290 = EDGE_CURVE ( 'NONE', #310, #168, #50, .T. ) ;
#291 = FACE_OUTER_BOUND ( 'NONE', #57, .T. ) ;
#292 = AXIS2_PLACEMENT_3D ( 'NONE', #317, #174, #286 ) ;
#293 = CYLINDRICAL_SURFACE ( 'NONE', #56, 2.600000000000000089 ) ;
#294 = APPLICATION_PROTOCOL_DEFINITION ( 'international standard', 'config_control_design', 1994, #144 ) ;
#295 = CARTESIAN_POINT ( 'NONE',  ( -4.500000000000000888, 5.510910596163089556E-16, 5.500000000000005329 ) ) ;
#296 = ORIENTED_EDGE ( 'NONE', *, *, #368, .F. ) ;
#297 = ADVANCED_FACE ( 'NONE', ( #46 ), #142, .T. ) ;
#298 = CARTESIAN_POINT ( 'NONE',  ( 4.000000000000000000, 4.898587196589412829E-16, 165.0000000000000000 ) ) ;
#299 = DIRECTION ( 'NONE',  ( 0.000000000000000000, 0.000000000000000000, 1.000000000000000000 ) ) ;
#300 = CC_DESIGN_APPROVAL ( #157, ( #120 ) ) ;
#301 = EDGE_CURVE ( 'NONE', #171, #320, #17, .T. ) ;
#302 = COORDINATED_UNIVERSAL_TIME_OFFSET ( 1, 0, .AHEAD. ) ;
#303 = CARTESIAN_POINT ( 'NONE',  ( 0.000000000000000000, 0.000000000000000000, 0.000000000000000000 ) ) ;
#304 = CIRCLE ( 'NONE', #158, 4.000000000000000000 ) ;
#305 = LOCAL_TIME ( 17, 9, 38.00000000000000000, #179 ) ;
#306 = PLANE ( 'NONE',  #349 ) ;
#307 = VERTEX_POINT ( 'NONE', #111 ) ;
#308 = CIRCLE ( 'NONE', #106, 7.000000000000000000 ) ;
#309 = DIRECTION ( 'NONE',  ( 0.000000000000000000, 0.000000000000000000, 1.000000000000000000 ) ) ;
#310 = VERTEX_POINT ( 'NONE', #253 ) ;
#311 = APPROVAL ( #265, 'NEURÈENÝ' ) ;
#312 = CARTESIAN_POINT ( 'NONE',  ( 4.500000000000000888, 0.000000000000000000, 5.500000000000005329 ) ) ;
#313 = ORIENTED_EDGE ( 'NONE', *, *, #97, .T. ) ;
#314 = DIRECTION ( 'NONE',  ( -1.000000000000000000, 0.000000000000000000, 0.000000000000000000 ) ) ;
#315 = ORIENTED_EDGE ( 'NONE', *, *, #49, .F. ) ;
#316 = CLOSED_SHELL ( 'NONE', ( #8, #372, #65, #297, #266, #204, #121, #336, #127, #5, #235 ) ) ;
#317 = CARTESIAN_POINT ( 'NONE',  ( 0.000000000000000000, 0.000000000000000000, 0.000000000000000000 ) ) ;
#318 = ORIENTED_EDGE ( 'NONE', *, *, #247, .T. ) ;
#319 = AXIS2_PLACEMENT_3D ( 'NONE', #165, #243, #195 ) ;
#320 = VERTEX_POINT ( 'NONE', #167 ) ;
#321 = LINE ( 'NONE', #79, #215 ) ;
#322 = AXIS2_PLACEMENT_3D ( 'NONE', #186, #153, #35 ) ;
#323 = ORIENTED_EDGE ( 'NONE', *, *, #13, .F. ) ;
#324 = CIRCLE ( 'NONE', #170, 4.000000000000000000 ) ;
#325 = ORIENTED_EDGE ( 'NONE', *, *, #250, .T. ) ;
#326 = MECHANICAL_CONTEXT ( 'NONE', #102, 'mechanical' ) ;
#327 = DIRECTION ( 'NONE',  ( -1.000000000000000000, 0.000000000000000000, 0.000000000000000000 ) ) ;
#328 = ORIENTED_EDGE ( 'NONE', *, *, #368, .T. ) ;
#329 = PERSON_AND_ORGANIZATION ( #177, #351 ) ;
#330 = DATE_AND_TIME ( #238, #81 ) ;
#331 = DIRECTION ( 'NONE',  ( -0.000000000000000000, -0.000000000000000000, -1.000000000000000000 ) ) ;
#332 = CIRCLE ( 'NONE', #116, 2.600000000000000089 ) ;
#333 = LOCAL_TIME ( 17, 9, 38.00000000000000000, #302 ) ;
#334 = COORDINATED_UNIVERSAL_TIME_OFFSET ( 1, 0, .AHEAD. ) ;
#335 = DIRECTION ( 'NONE',  ( 1.000000000000000000, 0.000000000000000000, 0.000000000000000000 ) ) ;
#336 = ADVANCED_FACE ( 'NONE', ( #376 ), #82, .T. ) ;
#337 = CIRCLE ( 'NONE', #92, 4.500000000000000888 ) ;
#338 = LINE ( 'NONE', #84, #210 ) ;
#339 = CC_DESIGN_PERSON_AND_ORGANIZATION_ASSIGNMENT ( #271, #236, ( #378 ) ) ;
#340 = DIRECTION ( 'NONE',  ( 0.000000000000000000, 0.000000000000000000, 1.000000000000000000 ) ) ;
#341 = ORIENTED_EDGE ( 'NONE', *, *, #27, .F. ) ;
#342 = DIRECTION ( 'NONE',  ( -0.000000000000000000, -0.000000000000000000, -1.000000000000000000 ) ) ;
#343 = ORIENTED_EDGE ( 'NONE', *, *, #78, .T. ) ;
#344 = AXIS2_PLACEMENT_3D ( 'NONE', #350, #209, #259 ) ;
#345 = EDGE_LOOP ( 'NONE', ( #313, #205 ) ) ;
#346 = DIRECTION ( 'NONE',  ( 1.000000000000000000, 0.000000000000000000, 0.000000000000000000 ) ) ;
#347 = ORIENTED_EDGE ( 'NONE', *, *, #301, .F. ) ;
#348 = ORIENTED_EDGE ( 'NONE', *, *, #301, .T. ) ;
#349 = AXIS2_PLACEMENT_3D ( 'NONE', #369, #126, #275 ) ;
#350 = CARTESIAN_POINT ( 'NONE',  ( 0.000000000000000000, 0.000000000000000000, 5.500000000000005329 ) ) ;
#351 = ORGANIZATION ( 'NEURÈENÝ', 'NEURÈENÝ', '' ) ;
#352 = DIRECTION ( 'NONE',  ( -0.000000000000000000, -0.000000000000000000, -1.000000000000000000 ) ) ;
#353 = CALENDAR_DATE ( 2022, 8, 7 ) ;
#354 = CARTESIAN_POINT ( 'NONE',  ( 0.000000000000000000, 0.000000000000000000, 165.0000000000000000 ) ) ;
#355 = APPROVAL_DATE_TIME ( #96, #311 ) ;
#356 = CARTESIAN_POINT ( 'NONE',  ( 2.600000000000000089, 3.184081677783118191E-16, 165.0000000000000000 ) ) ;
#357 = APPROVAL_STATUS ( 'not_yet_approved' ) ;
#358 = DIRECTION ( 'NONE',  ( -0.000000000000000000, -0.000000000000000000, -1.000000000000000000 ) ) ;
#359 = APPROVAL_DATE_TIME ( #11, #258 ) ;
#360 = EDGE_CURVE ( 'NONE', #307, #375, #240, .T. ) ;
#361 = CARTESIAN_POINT ( 'NONE',  ( 2.600000000000000089, 3.184081677783118191E-16, 165.0000000000000000 ) ) ;
#362 = AXIS2_PLACEMENT_3D ( 'NONE', #312, #280, #108 ) ;
#363 = APPROVAL_ROLE ( '' ) ;
#364 = FACE_OUTER_BOUND ( 'NONE', #31, .T. ) ;
#365 = DATE_TIME_ROLE ( 'classification_date' ) ;
#366 = TOROIDAL_SURFACE ( 'NONE', #64, 4.500000000000000888, 0.5000000000000000000 ) ;
#367 = LINE ( 'NONE', #44, #60 ) ;
#368 = EDGE_CURVE ( 'NONE', #168, #232, #30, .T. ) ;
#369 = CARTESIAN_POINT ( 'NONE',  ( 0.000000000000000000, 0.000000000000000000, 165.0000000000000000 ) ) ;
#370 = DIRECTION ( 'NONE',  ( 1.000000000000000000, 0.000000000000000000, 0.000000000000000000 ) ) ;
#371 = ADVANCED_BREP_SHAPE_REPRESENTATION ( 'f859', ( #279, #154 ), #80 ) ;
#372 = ADVANCED_FACE ( 'NONE', ( #291 ), #131, .F. ) ;
#373 = DIRECTION ( 'NONE',  ( 1.000000000000000000, 0.000000000000000000, 0.000000000000000000 ) ) ;
#374 = CIRCLE ( 'NONE', #110, 4.500000000000000888 ) ;
#375 = VERTEX_POINT ( 'NONE', #123 ) ;
#376 = FACE_OUTER_BOUND ( 'NONE', #270, .T. ) ;
#377 = ORIENTED_EDGE ( 'NONE', *, *, #290, .T. ) ;
#378 = SECURITY_CLASSIFICATION ( '', '', #130 ) ;
#379 = CARTESIAN_POINT ( 'NONE',  ( 0.000000000000000000, 0.000000000000000000, 5.000000000000000000 ) ) ;
#380 = ORIENTED_EDGE ( 'NONE', *, *, #252, .F. ) ;
#381 =( NAMED_UNIT ( * ) PLANE_ANGLE_UNIT ( ) SI_UNIT ( $, .RADIAN. ) );
ENDSEC;
END-ISO-10303-21;
