ISO-10303-21;
HEADER;
FILE_DESCRIPTION (( 'STEP AP203' ),
    '1' );
FILE_NAME ('ed31.STEP',
    '2022-07-08T15:07:01',
    ( '' ),
    ( '' ),
    'SwSTEP 2.0',
    'SolidWorks 2019',
    '' );
FILE_SCHEMA (( 'CONFIG_CONTROL_DESIGN' ));
ENDSEC;

DATA;
#1 = ORIENTED_EDGE ( 'NONE', *, *, #218, .F. ) ;
#2 = EDGE_CURVE ( 'NONE', #241, #82, #260, .T. ) ;
#3 = EDGE_LOOP ( 'NONE', ( #155, #353, #319, #235 ) ) ;
#4 = ORIENTED_EDGE ( 'NONE', *, *, #377, .F. ) ;
#5 = DIRECTION ( 'NONE',  ( 1.000000000000000000, 0.000000000000000000, 0.000000000000000000 ) ) ;
#6 = EDGE_LOOP ( 'NONE', ( #322, #269 ) ) ;
#7 = ADVANCED_FACE ( 'NONE', ( #98, #246 ), #363, .T. ) ;
#8 = CARTESIAN_POINT ( 'NONE',  ( -4.500000000000000888, 5.510910596163088569E-16, 4.999999999999975131 ) ) ;
#9 = EDGE_LOOP ( 'NONE', ( #289, #230, #57, #54 ) ) ;
#10 = DIRECTION ( 'NONE',  ( 0.000000000000000000, 0.000000000000000000, 1.000000000000000000 ) ) ;
#11 = FACE_OUTER_BOUND ( 'NONE', #238, .T. ) ;
#12 = DIRECTION ( 'NONE',  ( 0.000000000000000000, 0.000000000000000000, 1.000000000000000000 ) ) ;
#13 = DIRECTION ( 'NONE',  ( 0.000000000000000000, 0.000000000000000000, -1.000000000000000000 ) ) ;
#14 = DIRECTION ( 'NONE',  ( 0.000000000000000000, 0.000000000000000000, -1.000000000000000000 ) ) ;
#15 = DIRECTION ( 'NONE',  ( -1.000000000000000000, 0.000000000000000000, 0.000000000000000000 ) ) ;
#16 = LOCAL_TIME ( 17, 7, 1.000000000000000000, #109 ) ;
#17 = CARTESIAN_POINT ( 'NONE',  ( 0.000000000000000000, 0.000000000000000000, 805.0000000000000000 ) ) ;
#18 = FACE_OUTER_BOUND ( 'NONE', #121, .T. ) ;
#19 = EDGE_CURVE ( 'NONE', #324, #297, #66, .T. ) ;
#20 = AXIS2_PLACEMENT_3D ( 'NONE', #161, #364, #304 ) ;
#21 = FACE_OUTER_BOUND ( 'NONE', #290, .T. ) ;
#22 = APPLICATION_CONTEXT ( 'configuration controlled 3d designs of mechanical parts and assemblies' ) ;
#23 = VECTOR ( 'NONE', #156, 1000.000000000000000 ) ;
#24 = COORDINATED_UNIVERSAL_TIME_OFFSET ( 1, 0, .AHEAD. ) ;
#25 = AXIS2_PLACEMENT_3D ( 'NONE', #162, #132, #15 ) ;
#26 = PERSON_AND_ORGANIZATION ( #378, #110 ) ;
#27 = ORIENTED_EDGE ( 'NONE', *, *, #265, .T. ) ;
#28 = ADVANCED_FACE ( 'NONE', ( #336 ), #101, .T. ) ;
#29 = AXIS2_PLACEMENT_3D ( 'NONE', #189, #299, #40 ) ;
#30 = EDGE_LOOP ( 'NONE', ( #228, #357 ) ) ;
#31 = ADVANCED_BREP_SHAPE_REPRESENTATION ( 'ed31', ( #142, #320 ), #314 ) ;
#32 = DATE_AND_TIME ( #296, #369 ) ;
#33 = ORIENTED_EDGE ( 'NONE', *, *, #291, .T. ) ;
#34 = AXIS2_PLACEMENT_3D ( 'NONE', #192, #215, #342 ) ;
#35 = EDGE_CURVE ( 'NONE', #169, #204, #305, .T. ) ;
#36 = CARTESIAN_POINT ( 'NONE',  ( 7.000000000000000000, 8.572527594031473190E-16, 5.000000000000000000 ) ) ;
#37 = VECTOR ( 'NONE', #14, 1000.000000000000000 ) ;
#38 = ORIENTED_EDGE ( 'NONE', *, *, #300, .T. ) ;
#39 = CARTESIAN_POINT ( 'NONE',  ( 0.000000000000000000, 0.000000000000000000, 5.000000000000000000 ) ) ;
#40 = DIRECTION ( 'NONE',  ( 1.000000000000000000, 0.000000000000000000, -0.000000000000000000 ) ) ;
#41 = AXIS2_PLACEMENT_3D ( 'NONE', #248, #251, #104 ) ;
#42 = DIRECTION ( 'NONE',  ( -1.000000000000000000, 0.000000000000000000, 0.000000000000000000 ) ) ;
#43 = DIRECTION ( 'NONE',  ( 1.000000000000000000, 0.000000000000000000, 0.000000000000000000 ) ) ;
#44 = CARTESIAN_POINT ( 'NONE',  ( 0.000000000000000000, 0.000000000000000000, 805.0000000000000000 ) ) ;
#45 = CARTESIAN_POINT ( 'NONE',  ( 0.000000000000000000, 0.000000000000000000, 805.0000000000000000 ) ) ;
#46 = CARTESIAN_POINT ( 'NONE',  ( -4.000000000000000000, 0.000000000000000000, 5.499999999999949374 ) ) ;
#47 = CARTESIAN_POINT ( 'NONE',  ( 0.000000000000000000, 0.000000000000000000, 5.000000000000000000 ) ) ;
#48 = CIRCLE ( 'NONE', #137, 4.000000000000000000 ) ;
#49 = EDGE_CURVE ( 'NONE', #324, #205, #309, .T. ) ;
#50 = APPROVAL_DATE_TIME ( #53, #350 ) ;
#51 = CALENDAR_DATE ( 2022, 8, 7 ) ;
#52 = AXIS2_PLACEMENT_3D ( 'NONE', #94, #242, #165 ) ;
#53 = DATE_AND_TIME ( #308, #16 ) ;
#54 = ORIENTED_EDGE ( 'NONE', *, *, #203, .T. ) ;
#55 = CARTESIAN_POINT ( 'NONE',  ( -7.000000000000000000, 0.000000000000000000, 5.000000000000000000 ) ) ;
#56 = ORIENTED_EDGE ( 'NONE', *, *, #265, .F. ) ;
#57 = ORIENTED_EDGE ( 'NONE', *, *, #250, .T. ) ;
#58 = EDGE_CURVE ( 'NONE', #204, #359, #333, .T. ) ;
#59 = CARTESIAN_POINT ( 'NONE',  ( 0.000000000000000000, 0.000000000000000000, 0.000000000000000000 ) ) ;
#60 = DIRECTION ( 'NONE',  ( -0.000000000000000000, -0.000000000000000000, -1.000000000000000000 ) ) ;
#61 = ORIENTED_EDGE ( 'NONE', *, *, #173, .F. ) ;
#62 = DIRECTION ( 'NONE',  ( -0.000000000000000000, -0.000000000000000000, -1.000000000000000000 ) ) ;
#63 = AXIS2_PLACEMENT_3D ( 'NONE', #70, #193, #163 ) ;
#64 = PLANE ( 'NONE',  #29 ) ;
#65 = CARTESIAN_POINT ( 'NONE',  ( 0.000000000000000000, 0.000000000000000000, 5.499999999999949374 ) ) ;
#66 = LINE ( 'NONE', #249, #318 ) ;
#67 = ADVANCED_FACE ( 'NONE', ( #214 ), #190, .T. ) ;
#68 = VECTOR ( 'NONE', #186, 1000.000000000000000 ) ;
#69 = DIRECTION ( 'NONE',  ( 0.000000000000000000, 0.000000000000000000, 1.000000000000000000 ) ) ;
#70 = CARTESIAN_POINT ( 'NONE',  ( 0.000000000000000000, 0.000000000000000000, 805.0000000000000000 ) ) ;
#71 = CARTESIAN_POINT ( 'NONE',  ( 0.000000000000000000, 0.000000000000000000, 805.0000000000000000 ) ) ;
#72 = FACE_OUTER_BOUND ( 'NONE', #90, .T. ) ;
#73 = DIRECTION ( 'NONE',  ( 0.000000000000000000, 0.000000000000000000, 1.000000000000000000 ) ) ;
#74 = DIRECTION ( 'NONE',  ( -1.000000000000000000, 1.224646799147351482E-16, 0.000000000000000000 ) ) ;
#75 = CIRCLE ( 'NONE', #247, 4.000000000000000000 ) ;
#76 = PRODUCT ( 'ed31', 'ed31', '', ( #225 ) ) ;
#77 = PERSON_AND_ORGANIZATION_ROLE ( 'design_supplier' ) ;
#78 = CC_DESIGN_PERSON_AND_ORGANIZATION_ASSIGNMENT ( #284, #288, ( #335 ) ) ;
#79 = PERSON_AND_ORGANIZATION_ROLE ( 'design_owner' ) ;
#80 = AXIS2_PLACEMENT_3D ( 'NONE', #135, #220, #74 ) ;
#81 = PERSON_AND_ORGANIZATION ( #378, #110 ) ;
#82 = VERTEX_POINT ( 'NONE', #275 ) ;
#83 = DIRECTION ( 'NONE',  ( -0.000000000000000000, -0.000000000000000000, -1.000000000000000000 ) ) ;
#84 = LOCAL_TIME ( 17, 7, 1.000000000000000000, #24 ) ;
#85 = EDGE_LOOP ( 'NONE', ( #295, #38 ) ) ;
#86 = FACE_OUTER_BOUND ( 'NONE', #9, .T. ) ;
#87 = EDGE_LOOP ( 'NONE', ( #166, #355, #180, #278 ) ) ;
#88 = CARTESIAN_POINT ( 'NONE',  ( 7.000000000000000000, 8.572527594031473190E-16, 5.000000000000000000 ) ) ;
#89 = AXIS2_PLACEMENT_3D ( 'NONE', #306, #274, #97 ) ;
#90 = EDGE_LOOP ( 'NONE', ( #151, #326, #292, #144 ) ) ;
#91 = CARTESIAN_POINT ( 'NONE',  ( 0.000000000000000000, 0.000000000000000000, 0.000000000000000000 ) ) ;
#92 = ORIENTED_EDGE ( 'NONE', *, *, #273, .F. ) ;
#93 = CC_DESIGN_APPROVAL ( #350, ( #271 ) ) ;
#94 = CARTESIAN_POINT ( 'NONE',  ( 0.000000000000000000, 0.000000000000000000, 5.000000000000000000 ) ) ;
#95 = ADVANCED_FACE ( 'NONE', ( #72 ), #365, .F. ) ;
#96 = AXIS2_PLACEMENT_3D ( 'NONE', #45, #131, #302 ) ;
#97 = DIRECTION ( 'NONE',  ( -1.000000000000000000, 0.000000000000000000, 0.000000000000000000 ) ) ;
#98 = FACE_BOUND ( 'NONE', #266, .T. ) ;
#99 = CIRCLE ( 'NONE', #52, 7.000000000000000000 ) ;
#100 = CARTESIAN_POINT ( 'NONE',  ( 2.600000000000000089, 3.184081677783118191E-16, 0.000000000000000000 ) ) ;
#101 = CYLINDRICAL_SURFACE ( 'NONE', #89, 7.000000000000000000 ) ;
#102 = EDGE_CURVE ( 'NONE', #262, #268, #196, .T. ) ;
#103 = DIRECTION ( 'NONE',  ( -1.000000000000000000, 0.000000000000000000, 0.000000000000000000 ) ) ;
#104 = DIRECTION ( 'NONE',  ( 1.000000000000000000, 0.000000000000000000, 0.000000000000000000 ) ) ;
#105 = APPLICATION_CONTEXT ( 'configuration controlled 3d designs of mechanical parts and assemblies' ) ;
#106 = AXIS2_PLACEMENT_3D ( 'NONE', #59, #62, #182 ) ;
#107 = DIRECTION ( 'NONE',  ( 0.000000000000000000, 0.000000000000000000, 1.000000000000000000 ) ) ;
#108 =( NAMED_UNIT ( * ) PLANE_ANGLE_UNIT ( ) SI_UNIT ( $, .RADIAN. ) );
#109 = COORDINATED_UNIVERSAL_TIME_OFFSET ( 1, 0, .AHEAD. ) ;
#110 = ORGANIZATION ( 'NEURÈENÝ', 'NEURÈENÝ', '' ) ;
#111 = ADVANCED_FACE ( 'NONE', ( #331, #123 ), #64, .T. ) ;
#112 = DATE_TIME_ROLE ( 'classification_date' ) ;
#113 = ORIENTED_EDGE ( 'NONE', *, *, #203, .F. ) ;
#114 = LINE ( 'NONE', #206, #293 ) ;
#115 = AXIS2_PLACEMENT_3D ( 'NONE', #39, #60, #5 ) ;
#116 = AXIS2_PLACEMENT_3D ( 'NONE', #366, #69, #213 ) ;
#117 = ORIENTED_EDGE ( 'NONE', *, *, #374, .F. ) ;
#118 = CARTESIAN_POINT ( 'NONE',  ( 0.000000000000000000, 0.000000000000000000, 805.0000000000000000 ) ) ;
#119 = ORIENTED_EDGE ( 'NONE', *, *, #317, .T. ) ;
#120 = CLOSED_SHELL ( 'NONE', ( #346, #95, #283, #28, #361, #111, #136, #67, #7, #330, #159 ) ) ;
#121 = EDGE_LOOP ( 'NONE', ( #4, #185, #146, #1 ) ) ;
#122 = CARTESIAN_POINT ( 'NONE',  ( 0.000000000000000000, 0.000000000000000000, 805.0000000000000000 ) ) ;
#123 = FACE_OUTER_BOUND ( 'NONE', #85, .T. ) ;
#124 = CIRCLE ( 'NONE', #360, 0.5000000000000004441 ) ;
#125 = APPROVAL ( #312, 'NEURÈENÝ' ) ;
#126 = DIRECTION ( 'NONE',  ( 0.000000000000000000, 0.000000000000000000, 1.000000000000000000 ) ) ;
#127 = DIRECTION ( 'NONE',  ( 0.000000000000000000, 0.000000000000000000, 1.000000000000000000 ) ) ;
#128 = DIRECTION ( 'NONE',  ( 0.000000000000000000, 0.000000000000000000, 1.000000000000000000 ) ) ;
#129 = DIRECTION ( 'NONE',  ( -0.000000000000000000, -0.000000000000000000, -1.000000000000000000 ) ) ;
#130 = APPROVAL ( #253, 'NEURÈENÝ' ) ;
#131 = DIRECTION ( 'NONE',  ( 0.000000000000000000, 0.000000000000000000, 1.000000000000000000 ) ) ;
#132 = DIRECTION ( 'NONE',  ( -0.000000000000000000, -0.000000000000000000, -1.000000000000000000 ) ) ;
#133 = DIRECTION ( 'NONE',  ( 1.000000000000000000, 0.000000000000000000, 0.000000000000000000 ) ) ;
#134 = CARTESIAN_POINT ( 'NONE',  ( -2.600000000000000089, 0.000000000000000000, 0.000000000000000000 ) ) ;
#135 = CARTESIAN_POINT ( 'NONE',  ( -4.500000000000000888, 5.510910596163089556E-16, 5.499999999999949374 ) ) ;
#136 = ADVANCED_FACE ( 'NONE', ( #157, #11 ), #272, .F. ) ;
#137 = AXIS2_PLACEMENT_3D ( 'NONE', #122, #10, #321 ) ;
#138 = CARTESIAN_POINT ( 'NONE',  ( 0.000000000000000000, 0.000000000000000000, 0.000000000000000000 ) ) ;
#139 = AXIS2_PLACEMENT_3D ( 'NONE', #219, #126, #43 ) ;
#140 = COORDINATED_UNIVERSAL_TIME_OFFSET ( 1, 0, .AHEAD. ) ;
#141 = EDGE_CURVE ( 'NONE', #282, #82, #114, .T. ) ;
#142 = MANIFOLD_SOLID_BREP ( 'Odebrat vysunutím3', #120 ) ;
#143 = DATE_TIME_ROLE ( 'creation_date' ) ;
#144 = ORIENTED_EDGE ( 'NONE', *, *, #148, .F. ) ;
#145 = DIRECTION ( 'NONE',  ( 0.000000000000000000, 0.000000000000000000, 1.000000000000000000 ) ) ;
#146 = ORIENTED_EDGE ( 'NONE', *, *, #148, .T. ) ;
#147 = COORDINATED_UNIVERSAL_TIME_OFFSET ( 1, 0, .AHEAD. ) ;
#148 = EDGE_CURVE ( 'NONE', #328, #262, #124, .T. ) ;
#149 = LINE ( 'NONE', #237, #313 ) ;
#150 = LOCAL_TIME ( 17, 7, 1.000000000000000000, #176 ) ;
#151 = ORIENTED_EDGE ( 'NONE', *, *, #286, .F. ) ;
#152 = ORIENTED_EDGE ( 'NONE', *, *, #300, .F. ) ;
#153 = APPROVAL_DATE_TIME ( #32, #130 ) ;
#154 = CARTESIAN_POINT ( 'NONE',  ( 4.000000000000000000, 4.898587196589412829E-16, 805.0000000000000000 ) ) ;
#155 = ORIENTED_EDGE ( 'NONE', *, *, #236, .F. ) ;
#156 = DIRECTION ( 'NONE',  ( -0.000000000000000000, -0.000000000000000000, -1.000000000000000000 ) ) ;
#157 = FACE_BOUND ( 'NONE', #381, .T. ) ;
#158 = DIRECTION ( 'NONE',  ( 1.000000000000000000, 0.000000000000000000, 0.000000000000000000 ) ) ;
#159 = ADVANCED_FACE ( 'NONE', ( #86 ), #231, .F. ) ;
#160 = FACE_OUTER_BOUND ( 'NONE', #87, .T. ) ;
#161 = CARTESIAN_POINT ( 'NONE',  ( 0.000000000000000000, 0.000000000000000000, 0.000000000000000000 ) ) ;
#162 = CARTESIAN_POINT ( 'NONE',  ( 0.000000000000000000, 0.000000000000000000, 5.000000000000000000 ) ) ;
#163 = DIRECTION ( 'NONE',  ( -1.000000000000000000, 0.000000000000000000, 0.000000000000000000 ) ) ;
#164 = APPROVAL_PERSON_ORGANIZATION ( #285, #125, #252 ) ;
#165 = DIRECTION ( 'NONE',  ( 1.000000000000000000, 0.000000000000000000, 0.000000000000000000 ) ) ;
#166 = ORIENTED_EDGE ( 'NONE', *, *, #35, .T. ) ;
#167 = CC_DESIGN_DATE_AND_TIME_ASSIGNMENT ( #345, #143, ( #243 ) ) ;
#168 = PERSON_AND_ORGANIZATION ( #378, #110 ) ;
#169 = VERTEX_POINT ( 'NONE', #211 ) ;
#170 = APPROVAL_PERSON_ORGANIZATION ( #199, #130, #376 ) ;
#171 = CALENDAR_DATE ( 2022, 8, 7 ) ;
#172 = SECURITY_CLASSIFICATION_LEVEL ( 'unclassified' ) ;
#173 = EDGE_CURVE ( 'NONE', #282, #178, #280, .T. ) ;
#174 = DESIGN_CONTEXT ( 'detailed design', #105, 'design' ) ;
#175 =( NAMED_UNIT ( * ) SI_UNIT ( $, .STERADIAN. ) SOLID_ANGLE_UNIT ( ) );
#176 = COORDINATED_UNIVERSAL_TIME_OFFSET ( 1, 0, .AHEAD. ) ;
#177 = AXIS2_PLACEMENT_3D ( 'NONE', #358, #209, #327 ) ;
#178 = VERTEX_POINT ( 'NONE', #88 ) ;
#179 = LINE ( 'NONE', #329, #23 ) ;
#180 = ORIENTED_EDGE ( 'NONE', *, *, #374, .T. ) ;
#181 = PRODUCT_RELATED_PRODUCT_CATEGORY ( 'detail', '', ( #76 ) ) ;
#182 = DIRECTION ( 'NONE',  ( 1.000000000000000000, 0.000000000000000000, 0.000000000000000000 ) ) ;
#183 = ORIENTED_EDGE ( 'NONE', *, *, #141, .F. ) ;
#184 = CIRCLE ( 'NONE', #41, 2.600000000000000089 ) ;
#185 = ORIENTED_EDGE ( 'NONE', *, *, #291, .F. ) ;
#186 = DIRECTION ( 'NONE',  ( -0.000000000000000000, -0.000000000000000000, -1.000000000000000000 ) ) ;
#187 = ORIENTED_EDGE ( 'NONE', *, *, #35, .F. ) ;
#188 = DIRECTION ( 'NONE',  ( 0.000000000000000000, 0.000000000000000000, -1.000000000000000000 ) ) ;
#189 = CARTESIAN_POINT ( 'NONE',  ( 0.000000000000000000, 0.000000000000000000, 5.000000000000000000 ) ) ;
#190 = CYLINDRICAL_SURFACE ( 'NONE', #63, 4.000000000000000000 ) ;
#191 = CC_DESIGN_SECURITY_CLASSIFICATION ( #335, ( #271 ) ) ;
#192 = CARTESIAN_POINT ( 'NONE',  ( 0.000000000000000000, 0.000000000000000000, 805.0000000000000000 ) ) ;
#193 = DIRECTION ( 'NONE',  ( -0.000000000000000000, -0.000000000000000000, -1.000000000000000000 ) ) ;
#194 = ORIENTED_EDGE ( 'NONE', *, *, #337, .F. ) ;
#195 = CC_DESIGN_DATE_AND_TIME_ASSIGNMENT ( #380, #112, ( #335 ) ) ;
#196 = CIRCLE ( 'NONE', #277, 4.500000000000000888 ) ;
#197 = CC_DESIGN_PERSON_AND_ORGANIZATION_ASSIGNMENT ( #168, #77, ( #271 ) ) ;
#198 = APPROVAL_DATE_TIME ( #224, #125 ) ;
#199 = PERSON_AND_ORGANIZATION ( #378, #110 ) ;
#200 = ORIENTED_EDGE ( 'NONE', *, *, #317, .F. ) ;
#201 = DIRECTION ( 'NONE',  ( -1.000000000000000000, 0.000000000000000000, 0.000000000000000000 ) ) ;
#202 = AXIS2_PLACEMENT_3D ( 'NONE', #44, #129, #42 ) ;
#203 = EDGE_CURVE ( 'NONE', #344, #359, #221, .T. ) ;
#204 = VERTEX_POINT ( 'NONE', #356 ) ;
#205 = VERTEX_POINT ( 'NONE', #154 ) ;
#206 = CARTESIAN_POINT ( 'NONE',  ( -7.000000000000000000, 0.000000000000000000, 5.000000000000000000 ) ) ;
#207 = ORIENTED_EDGE ( 'NONE', *, *, #19, .F. ) ;
#208 = CC_DESIGN_PERSON_AND_ORGANIZATION_ASSIGNMENT ( #26, #223, ( #243 ) ) ;
#209 = DIRECTION ( 'NONE',  ( 0.000000000000000000, 0.000000000000000000, 1.000000000000000000 ) ) ;
#210 = EDGE_LOOP ( 'NONE', ( #152, #27, #259, #183 ) ) ;
#211 = CARTESIAN_POINT ( 'NONE',  ( -2.600000000000000089, 0.000000000000000000, 805.0000000000000000 ) ) ;
#212 = ORIENTED_EDGE ( 'NONE', *, *, #236, .T. ) ;
#213 = DIRECTION ( 'NONE',  ( 1.000000000000000000, 0.000000000000000000, 0.000000000000000000 ) ) ;
#214 = FACE_OUTER_BOUND ( 'NONE', #3, .T. ) ;
#215 = DIRECTION ( 'NONE',  ( 0.000000000000000000, 0.000000000000000000, 1.000000000000000000 ) ) ;
#216 = DIRECTION ( 'NONE',  ( -0.000000000000000000, -0.000000000000000000, -1.000000000000000000 ) ) ;
#217 = AXIS2_PLACEMENT_3D ( 'NONE', #373, #73, #334 ) ;
#218 = EDGE_CURVE ( 'NONE', #268, #262, #354, .T. ) ;
#219 = CARTESIAN_POINT ( 'NONE',  ( 0.000000000000000000, 0.000000000000000000, 805.0000000000000000 ) ) ;
#220 = DIRECTION ( 'NONE',  ( 1.224646799147353207E-16, 1.000000000000000000, -0.000000000000000000 ) ) ;
#221 = CIRCLE ( 'NONE', #106, 2.600000000000000089 ) ;
#222 = CC_DESIGN_APPROVAL ( #125, ( #243 ) ) ;
#223 = PERSON_AND_ORGANIZATION_ROLE ( 'creator' ) ;
#224 = DATE_AND_TIME ( #51, #84 ) ;
#225 = MECHANICAL_CONTEXT ( 'NONE', #22, 'mechanical' ) ;
#226 = CC_DESIGN_APPROVAL ( #130, ( #335 ) ) ;
#227 = CALENDAR_DATE ( 2022, 8, 7 ) ;
#228 = ORIENTED_EDGE ( 'NONE', *, *, #49, .T. ) ;
#229 = AXIS2_PLACEMENT_3D ( 'NONE', #240, #128, #133 ) ;
#230 = ORIENTED_EDGE ( 'NONE', *, *, #337, .T. ) ;
#231 = CYLINDRICAL_SURFACE ( 'NONE', #343, 2.600000000000000089 ) ;
#232 = LOCAL_TIME ( 17, 7, 1.000000000000000000, #140 ) ;
#233 = EDGE_LOOP ( 'NONE', ( #92, #212, #33, #207 ) ) ;
#234 = CARTESIAN_POINT ( 'NONE',  ( 4.500000000000000888, 0.000000000000000000, 5.499999999999949374 ) ) ;
#235 = ORIENTED_EDGE ( 'NONE', *, *, #286, .T. ) ;
#236 = EDGE_CURVE ( 'NONE', #205, #328, #179, .T. ) ;
#237 = CARTESIAN_POINT ( 'NONE',  ( -2.600000000000000089, 0.000000000000000000, 805.0000000000000000 ) ) ;
#238 = EDGE_LOOP ( 'NONE', ( #200, #310 ) ) ;
#239 = SHAPE_DEFINITION_REPRESENTATION ( #340, #31 ) ;
#240 = CARTESIAN_POINT ( 'NONE',  ( 0.000000000000000000, 0.000000000000000000, 5.499999999999949374 ) ) ;
#241 = VERTEX_POINT ( 'NONE', #323 ) ;
#242 = DIRECTION ( 'NONE',  ( 0.000000000000000000, 0.000000000000000000, 1.000000000000000000 ) ) ;
#243 = PRODUCT_DEFINITION ( 'NEZNÁMÝ', '', #271, #174 ) ;
#244 = DIRECTION ( 'NONE',  ( -0.000000000000000000, -0.000000000000000000, -1.000000000000000000 ) ) ;
#245 = DIRECTION ( 'NONE',  ( 1.000000000000000000, 0.000000000000000000, 0.000000000000000000 ) ) ;
#246 = FACE_OUTER_BOUND ( 'NONE', #30, .T. ) ;
#247 = AXIS2_PLACEMENT_3D ( 'NONE', #371, #301, #158 ) ;
#248 = CARTESIAN_POINT ( 'NONE',  ( 0.000000000000000000, 0.000000000000000000, 0.000000000000000000 ) ) ;
#249 = CARTESIAN_POINT ( 'NONE',  ( -4.000000000000000000, 0.000000000000000000, 805.0000000000000000 ) ) ;
#250 = EDGE_CURVE ( 'NONE', #169, #344, #149, .T. ) ;
#251 = DIRECTION ( 'NONE',  ( -0.000000000000000000, -0.000000000000000000, -1.000000000000000000 ) ) ;
#252 = APPROVAL_ROLE ( '' ) ;
#253 = APPROVAL_STATUS ( 'not_yet_approved' ) ;
#254 =( LENGTH_UNIT ( ) NAMED_UNIT ( * ) SI_UNIT ( .MILLI., .METRE. ) );
#255 = APPLICATION_PROTOCOL_DEFINITION ( 'international standard', 'config_control_design', 1994, #22 ) ;
#256 = CIRCLE ( 'NONE', #116, 7.000000000000000000 ) ;
#257 = PERSON_AND_ORGANIZATION_ROLE ( 'creator' ) ;
#258 = CC_DESIGN_PERSON_AND_ORGANIZATION_ASSIGNMENT ( #279, #257, ( #271 ) ) ;
#259 = ORIENTED_EDGE ( 'NONE', *, *, #2, .T. ) ;
#260 = CIRCLE ( 'NONE', #20, 7.000000000000000000 ) ;
#261 = DIRECTION ( 'NONE',  ( 1.000000000000000000, 0.000000000000000000, -0.000000000000000000 ) ) ;
#262 = VERTEX_POINT ( 'NONE', #270 ) ;
#263 = CIRCLE ( 'NONE', #307, 4.000000000000000000 ) ;
#264 = LINE ( 'NONE', #36, #68 ) ;
#265 = EDGE_CURVE ( 'NONE', #178, #241, #264, .T. ) ;
#266 = EDGE_LOOP ( 'NONE', ( #187, #194 ) ) ;
#267 = DIRECTION ( 'NONE',  ( 0.000000000000000000, 0.000000000000000000, -1.000000000000000000 ) ) ;
#268 = VERTEX_POINT ( 'NONE', #8 ) ;
#269 = ORIENTED_EDGE ( 'NONE', *, *, #218, .T. ) ;
#270 = CARTESIAN_POINT ( 'NONE',  ( 4.500000000000000888, 0.000000000000000000, 4.999999999999975131 ) ) ;
#271 = PRODUCT_DEFINITION_FORMATION_WITH_SPECIFIED_SOURCE ( 'LIBOVOLNÝ', '', #76, .NOT_KNOWN. ) ;
#272 = PLANE ( 'NONE',  #298 ) ;
#273 = EDGE_CURVE ( 'NONE', #205, #324, #48, .T. ) ;
#274 = DIRECTION ( 'NONE',  ( -0.000000000000000000, -0.000000000000000000, -1.000000000000000000 ) ) ;
#275 = CARTESIAN_POINT ( 'NONE',  ( -7.000000000000000000, 0.000000000000000000, 0.000000000000000000 ) ) ;
#276 = CYLINDRICAL_SURFACE ( 'NONE', #202, 4.000000000000000000 ) ;
#277 = AXIS2_PLACEMENT_3D ( 'NONE', #47, #244, #367 ) ;
#278 = ORIENTED_EDGE ( 'NONE', *, *, #250, .F. ) ;
#279 = PERSON_AND_ORGANIZATION ( #378, #110 ) ;
#280 = CIRCLE ( 'NONE', #177, 7.000000000000000000 ) ;
#281 = CIRCLE ( 'NONE', #80, 0.5000000000000004441 ) ;
#282 = VERTEX_POINT ( 'NONE', #55 ) ;
#283 = ADVANCED_FACE ( 'NONE', ( #303 ), #276, .T. ) ;
#284 = PERSON_AND_ORGANIZATION ( #378, #110 ) ;
#285 = PERSON_AND_ORGANIZATION ( #378, #110 ) ;
#286 = EDGE_CURVE ( 'NONE', #297, #328, #75, .T. ) ;
#287 = AXIS2_PLACEMENT_3D ( 'NONE', #71, #13, #103 ) ;
#288 = PERSON_AND_ORGANIZATION_ROLE ( 'classification_officer' ) ;
#289 = ORIENTED_EDGE ( 'NONE', *, *, #58, .F. ) ;
#290 = EDGE_LOOP ( 'NONE', ( #56, #61, #352, #119 ) ) ;
#291 = EDGE_CURVE ( 'NONE', #328, #297, #263, .T. ) ;
#292 = ORIENTED_EDGE ( 'NONE', *, *, #102, .F. ) ;
#293 = VECTOR ( 'NONE', #83, 1000.000000000000000 ) ;
#294 = TOROIDAL_SURFACE ( 'NONE', #217, 4.500000000000000888, 0.5000000000000000000 ) ;
#295 = ORIENTED_EDGE ( 'NONE', *, *, #173, .T. ) ;
#296 = CALENDAR_DATE ( 2022, 8, 7 ) ;
#297 = VERTEX_POINT ( 'NONE', #46 ) ;
#298 = AXIS2_PLACEMENT_3D ( 'NONE', #91, #145, #261 ) ;
#299 = DIRECTION ( 'NONE',  ( 0.000000000000000000, 0.000000000000000000, 1.000000000000000000 ) ) ;
#300 = EDGE_CURVE ( 'NONE', #178, #282, #99, .T. ) ;
#301 = DIRECTION ( 'NONE',  ( 0.000000000000000000, 0.000000000000000000, 1.000000000000000000 ) ) ;
#302 = DIRECTION ( 'NONE',  ( 1.000000000000000000, 0.000000000000000000, 0.000000000000000000 ) ) ;
#303 = FACE_OUTER_BOUND ( 'NONE', #233, .T. ) ;
#304 = DIRECTION ( 'NONE',  ( 1.000000000000000000, 0.000000000000000000, 0.000000000000000000 ) ) ;
#305 = CIRCLE ( 'NONE', #96, 2.600000000000000089 ) ;
#306 = CARTESIAN_POINT ( 'NONE',  ( 0.000000000000000000, 0.000000000000000000, 5.000000000000000000 ) ) ;
#307 = AXIS2_PLACEMENT_3D ( 'NONE', #65, #127, #245 ) ;
#308 = CALENDAR_DATE ( 2022, 8, 7 ) ;
#309 = CIRCLE ( 'NONE', #139, 4.000000000000000000 ) ;
#310 = ORIENTED_EDGE ( 'NONE', *, *, #2, .F. ) ;
#311 = CC_DESIGN_PERSON_AND_ORGANIZATION_ASSIGNMENT ( #81, #79, ( #76 ) ) ;
#312 = APPROVAL_STATUS ( 'not_yet_approved' ) ;
#313 = VECTOR ( 'NONE', #188, 1000.000000000000000 ) ;
#314 =( GEOMETRIC_REPRESENTATION_CONTEXT ( 3 ) GLOBAL_UNCERTAINTY_ASSIGNED_CONTEXT ( ( #316 ) ) GLOBAL_UNIT_ASSIGNED_CONTEXT ( ( #254, #108, #175 ) ) REPRESENTATION_CONTEXT ( 'NONE', 'WORKASPACE' ) );
#315 = APPROVAL_STATUS ( 'not_yet_approved' ) ;
#316 = UNCERTAINTY_MEASURE_WITH_UNIT (LENGTH_MEASURE( 1.000000000000000082E-05 ), #254, 'distance_accuracy_value', 'NONE');
#317 = EDGE_CURVE ( 'NONE', #82, #241, #256, .T. ) ;
#318 = VECTOR ( 'NONE', #216, 1000.000000000000000 ) ;
#319 = ORIENTED_EDGE ( 'NONE', *, *, #19, .T. ) ;
#320 = AXIS2_PLACEMENT_3D ( 'NONE', #138, #107, #348 ) ;
#321 = DIRECTION ( 'NONE',  ( 1.000000000000000000, 0.000000000000000000, 0.000000000000000000 ) ) ;
#322 = ORIENTED_EDGE ( 'NONE', *, *, #102, .T. ) ;
#323 = CARTESIAN_POINT ( 'NONE',  ( 7.000000000000000000, 8.572527594031473190E-16, 0.000000000000000000 ) ) ;
#324 = VERTEX_POINT ( 'NONE', #332 ) ;
#325 = DIRECTION ( 'NONE',  ( 0.000000000000000000, 0.000000000000000000, -1.000000000000000000 ) ) ;
#326 = ORIENTED_EDGE ( 'NONE', *, *, #377, .T. ) ;
#327 = DIRECTION ( 'NONE',  ( 1.000000000000000000, 0.000000000000000000, 0.000000000000000000 ) ) ;
#328 = VERTEX_POINT ( 'NONE', #341 ) ;
#329 = CARTESIAN_POINT ( 'NONE',  ( 4.000000000000000000, 4.898587196589412829E-16, 805.0000000000000000 ) ) ;
#330 = ADVANCED_FACE ( 'NONE', ( #18 ), #294, .F. ) ;
#331 = FACE_BOUND ( 'NONE', #6, .T. ) ;
#332 = CARTESIAN_POINT ( 'NONE',  ( -4.000000000000000000, 0.000000000000000000, 805.0000000000000000 ) ) ;
#333 = LINE ( 'NONE', #339, #37 ) ;
#334 = DIRECTION ( 'NONE',  ( 1.000000000000000000, 0.000000000000000000, 0.000000000000000000 ) ) ;
#335 = SECURITY_CLASSIFICATION ( '', '', #172 ) ;
#336 = FACE_OUTER_BOUND ( 'NONE', #210, .T. ) ;
#337 = EDGE_CURVE ( 'NONE', #204, #169, #375, .T. ) ;
#338 = CYLINDRICAL_SURFACE ( 'NONE', #25, 7.000000000000000000 ) ;
#339 = CARTESIAN_POINT ( 'NONE',  ( 2.600000000000000089, 3.184081677783118191E-16, 805.0000000000000000 ) ) ;
#340 = PRODUCT_DEFINITION_SHAPE ( 'NONE', 'NONE',  #243 ) ;
#341 = CARTESIAN_POINT ( 'NONE',  ( 4.000000000000000000, 4.898587196589412829E-16, 5.499999999999949374 ) ) ;
#342 = DIRECTION ( 'NONE',  ( 1.000000000000000000, 0.000000000000000000, 0.000000000000000000 ) ) ;
#343 = AXIS2_PLACEMENT_3D ( 'NONE', #118, #267, #201 ) ;
#344 = VERTEX_POINT ( 'NONE', #134 ) ;
#345 = DATE_AND_TIME ( #171, #150 ) ;
#346 = ADVANCED_FACE ( 'NONE', ( #160 ), #368, .F. ) ;
#347 = PERSON_AND_ORGANIZATION ( #378, #110 ) ;
#348 = DIRECTION ( 'NONE',  ( 1.000000000000000000, 0.000000000000000000, 0.000000000000000000 ) ) ;
#349 = APPROVAL_PERSON_ORGANIZATION ( #347, #350, #379 ) ;
#350 = APPROVAL ( #315, 'NEURÈENÝ' ) ;
#351 = APPLICATION_PROTOCOL_DEFINITION ( 'international standard', 'config_control_design', 1994, #105 ) ;
#352 = ORIENTED_EDGE ( 'NONE', *, *, #141, .T. ) ;
#353 = ORIENTED_EDGE ( 'NONE', *, *, #49, .F. ) ;
#354 = CIRCLE ( 'NONE', #115, 4.500000000000000888 ) ;
#355 = ORIENTED_EDGE ( 'NONE', *, *, #58, .T. ) ;
#356 = CARTESIAN_POINT ( 'NONE',  ( 2.600000000000000089, 3.184081677783118191E-16, 805.0000000000000000 ) ) ;
#357 = ORIENTED_EDGE ( 'NONE', *, *, #273, .T. ) ;
#358 = CARTESIAN_POINT ( 'NONE',  ( 0.000000000000000000, 0.000000000000000000, 5.000000000000000000 ) ) ;
#359 = VERTEX_POINT ( 'NONE', #100 ) ;
#360 = AXIS2_PLACEMENT_3D ( 'NONE', #234, #362, #325 ) ;
#361 = ADVANCED_FACE ( 'NONE', ( #21 ), #338, .T. ) ;
#362 = DIRECTION ( 'NONE',  ( 0.000000000000000000, -1.000000000000000000, 0.000000000000000000 ) ) ;
#363 = PLANE ( 'NONE',  #372 ) ;
#364 = DIRECTION ( 'NONE',  ( 0.000000000000000000, 0.000000000000000000, 1.000000000000000000 ) ) ;
#365 = TOROIDAL_SURFACE ( 'NONE', #229, 4.500000000000000888, 0.5000000000000000000 ) ;
#366 = CARTESIAN_POINT ( 'NONE',  ( 0.000000000000000000, 0.000000000000000000, 0.000000000000000000 ) ) ;
#367 = DIRECTION ( 'NONE',  ( 1.000000000000000000, 0.000000000000000000, 0.000000000000000000 ) ) ;
#368 = CYLINDRICAL_SURFACE ( 'NONE', #287, 2.600000000000000089 ) ;
#369 = LOCAL_TIME ( 17, 7, 1.000000000000000000, #147 ) ;
#370 = DIRECTION ( 'NONE',  ( 1.000000000000000000, 0.000000000000000000, -0.000000000000000000 ) ) ;
#371 = CARTESIAN_POINT ( 'NONE',  ( 0.000000000000000000, 0.000000000000000000, 5.499999999999949374 ) ) ;
#372 = AXIS2_PLACEMENT_3D ( 'NONE', #17, #12, #370 ) ;
#373 = CARTESIAN_POINT ( 'NONE',  ( 0.000000000000000000, 0.000000000000000000, 5.499999999999949374 ) ) ;
#374 = EDGE_CURVE ( 'NONE', #359, #344, #184, .T. ) ;
#375 = CIRCLE ( 'NONE', #34, 2.600000000000000089 ) ;
#376 = APPROVAL_ROLE ( '' ) ;
#377 = EDGE_CURVE ( 'NONE', #297, #268, #281, .T. ) ;
#378 = PERSON ( 'NEURÈENÝ', 'NEURÈENÝ', 'NEURÈENÝ', ('NEURÈENÝ'), ('NEURÈENÝ'), ('NEURÈENÝ') ) ;
#379 = APPROVAL_ROLE ( '' ) ;
#380 = DATE_AND_TIME ( #227, #232 ) ;
#381 = EDGE_LOOP ( 'NONE', ( #113, #117 ) ) ;
ENDSEC;
END-ISO-10303-21;
