ISO-10303-21;
HEADER;
FILE_DESCRIPTION (( 'STEP AP203' ),
    '1' );
FILE_NAME ('1a1c.STEP',
    '2022-07-08T15:51:28',
    ( '' ),
    ( '' ),
    'SwSTEP 2.0',
    'SolidWorks 2019',
    '' );
FILE_SCHEMA (( 'CONFIG_CONTROL_DESIGN' ));
ENDSEC;

DATA;
#1 = VECTOR ( 'NONE', #237, 1000.000000000000000 ) ;
#2 = CALENDAR_DATE ( 2022, 8, 7 ) ;
#3 = DIRECTION ( 'NONE',  ( -0.000000000000000000, -0.000000000000000000, -1.000000000000000000 ) ) ;
#4 = DATE_TIME_ROLE ( 'classification_date' ) ;
#5 = CARTESIAN_POINT ( 'NONE',  ( 0.000000000000000000, 0.000000000000000000, 3.300000000000025135 ) ) ;
#6 = LOCAL_TIME ( 17, 51, 28.00000000000000000, #231 ) ;
#7 = PERSON_AND_ORGANIZATION ( #286, #135 ) ;
#8 = CARTESIAN_POINT ( 'NONE',  ( -2.500000000000000000, 0.000000000000000000, 403.0000000000000000 ) ) ;
#9 = CARTESIAN_POINT ( 'NONE',  ( -2.500000000000000000, 0.000000000000000000, 3.300000000000025135 ) ) ;
#10 = ADVANCED_FACE ( 'NONE', ( #141, #315 ), #254, .T. ) ;
#11 = CIRCLE ( 'NONE', #35, 0.2999999999999999334 ) ;
#12 = APPROVAL_PERSON_ORGANIZATION ( #233, #327, #259 ) ;
#13 = ORIENTED_EDGE ( 'NONE', *, *, #38, .T. ) ;
#14 = EDGE_CURVE ( 'NONE', #73, #164, #287, .T. ) ;
#15 = AXIS2_PLACEMENT_3D ( 'NONE', #306, #225, #78 ) ;
#16 = DIRECTION ( 'NONE',  ( 1.000000000000000000, 0.000000000000000000, 0.000000000000000000 ) ) ;
#17 = CC_DESIGN_DATE_AND_TIME_ASSIGNMENT ( #319, #4, ( #169 ) ) ;
#18 = DIRECTION ( 'NONE',  ( 0.000000000000000000, 0.000000000000000000, 1.000000000000000000 ) ) ;
#19 = ORIENTED_EDGE ( 'NONE', *, *, #242, .F. ) ;
#20 = CIRCLE ( 'NONE', #69, 5.000000000000000000 ) ;
#21 = ORIENTED_EDGE ( 'NONE', *, *, #269, .F. ) ;
#22 = ORIENTED_EDGE ( 'NONE', *, *, #102, .F. ) ;
#23 = ORIENTED_EDGE ( 'NONE', *, *, #102, .T. ) ;
#24 = ADVANCED_FACE ( 'NONE', ( #345 ), #296, .F. ) ;
#25 = APPROVAL_STATUS ( 'not_yet_approved' ) ;
#26 = CARTESIAN_POINT ( 'NONE',  ( 5.000000000000000000, 6.123233995736766282E-16, 3.000000000000000000 ) ) ;
#27 = COORDINATED_UNIVERSAL_TIME_OFFSET ( 1, 0, .AHEAD. ) ;
#28 = TOROIDAL_SURFACE ( 'NONE', #101, 2.799999999999999822, 0.2999999999999999889 ) ;
#29 = DIRECTION ( 'NONE',  ( -0.000000000000000000, -0.000000000000000000, -1.000000000000000000 ) ) ;
#30 = DATE_TIME_ROLE ( 'creation_date' ) ;
#31 = CARTESIAN_POINT ( 'NONE',  ( 2.500000000000000000, 3.061616997868383141E-16, 403.0000000000000000 ) ) ;
#32 = CIRCLE ( 'NONE', #98, 1.000000000000000000 ) ;
#33 = FACE_OUTER_BOUND ( 'NONE', #211, .T. ) ;
#34 = DIRECTION ( 'NONE',  ( 0.000000000000000000, 0.000000000000000000, 1.000000000000000000 ) ) ;
#35 = AXIS2_PLACEMENT_3D ( 'NONE', #212, #134, #328 ) ;
#36 = PRODUCT_DEFINITION_FORMATION_WITH_SPECIFIED_SOURCE ( 'LIBOVOLNÝ', '', #67, .NOT_KNOWN. ) ;
#37 = DIRECTION ( 'NONE',  ( -1.000000000000000000, 0.000000000000000000, 0.000000000000000000 ) ) ;
#38 = EDGE_CURVE ( 'NONE', #336, #164, #20, .T. ) ;
#39 = ORIENTED_EDGE ( 'NONE', *, *, #269, .T. ) ;
#40 = CIRCLE ( 'NONE', #305, 2.500000000000000000 ) ;
#41 = LOCAL_TIME ( 17, 51, 28.00000000000000000, #118 ) ;
#42 = EDGE_LOOP ( 'NONE', ( #372, #192 ) ) ;
#43 = DIRECTION ( 'NONE',  ( -1.000000000000000000, 1.224646799147353207E-16, 0.000000000000000000 ) ) ;
#44 = DIRECTION ( 'NONE',  ( 0.000000000000000000, 0.000000000000000000, 1.000000000000000000 ) ) ;
#45 = ORIENTED_EDGE ( 'NONE', *, *, #38, .F. ) ;
#46 = AXIS2_PLACEMENT_3D ( 'NONE', #322, #3, #267 ) ;
#47 = CC_DESIGN_APPROVAL ( #318, ( #84 ) ) ;
#48 = DIRECTION ( 'NONE',  ( 0.000000000000000000, 0.000000000000000000, 1.000000000000000000 ) ) ;
#49 = ORIENTED_EDGE ( 'NONE', *, *, #14, .F. ) ;
#50 = CC_DESIGN_PERSON_AND_ORGANIZATION_ASSIGNMENT ( #151, #92, ( #36 ) ) ;
#51 =( NAMED_UNIT ( * ) PLANE_ANGLE_UNIT ( ) SI_UNIT ( $, .RADIAN. ) );
#52 = ORIENTED_EDGE ( 'NONE', *, *, #136, .F. ) ;
#53 = CIRCLE ( 'NONE', #57, 5.000000000000000000 ) ;
#54 = ORIENTED_EDGE ( 'NONE', *, *, #147, .F. ) ;
#55 = ORIENTED_EDGE ( 'NONE', *, *, #65, .F. ) ;
#56 = ORIENTED_EDGE ( 'NONE', *, *, #14, .T. ) ;
#57 = AXIS2_PLACEMENT_3D ( 'NONE', #317, #127, #321 ) ;
#58 = APPROVAL_ROLE ( '' ) ;
#59 = LINE ( 'NONE', #8, #1 ) ;
#60 = FACE_OUTER_BOUND ( 'NONE', #252, .T. ) ;
#61 = APPROVAL_DATE_TIME ( #207, #327 ) ;
#62 = DIRECTION ( 'NONE',  ( 0.000000000000000000, 0.000000000000000000, -1.000000000000000000 ) ) ;
#63 = FACE_OUTER_BOUND ( 'NONE', #278, .T. ) ;
#64 = DIRECTION ( 'NONE',  ( 1.000000000000000000, 0.000000000000000000, 0.000000000000000000 ) ) ;
#65 = EDGE_CURVE ( 'NONE', #184, #309, #59, .T. ) ;
#66 = CIRCLE ( 'NONE', #325, 5.000000000000000000 ) ;
#67 = PRODUCT ( '1a1c', '1a1c', '', ( #167 ) ) ;
#68 = DIRECTION ( 'NONE',  ( 0.000000000000000000, 0.000000000000000000, 1.000000000000000000 ) ) ;
#69 = AXIS2_PLACEMENT_3D ( 'NONE', #348, #381, #240 ) ;
#70 = PLANE ( 'NONE',  #74 ) ;
#71 = ORIENTED_EDGE ( 'NONE', *, *, #337, .T. ) ;
#72 = CC_DESIGN_PERSON_AND_ORGANIZATION_ASSIGNMENT ( #236, #349, ( #169 ) ) ;
#73 = VERTEX_POINT ( 'NONE', #178 ) ;
#74 = AXIS2_PLACEMENT_3D ( 'NONE', #214, #44, #330 ) ;
#75 = AXIS2_PLACEMENT_3D ( 'NONE', #279, #48, #277 ) ;
#76 = CARTESIAN_POINT ( 'NONE',  ( -2.799999999999999822, 3.429011037612588783E-16, 3.300000000000025135 ) ) ;
#77 = CYLINDRICAL_SURFACE ( 'NONE', #156, 1.000000000000000000 ) ;
#78 = DIRECTION ( 'NONE',  ( -1.000000000000000000, 0.000000000000000000, 0.000000000000000000 ) ) ;
#79 = ORIENTED_EDGE ( 'NONE', *, *, #182, .T. ) ;
#80 = CC_DESIGN_PERSON_AND_ORGANIZATION_ASSIGNMENT ( #170, #107, ( #67 ) ) ;
#81 =( NAMED_UNIT ( * ) SI_UNIT ( $, .STERADIAN. ) SOLID_ANGLE_UNIT ( ) );
#82 = EDGE_LOOP ( 'NONE', ( #19, #142, #39, #220 ) ) ;
#83 = ORIENTED_EDGE ( 'NONE', *, *, #204, .T. ) ;
#84 = PRODUCT_DEFINITION ( 'NEZNÁMÝ', '', #36, #262 ) ;
#85 = ORIENTED_EDGE ( 'NONE', *, *, #268, .F. ) ;
#86 = FACE_OUTER_BOUND ( 'NONE', #195, .T. ) ;
#87 = EDGE_LOOP ( 'NONE', ( #171, #364 ) ) ;
#88 = SECURITY_CLASSIFICATION_LEVEL ( 'unclassified' ) ;
#89 = DIRECTION ( 'NONE',  ( 1.000000000000000000, 0.000000000000000000, 0.000000000000000000 ) ) ;
#90 = VECTOR ( 'NONE', #146, 1000.000000000000000 ) ;
#91 = AXIS2_PLACEMENT_3D ( 'NONE', #124, #99, #121 ) ;
#92 = PERSON_AND_ORGANIZATION_ROLE ( 'creator' ) ;
#93 = DIRECTION ( 'NONE',  ( 1.000000000000000000, 0.000000000000000000, 0.000000000000000000 ) ) ;
#94 = CARTESIAN_POINT ( 'NONE',  ( 0.000000000000000000, 0.000000000000000000, 0.000000000000000000 ) ) ;
#95 = CALENDAR_DATE ( 2022, 8, 7 ) ;
#96 = CARTESIAN_POINT ( 'NONE',  ( -1.000000000000000000, 0.000000000000000000, 0.000000000000000000 ) ) ;
#97 = CALENDAR_DATE ( 2022, 8, 7 ) ;
#98 = AXIS2_PLACEMENT_3D ( 'NONE', #94, #29, #89 ) ;
#99 = DIRECTION ( 'NONE',  ( 0.000000000000000000, 0.000000000000000000, 1.000000000000000000 ) ) ;
#100 = DIRECTION ( 'NONE',  ( 0.000000000000000000, 0.000000000000000000, 1.000000000000000000 ) ) ;
#101 = AXIS2_PLACEMENT_3D ( 'NONE', #5, #175, #125 ) ;
#102 = EDGE_CURVE ( 'NONE', #164, #336, #53, .T. ) ;
#103 = CARTESIAN_POINT ( 'NONE',  ( 2.500000000000000000, 3.061616997868383141E-16, 403.0000000000000000 ) ) ;
#104 = CIRCLE ( 'NONE', #130, 0.2999999999999999334 ) ;
#105 = FACE_OUTER_BOUND ( 'NONE', #340, .T. ) ;
#106 = EDGE_CURVE ( 'NONE', #307, #258, #122, .T. ) ;
#107 = PERSON_AND_ORGANIZATION_ROLE ( 'design_owner' ) ;
#108 = ORIENTED_EDGE ( 'NONE', *, *, #352, .T. ) ;
#109 = PLANE ( 'NONE',  #75 ) ;
#110 = ORIENTED_EDGE ( 'NONE', *, *, #136, .T. ) ;
#111 = LOCAL_TIME ( 17, 51, 28.00000000000000000, #174 ) ;
#112 = CYLINDRICAL_SURFACE ( 'NONE', #15, 1.000000000000000000 ) ;
#113 = DIRECTION ( 'NONE',  ( 0.000000000000000000, 0.000000000000000000, 1.000000000000000000 ) ) ;
#114 = FACE_OUTER_BOUND ( 'NONE', #329, .T. ) ;
#115 = VERTEX_POINT ( 'NONE', #96 ) ;
#116 = CARTESIAN_POINT ( 'NONE',  ( 0.000000000000000000, 0.000000000000000000, 403.0000000000000000 ) ) ;
#117 = VERTEX_POINT ( 'NONE', #350 ) ;
#118 = COORDINATED_UNIVERSAL_TIME_OFFSET ( 1, 0, .AHEAD. ) ;
#119 = DIRECTION ( 'NONE',  ( 0.000000000000000000, 0.000000000000000000, 1.000000000000000000 ) ) ;
#120 = APPROVAL ( #25, 'NEURÈENÝ' ) ;
#121 = DIRECTION ( 'NONE',  ( 1.000000000000000000, 0.000000000000000000, 0.000000000000000000 ) ) ;
#122 = CIRCLE ( 'NONE', #91, 1.000000000000000000 ) ;
#123 = PERSON_AND_ORGANIZATION_ROLE ( 'design_supplier' ) ;
#124 = CARTESIAN_POINT ( 'NONE',  ( 0.000000000000000000, 0.000000000000000000, 403.0000000000000000 ) ) ;
#125 = DIRECTION ( 'NONE',  ( 1.000000000000000000, 0.000000000000000000, 0.000000000000000000 ) ) ;
#126 = SHAPE_DEFINITION_REPRESENTATION ( #189, #313 ) ;
#127 = DIRECTION ( 'NONE',  ( 0.000000000000000000, 0.000000000000000000, 1.000000000000000000 ) ) ;
#128 = DIRECTION ( 'NONE',  ( 1.000000000000000000, 0.000000000000000000, 0.000000000000000000 ) ) ;
#129 = MANIFOLD_SOLID_BREP ( 'Odebrat vysunutím3', #365 ) ;
#130 = AXIS2_PLACEMENT_3D ( 'NONE', #76, #358, #43 ) ;
#131 = LINE ( 'NONE', #103, #148 ) ;
#132 = CARTESIAN_POINT ( 'NONE',  ( 1.000000000000000000, 1.224646799147353207E-16, 403.0000000000000000 ) ) ;
#133 = VECTOR ( 'NONE', #62, 1000.000000000000000 ) ;
#134 = DIRECTION ( 'NONE',  ( 0.000000000000000000, -1.000000000000000000, 0.000000000000000000 ) ) ;
#135 = ORGANIZATION ( 'NEURÈENÝ', 'NEURÈENÝ', '' ) ;
#136 = EDGE_CURVE ( 'NONE', #258, #115, #208, .T. ) ;
#137 = DIRECTION ( 'NONE',  ( 1.000000000000000000, 0.000000000000000000, 0.000000000000000000 ) ) ;
#138 = ORIENTED_EDGE ( 'NONE', *, *, #173, .T. ) ;
#139 = VERTEX_POINT ( 'NONE', #263 ) ;
#140 = EDGE_CURVE ( 'NONE', #115, #285, #32, .T. ) ;
#141 = FACE_BOUND ( 'NONE', #213, .T. ) ;
#142 = ORIENTED_EDGE ( 'NONE', *, *, #200, .F. ) ;
#143 = APPLICATION_PROTOCOL_DEFINITION ( 'international standard', 'config_control_design', 1994, #273 ) ;
#144 = ORIENTED_EDGE ( 'NONE', *, *, #352, .F. ) ;
#145 = PERSON_AND_ORGANIZATION_ROLE ( 'creator' ) ;
#146 = DIRECTION ( 'NONE',  ( -0.000000000000000000, -0.000000000000000000, -1.000000000000000000 ) ) ;
#147 = EDGE_CURVE ( 'NONE', #73, #117, #347, .T. ) ;
#148 = VECTOR ( 'NONE', #360, 1000.000000000000000 ) ;
#149 = APPROVAL_ROLE ( '' ) ;
#150 = DIRECTION ( 'NONE',  ( 1.000000000000000000, 0.000000000000000000, 0.000000000000000000 ) ) ;
#151 = PERSON_AND_ORGANIZATION ( #286, #135 ) ;
#152 = DIRECTION ( 'NONE',  ( 1.000000000000000000, 0.000000000000000000, 0.000000000000000000 ) ) ;
#153 = CALENDAR_DATE ( 2022, 8, 7 ) ;
#154 = UNCERTAINTY_MEASURE_WITH_UNIT (LENGTH_MEASURE( 1.000000000000000082E-05 ), #308, 'distance_accuracy_value', 'NONE');
#155 = CARTESIAN_POINT ( 'NONE',  ( 1.000000000000000000, 1.224646799147353207E-16, 403.0000000000000000 ) ) ;
#156 = AXIS2_PLACEMENT_3D ( 'NONE', #188, #271, #302 ) ;
#157 = LOCAL_TIME ( 17, 51, 28.00000000000000000, #261 ) ;
#158 = DIRECTION ( 'NONE',  ( -0.000000000000000000, -0.000000000000000000, -1.000000000000000000 ) ) ;
#159 = DIRECTION ( 'NONE',  ( 1.000000000000000000, 0.000000000000000000, 0.000000000000000000 ) ) ;
#160 = CIRCLE ( 'NONE', #176, 2.500000000000000000 ) ;
#161 = ORIENTED_EDGE ( 'NONE', *, *, #257, .F. ) ;
#162 = ADVANCED_FACE ( 'NONE', ( #60 ), #294, .T. ) ;
#163 = CARTESIAN_POINT ( 'NONE',  ( -5.000000000000000000, 0.000000000000000000, 0.000000000000000000 ) ) ;
#164 = VERTEX_POINT ( 'NONE', #209 ) ;
#165 = ADVANCED_FACE ( 'NONE', ( #33 ), #234, .T. ) ;
#166 = ORIENTED_EDGE ( 'NONE', *, *, #331, .F. ) ;
#167 = MECHANICAL_CONTEXT ( 'NONE', #248, 'mechanical' ) ;
#168 = ORIENTED_EDGE ( 'NONE', *, *, #337, .F. ) ;
#169 = SECURITY_CLASSIFICATION ( '', '', #88 ) ;
#170 = PERSON_AND_ORGANIZATION ( #286, #135 ) ;
#171 = ORIENTED_EDGE ( 'NONE', *, *, #297, .F. ) ;
#172 = CARTESIAN_POINT ( 'NONE',  ( 0.000000000000000000, 0.000000000000000000, 3.000000000000000000 ) ) ;
#173 = EDGE_CURVE ( 'NONE', #309, #139, #160, .T. ) ;
#174 = COORDINATED_UNIVERSAL_TIME_OFFSET ( 1, 0, .AHEAD. ) ;
#175 = DIRECTION ( 'NONE',  ( 0.000000000000000000, 0.000000000000000000, 1.000000000000000000 ) ) ;
#176 = AXIS2_PLACEMENT_3D ( 'NONE', #324, #206, #93 ) ;
#177 = CARTESIAN_POINT ( 'NONE',  ( -2.500000000000000000, 0.000000000000000000, 403.0000000000000000 ) ) ;
#178 = CARTESIAN_POINT ( 'NONE',  ( 5.000000000000000000, 6.123233995736766282E-16, 3.000000000000000000 ) ) ;
#179 = DATE_AND_TIME ( #153, #111 ) ;
#180 = CARTESIAN_POINT ( 'NONE',  ( 0.000000000000000000, 0.000000000000000000, 3.300000000000025135 ) ) ;
#181 = CARTESIAN_POINT ( 'NONE',  ( 0.000000000000000000, 0.000000000000000000, 0.000000000000000000 ) ) ;
#182 = EDGE_CURVE ( 'NONE', #307, #285, #320, .T. ) ;
#183 = AXIS2_PLACEMENT_3D ( 'NONE', #354, #119, #152 ) ;
#184 = VERTEX_POINT ( 'NONE', #177 ) ;
#185 = CARTESIAN_POINT ( 'NONE',  ( 1.000000000000000000, 1.224646799147353207E-16, 0.000000000000000000 ) ) ;
#186 = CIRCLE ( 'NONE', #311, 2.500000000000000000 ) ;
#187 = ADVANCED_FACE ( 'NONE', ( #63 ), #28, .F. ) ;
#188 = CARTESIAN_POINT ( 'NONE',  ( 0.000000000000000000, 0.000000000000000000, 403.0000000000000000 ) ) ;
#189 = PRODUCT_DEFINITION_SHAPE ( 'NONE', 'NONE',  #84 ) ;
#190 = ORIENTED_EDGE ( 'NONE', *, *, #173, .F. ) ;
#191 = CARTESIAN_POINT ( 'NONE',  ( -2.799999999999999822, 3.429011037612589276E-16, 3.000000000000012434 ) ) ;
#192 = ORIENTED_EDGE ( 'NONE', *, *, #147, .T. ) ;
#193 = APPROVAL_PERSON_ORGANIZATION ( #217, #318, #58 ) ;
#194 = DIRECTION ( 'NONE',  ( -0.000000000000000000, -0.000000000000000000, -1.000000000000000000 ) ) ;
#195 = EDGE_LOOP ( 'NONE', ( #201, #108 ) ) ;
#196 = DIRECTION ( 'NONE',  ( 1.000000000000000000, 0.000000000000000000, -0.000000000000000000 ) ) ;
#197 = APPLICATION_PROTOCOL_DEFINITION ( 'international standard', 'config_control_design', 1994, #248 ) ;
#198 = VERTEX_POINT ( 'NONE', #31 ) ;
#199 = DIRECTION ( 'NONE',  ( -0.000000000000000000, -0.000000000000000000, -1.000000000000000000 ) ) ;
#200 = EDGE_CURVE ( 'NONE', #139, #309, #40, .T. ) ;
#201 = ORIENTED_EDGE ( 'NONE', *, *, #331, .T. ) ;
#202 = CARTESIAN_POINT ( 'NONE',  ( 0.000000000000000000, 0.000000000000000000, 3.000000000000000000 ) ) ;
#203 = CARTESIAN_POINT ( 'NONE',  ( 0.000000000000000000, 0.000000000000000000, 403.0000000000000000 ) ) ;
#204 = EDGE_CURVE ( 'NONE', #285, #115, #298, .T. ) ;
#205 = AXIS2_PLACEMENT_3D ( 'NONE', #314, #247, #16 ) ;
#206 = DIRECTION ( 'NONE',  ( 0.000000000000000000, 0.000000000000000000, 1.000000000000000000 ) ) ;
#207 = DATE_AND_TIME ( #97, #157 ) ;
#208 = LINE ( 'NONE', #292, #133 ) ;
#209 = CARTESIAN_POINT ( 'NONE',  ( 5.000000000000000000, 6.123233995736766282E-16, 0.000000000000000000 ) ) ;
#210 = ADVANCED_FACE ( 'NONE', ( #379 ), #232, .T. ) ;
#211 = EDGE_LOOP ( 'NONE', ( #144, #228, #338, #55 ) ) ;
#212 = CARTESIAN_POINT ( 'NONE',  ( 2.799999999999999822, 0.000000000000000000, 3.300000000000025135 ) ) ;
#213 = EDGE_LOOP ( 'NONE', ( #280, #376 ) ) ;
#214 = CARTESIAN_POINT ( 'NONE',  ( 0.000000000000000000, 0.000000000000000000, 0.000000000000000000 ) ) ;
#215 = AXIS2_PLACEMENT_3D ( 'NONE', #181, #295, #159 ) ;
#216 = CARTESIAN_POINT ( 'NONE',  ( -1.000000000000000000, 0.000000000000000000, 403.0000000000000000 ) ) ;
#217 = PERSON_AND_ORGANIZATION ( #286, #135 ) ;
#218 = EDGE_LOOP ( 'NONE', ( #368, #79, #83, #52 ) ) ;
#219 = DIRECTION ( 'NONE',  ( 0.000000000000000000, 0.000000000000000000, 1.000000000000000000 ) ) ;
#220 = ORIENTED_EDGE ( 'NONE', *, *, #367, .F. ) ;
#221 = CIRCLE ( 'NONE', #244, 1.000000000000000000 ) ;
#222 = LOCAL_TIME ( 17, 51, 28.00000000000000000, #27 ) ;
#223 = CARTESIAN_POINT ( 'NONE',  ( 0.000000000000000000, 0.000000000000000000, 3.000000000000000000 ) ) ;
#224 = ORIENTED_EDGE ( 'NONE', *, *, #65, .T. ) ;
#225 = DIRECTION ( 'NONE',  ( 0.000000000000000000, 0.000000000000000000, -1.000000000000000000 ) ) ;
#226 = EDGE_LOOP ( 'NONE', ( #49, #312, #71, #13 ) ) ;
#227 = FACE_OUTER_BOUND ( 'NONE', #218, .T. ) ;
#228 = ORIENTED_EDGE ( 'NONE', *, *, #268, .T. ) ;
#229 = CIRCLE ( 'NONE', #274, 2.799999999999999822 ) ;
#230 = CC_DESIGN_APPROVAL ( #327, ( #169 ) ) ;
#231 = COORDINATED_UNIVERSAL_TIME_OFFSET ( 1, 0, .AHEAD. ) ;
#232 = CYLINDRICAL_SURFACE ( 'NONE', #351, 5.000000000000000000 ) ;
#233 = PERSON_AND_ORGANIZATION ( #286, #135 ) ;
#234 = CYLINDRICAL_SURFACE ( 'NONE', #46, 2.500000000000000000 ) ;
#235 = PRODUCT_RELATED_PRODUCT_CATEGORY ( 'detail', '', ( #67 ) ) ;
#236 = PERSON_AND_ORGANIZATION ( #286, #135 ) ;
#237 = DIRECTION ( 'NONE',  ( -0.000000000000000000, -0.000000000000000000, -1.000000000000000000 ) ) ;
#238 = VECTOR ( 'NONE', #251, 1000.000000000000000 ) ;
#239 = CC_DESIGN_SECURITY_CLASSIFICATION ( #169, ( #36 ) ) ;
#240 = DIRECTION ( 'NONE',  ( 1.000000000000000000, 0.000000000000000000, 0.000000000000000000 ) ) ;
#241 = CARTESIAN_POINT ( 'NONE',  ( 0.000000000000000000, 0.000000000000000000, 3.000000000000000000 ) ) ;
#242 = EDGE_CURVE ( 'NONE', #309, #341, #104, .T. ) ;
#243 = CARTESIAN_POINT ( 'NONE',  ( 0.000000000000000000, 0.000000000000000000, 403.0000000000000000 ) ) ;
#244 = AXIS2_PLACEMENT_3D ( 'NONE', #326, #68, #128 ) ;
#245 = DIRECTION ( 'NONE',  ( -1.000000000000000000, 0.000000000000000000, 0.000000000000000000 ) ) ;
#246 = AXIS2_PLACEMENT_3D ( 'NONE', #223, #199, #333 ) ;
#247 = DIRECTION ( 'NONE',  ( 0.000000000000000000, 0.000000000000000000, 1.000000000000000000 ) ) ;
#248 = APPLICATION_CONTEXT ( 'configuration controlled 3d designs of mechanical parts and assemblies' ) ;
#249 = AXIS2_PLACEMENT_3D ( 'NONE', #172, #113, #196 ) ;
#250 = CC_DESIGN_DATE_AND_TIME_ASSIGNMENT ( #353, #30, ( #84 ) ) ;
#251 = DIRECTION ( 'NONE',  ( -0.000000000000000000, -0.000000000000000000, -1.000000000000000000 ) ) ;
#252 = EDGE_LOOP ( 'NONE', ( #85, #166, #224, #138 ) ) ;
#253 = CARTESIAN_POINT ( 'NONE',  ( -5.000000000000000000, 0.000000000000000000, 3.000000000000000000 ) ) ;
#254 = PLANE ( 'NONE',  #249 ) ;
#255 = CARTESIAN_POINT ( 'NONE',  ( 0.000000000000000000, 0.000000000000000000, 3.000000000000000000 ) ) ;
#256 = ORIENTED_EDGE ( 'NONE', *, *, #182, .F. ) ;
#257 = EDGE_CURVE ( 'NONE', #334, #341, #229, .T. ) ;
#258 = VERTEX_POINT ( 'NONE', #216 ) ;
#259 = APPROVAL_ROLE ( '' ) ;
#260 = ORIENTED_EDGE ( 'NONE', *, *, #140, .T. ) ;
#261 = COORDINATED_UNIVERSAL_TIME_OFFSET ( 1, 0, .AHEAD. ) ;
#262 = DESIGN_CONTEXT ( 'detailed design', #273, 'design' ) ;
#263 = CARTESIAN_POINT ( 'NONE',  ( 2.500000000000000000, 3.061616997868383141E-16, 3.300000000000025135 ) ) ;
#264 = APPROVAL_DATE_TIME ( #293, #120 ) ;
#265 = DIRECTION ( 'NONE',  ( 0.000000000000000000, 0.000000000000000000, -1.000000000000000000 ) ) ;
#266 = AXIS2_PLACEMENT_3D ( 'NONE', #116, #18, #137 ) ;
#267 = DIRECTION ( 'NONE',  ( -1.000000000000000000, 0.000000000000000000, 0.000000000000000000 ) ) ;
#268 = EDGE_CURVE ( 'NONE', #198, #139, #131, .T. ) ;
#269 = EDGE_CURVE ( 'NONE', #139, #334, #11, .T. ) ;
#270 = ORIENTED_EDGE ( 'NONE', *, *, #242, .T. ) ;
#271 = DIRECTION ( 'NONE',  ( 0.000000000000000000, 0.000000000000000000, -1.000000000000000000 ) ) ;
#272 = DIRECTION ( 'NONE',  ( -0.000000000000000000, -0.000000000000000000, -1.000000000000000000 ) ) ;
#273 = APPLICATION_CONTEXT ( 'configuration controlled 3d designs of mechanical parts and assemblies' ) ;
#274 = AXIS2_PLACEMENT_3D ( 'NONE', #356, #272, #362 ) ;
#275 = ORIENTED_EDGE ( 'NONE', *, *, #106, .T. ) ;
#276 = ADVANCED_FACE ( 'NONE', ( #332, #105 ), #70, .F. ) ;
#277 = DIRECTION ( 'NONE',  ( 1.000000000000000000, 0.000000000000000000, -0.000000000000000000 ) ) ;
#278 = EDGE_LOOP ( 'NONE', ( #190, #270, #161, #21 ) ) ;
#279 = CARTESIAN_POINT ( 'NONE',  ( 0.000000000000000000, 0.000000000000000000, 403.0000000000000000 ) ) ;
#280 = ORIENTED_EDGE ( 'NONE', *, *, #257, .T. ) ;
#281 = CC_DESIGN_PERSON_AND_ORGANIZATION_ASSIGNMENT ( #291, #145, ( #84 ) ) ;
#282 = ORIENTED_EDGE ( 'NONE', *, *, #140, .F. ) ;
#283 = CIRCLE ( 'NONE', #266, 2.500000000000000000 ) ;
#284 = DIRECTION ( 'NONE',  ( 1.000000000000000000, 0.000000000000000000, 0.000000000000000000 ) ) ;
#285 = VERTEX_POINT ( 'NONE', #185 ) ;
#286 = PERSON ( 'NEURÈENÝ', 'NEURÈENÝ', 'NEURÈENÝ', ('NEURÈENÝ'), ('NEURÈENÝ'), ('NEURÈENÝ') ) ;
#287 = LINE ( 'NONE', #26, #90 ) ;
#288 = APPROVAL_DATE_TIME ( #179, #318 ) ;
#289 = DIRECTION ( 'NONE',  ( -0.000000000000000000, -0.000000000000000000, -1.000000000000000000 ) ) ;
#290 = CC_DESIGN_PERSON_AND_ORGANIZATION_ASSIGNMENT ( #7, #123, ( #36 ) ) ;
#291 = PERSON_AND_ORGANIZATION ( #286, #135 ) ;
#292 = CARTESIAN_POINT ( 'NONE',  ( -1.000000000000000000, 0.000000000000000000, 403.0000000000000000 ) ) ;
#293 = DATE_AND_TIME ( #95, #6 ) ;
#294 = CYLINDRICAL_SURFACE ( 'NONE', #323, 2.500000000000000000 ) ;
#295 = DIRECTION ( 'NONE',  ( -0.000000000000000000, -0.000000000000000000, -1.000000000000000000 ) ) ;
#296 = TOROIDAL_SURFACE ( 'NONE', #183, 2.799999999999999822, 0.2999999999999999889 ) ;
#297 = EDGE_CURVE ( 'NONE', #258, #307, #221, .T. ) ;
#298 = CIRCLE ( 'NONE', #215, 1.000000000000000000 ) ;
#299 = CIRCLE ( 'NONE', #380, 2.799999999999999822 ) ;
#300 = FACE_OUTER_BOUND ( 'NONE', #374, .T. ) ;
#301 = AXIS2_PLACEMENT_3D ( 'NONE', #241, #355, #150 ) ;
#302 = DIRECTION ( 'NONE',  ( -1.000000000000000000, 0.000000000000000000, 0.000000000000000000 ) ) ;
#303 = ORIENTED_EDGE ( 'NONE', *, *, #204, .F. ) ;
#304 = ADVANCED_FACE ( 'NONE', ( #300 ), #77, .F. ) ;
#305 = AXIS2_PLACEMENT_3D ( 'NONE', #180, #34, #64 ) ;
#306 = CARTESIAN_POINT ( 'NONE',  ( 0.000000000000000000, 0.000000000000000000, 403.0000000000000000 ) ) ;
#307 = VERTEX_POINT ( 'NONE', #132 ) ;
#308 =( LENGTH_UNIT ( ) NAMED_UNIT ( * ) SI_UNIT ( .MILLI., .METRE. ) );
#309 = VERTEX_POINT ( 'NONE', #9 ) ;
#310 = EDGE_LOOP ( 'NONE', ( #282, #303 ) ) ;
#311 = AXIS2_PLACEMENT_3D ( 'NONE', #243, #100, #284 ) ;
#312 = ORIENTED_EDGE ( 'NONE', *, *, #359, .F. ) ;
#313 = ADVANCED_BREP_SHAPE_REPRESENTATION ( '1a1c', ( #129, #205 ), #371 ) ;
#314 = CARTESIAN_POINT ( 'NONE',  ( 0.000000000000000000, 0.000000000000000000, 0.000000000000000000 ) ) ;
#315 = FACE_OUTER_BOUND ( 'NONE', #42, .T. ) ;
#316 = APPROVAL_STATUS ( 'not_yet_approved' ) ;
#317 = CARTESIAN_POINT ( 'NONE',  ( 0.000000000000000000, 0.000000000000000000, 0.000000000000000000 ) ) ;
#318 = APPROVAL ( #316, 'NEURÈENÝ' ) ;
#319 = DATE_AND_TIME ( #346, #222 ) ;
#320 = LINE ( 'NONE', #155, #369 ) ;
#321 = DIRECTION ( 'NONE',  ( 1.000000000000000000, 0.000000000000000000, 0.000000000000000000 ) ) ;
#322 = CARTESIAN_POINT ( 'NONE',  ( 0.000000000000000000, 0.000000000000000000, 403.0000000000000000 ) ) ;
#323 = AXIS2_PLACEMENT_3D ( 'NONE', #203, #158, #37 ) ;
#324 = CARTESIAN_POINT ( 'NONE',  ( 0.000000000000000000, 0.000000000000000000, 3.300000000000025135 ) ) ;
#325 = AXIS2_PLACEMENT_3D ( 'NONE', #255, #219, #373 ) ;
#326 = CARTESIAN_POINT ( 'NONE',  ( 0.000000000000000000, 0.000000000000000000, 403.0000000000000000 ) ) ;
#327 = APPROVAL ( #343, 'NEURÈENÝ' ) ;
#328 = DIRECTION ( 'NONE',  ( 0.000000000000000000, 0.000000000000000000, -1.000000000000000000 ) ) ;
#329 = EDGE_LOOP ( 'NONE', ( #54, #56, #23, #168 ) ) ;
#330 = DIRECTION ( 'NONE',  ( 1.000000000000000000, 0.000000000000000000, -0.000000000000000000 ) ) ;
#331 = EDGE_CURVE ( 'NONE', #184, #198, #186, .T. ) ;
#332 = FACE_BOUND ( 'NONE', #310, .T. ) ;
#333 = DIRECTION ( 'NONE',  ( -1.000000000000000000, 0.000000000000000000, 0.000000000000000000 ) ) ;
#334 = VERTEX_POINT ( 'NONE', #375 ) ;
#335 = DIRECTION ( 'NONE',  ( 1.000000000000000000, 0.000000000000000000, 0.000000000000000000 ) ) ;
#336 = VERTEX_POINT ( 'NONE', #163 ) ;
#337 = EDGE_CURVE ( 'NONE', #117, #336, #363, .T. ) ;
#338 = ORIENTED_EDGE ( 'NONE', *, *, #200, .T. ) ;
#339 = CYLINDRICAL_SURFACE ( 'NONE', #246, 5.000000000000000000 ) ;
#340 = EDGE_LOOP ( 'NONE', ( #45, #22 ) ) ;
#341 = VERTEX_POINT ( 'NONE', #191 ) ;
#342 = CC_DESIGN_APPROVAL ( #120, ( #36 ) ) ;
#343 = APPROVAL_STATUS ( 'not_yet_approved' ) ;
#344 = ADVANCED_FACE ( 'NONE', ( #366, #86 ), #109, .T. ) ;
#345 = FACE_OUTER_BOUND ( 'NONE', #82, .T. ) ;
#346 = CALENDAR_DATE ( 2022, 8, 7 ) ;
#347 = CIRCLE ( 'NONE', #301, 5.000000000000000000 ) ;
#348 = CARTESIAN_POINT ( 'NONE',  ( 0.000000000000000000, 0.000000000000000000, 0.000000000000000000 ) ) ;
#349 = PERSON_AND_ORGANIZATION_ROLE ( 'classification_officer' ) ;
#350 = CARTESIAN_POINT ( 'NONE',  ( -5.000000000000000000, 0.000000000000000000, 3.000000000000000000 ) ) ;
#351 = AXIS2_PLACEMENT_3D ( 'NONE', #202, #289, #245 ) ;
#352 = EDGE_CURVE ( 'NONE', #198, #184, #283, .T. ) ;
#353 = DATE_AND_TIME ( #2, #41 ) ;
#354 = CARTESIAN_POINT ( 'NONE',  ( 0.000000000000000000, 0.000000000000000000, 3.300000000000025135 ) ) ;
#355 = DIRECTION ( 'NONE',  ( 0.000000000000000000, 0.000000000000000000, 1.000000000000000000 ) ) ;
#356 = CARTESIAN_POINT ( 'NONE',  ( 0.000000000000000000, 0.000000000000000000, 3.000000000000000000 ) ) ;
#357 = APPROVAL_PERSON_ORGANIZATION ( #378, #120, #149 ) ;
#358 = DIRECTION ( 'NONE',  ( 1.224646799147353207E-16, 1.000000000000000000, -0.000000000000000000 ) ) ;
#359 = EDGE_CURVE ( 'NONE', #117, #73, #66, .T. ) ;
#360 = DIRECTION ( 'NONE',  ( -0.000000000000000000, -0.000000000000000000, -1.000000000000000000 ) ) ;
#361 = ADVANCED_FACE ( 'NONE', ( #227 ), #112, .F. ) ;
#362 = DIRECTION ( 'NONE',  ( 1.000000000000000000, 0.000000000000000000, 0.000000000000000000 ) ) ;
#363 = LINE ( 'NONE', #253, #238 ) ;
#364 = ORIENTED_EDGE ( 'NONE', *, *, #106, .F. ) ;
#365 = CLOSED_SHELL ( 'NONE', ( #361, #187, #165, #377, #210, #10, #276, #162, #344, #24, #304 ) ) ;
#366 = FACE_BOUND ( 'NONE', #87, .T. ) ;
#367 = EDGE_CURVE ( 'NONE', #341, #334, #299, .T. ) ;
#368 = ORIENTED_EDGE ( 'NONE', *, *, #297, .T. ) ;
#369 = VECTOR ( 'NONE', #265, 1000.000000000000000 ) ;
#370 = CARTESIAN_POINT ( 'NONE',  ( 0.000000000000000000, 0.000000000000000000, 3.000000000000000000 ) ) ;
#371 =( GEOMETRIC_REPRESENTATION_CONTEXT ( 3 ) GLOBAL_UNCERTAINTY_ASSIGNED_CONTEXT ( ( #154 ) ) GLOBAL_UNIT_ASSIGNED_CONTEXT ( ( #308, #51, #81 ) ) REPRESENTATION_CONTEXT ( 'NONE', 'WORKASPACE' ) );
#372 = ORIENTED_EDGE ( 'NONE', *, *, #359, .T. ) ;
#373 = DIRECTION ( 'NONE',  ( 1.000000000000000000, 0.000000000000000000, 0.000000000000000000 ) ) ;
#374 = EDGE_LOOP ( 'NONE', ( #256, #275, #110, #260 ) ) ;
#375 = CARTESIAN_POINT ( 'NONE',  ( 2.799999999999999822, 0.000000000000000000, 3.000000000000012434 ) ) ;
#376 = ORIENTED_EDGE ( 'NONE', *, *, #367, .T. ) ;
#377 = ADVANCED_FACE ( 'NONE', ( #114 ), #339, .T. ) ;
#378 = PERSON_AND_ORGANIZATION ( #286, #135 ) ;
#379 = FACE_OUTER_BOUND ( 'NONE', #226, .T. ) ;
#380 = AXIS2_PLACEMENT_3D ( 'NONE', #370, #194, #335 ) ;
#381 = DIRECTION ( 'NONE',  ( 0.000000000000000000, 0.000000000000000000, 1.000000000000000000 ) ) ;
ENDSEC;
END-ISO-10303-21;
