ISO-10303-21;
HEADER;
FILE_DESCRIPTION (( 'STEP AP203' ),
    '1' );
FILE_NAME ('566b.STEP',
    '2022-07-08T15:34:09',
    ( '' ),
    ( '' ),
    'SwSTEP 2.0',
    'SolidWorks 2019',
    '' );
FILE_SCHEMA (( 'CONFIG_CONTROL_DESIGN' ));
ENDSEC;

DATA;
#1 = ORIENTED_EDGE ( 'NONE', *, *, #220, .F. ) ;
#2 = CYLINDRICAL_SURFACE ( 'NONE', #286, 3.000000000000000444 ) ;
#3 = FACE_OUTER_BOUND ( 'NONE', #22, .T. ) ;
#4 = CARTESIAN_POINT ( 'NONE',  ( 0.000000000000000000, 0.000000000000000000, 5.499999999999949374 ) ) ;
#5 = FACE_OUTER_BOUND ( 'NONE', #113, .T. ) ;
#6 = CARTESIAN_POINT ( 'NONE',  ( 0.000000000000000000, 0.000000000000000000, 605.0000000000000000 ) ) ;
#7 = APPROVAL_PERSON_ORGANIZATION ( #209, #207, #115 ) ;
#8 = CALENDAR_DATE ( 2022, 8, 7 ) ;
#9 = CARTESIAN_POINT ( 'NONE',  ( 6.000000000000000888, 7.347880794884120722E-16, 5.000000000000000000 ) ) ;
#10 = CARTESIAN_POINT ( 'NONE',  ( 0.000000000000000000, 0.000000000000000000, 0.000000000000000000 ) ) ;
#11 = ADVANCED_FACE ( 'NONE', ( #136, #5 ), #174, .F. ) ;
#12 = DIRECTION ( 'NONE',  ( 0.000000000000000000, 0.000000000000000000, -1.000000000000000000 ) ) ;
#13 = APPROVAL ( #175, 'NEURÈENÝ' ) ;
#14 = DIRECTION ( 'NONE',  ( 1.000000000000000000, 0.000000000000000000, 0.000000000000000000 ) ) ;
#15 = CIRCLE ( 'NONE', #345, 3.500000000000000444 ) ;
#16 = CARTESIAN_POINT ( 'NONE',  ( 0.000000000000000000, 0.000000000000000000, 5.000000000000000000 ) ) ;
#17 = EDGE_CURVE ( 'NONE', #330, #166, #157, .T. ) ;
#18 = AXIS2_PLACEMENT_3D ( 'NONE', #31, #261, #28 ) ;
#19 = EDGE_LOOP ( 'NONE', ( #52, #201 ) ) ;
#20 = CARTESIAN_POINT ( 'NONE',  ( 0.000000000000000000, 0.000000000000000000, 5.000000000000000000 ) ) ;
#21 = ADVANCED_FACE ( 'NONE', ( #3 ), #288, .F. ) ;
#22 = EDGE_LOOP ( 'NONE', ( #343, #283, #267, #50 ) ) ;
#23 = CIRCLE ( 'NONE', #235, 2.000000000000000000 ) ;
#24 =( LENGTH_UNIT ( ) NAMED_UNIT ( * ) SI_UNIT ( .MILLI., .METRE. ) );
#25 = APPLICATION_CONTEXT ( 'configuration controlled 3d designs of mechanical parts and assemblies' ) ;
#26 = VERTEX_POINT ( 'NONE', #78 ) ;
#27 = DIRECTION ( 'NONE',  ( 0.000000000000000000, 0.000000000000000000, 1.000000000000000000 ) ) ;
#28 = DIRECTION ( 'NONE',  ( 1.000000000000000000, 0.000000000000000000, 0.000000000000000000 ) ) ;
#29 = DIRECTION ( 'NONE',  ( -0.000000000000000000, -0.000000000000000000, -1.000000000000000000 ) ) ;
#30 = EDGE_LOOP ( 'NONE', ( #233, #292, #318, #54 ) ) ;
#31 = CARTESIAN_POINT ( 'NONE',  ( 0.000000000000000000, 0.000000000000000000, 605.0000000000000000 ) ) ;
#32 = SECURITY_CLASSIFICATION_LEVEL ( 'unclassified' ) ;
#33 = ADVANCED_FACE ( 'NONE', ( #197 ), #325, .F. ) ;
#34 = DIRECTION ( 'NONE',  ( 0.000000000000000000, 0.000000000000000000, 1.000000000000000000 ) ) ;
#35 = PERSON ( 'NEURÈENÝ', 'NEURÈENÝ', 'NEURÈENÝ', ('NEURÈENÝ'), ('NEURÈENÝ'), ('NEURÈENÝ') ) ;
#36 = EDGE_LOOP ( 'NONE', ( #48, #257 ) ) ;
#37 = ADVANCED_FACE ( 'NONE', ( #297 ), #112, .F. ) ;
#38 = DATE_TIME_ROLE ( 'classification_date' ) ;
#39 = CARTESIAN_POINT ( 'NONE',  ( 2.000000000000000000, 2.449293598294706414E-16, 605.0000000000000000 ) ) ;
#40 = APPROVAL_STATUS ( 'not_yet_approved' ) ;
#41 = CARTESIAN_POINT ( 'NONE',  ( 0.000000000000000000, 0.000000000000000000, 605.0000000000000000 ) ) ;
#42 = CIRCLE ( 'NONE', #256, 6.000000000000000888 ) ;
#43 = LINE ( 'NONE', #96, #344 ) ;
#44 = LINE ( 'NONE', #183, #85 ) ;
#45 = EDGE_LOOP ( 'NONE', ( #352, #158, #187, #284 ) ) ;
#46 = ORIENTED_EDGE ( 'NONE', *, *, #220, .T. ) ;
#47 = CIRCLE ( 'NONE', #202, 3.000000000000000444 ) ;
#48 = ORIENTED_EDGE ( 'NONE', *, *, #17, .T. ) ;
#49 = DIRECTION ( 'NONE',  ( 0.000000000000000000, 0.000000000000000000, -1.000000000000000000 ) ) ;
#50 = ORIENTED_EDGE ( 'NONE', *, *, #305, .F. ) ;
#51 = CARTESIAN_POINT ( 'NONE',  ( 0.000000000000000000, 0.000000000000000000, 5.000000000000000000 ) ) ;
#52 = ORIENTED_EDGE ( 'NONE', *, *, #84, .F. ) ;
#53 = CARTESIAN_POINT ( 'NONE',  ( 0.000000000000000000, 0.000000000000000000, 5.000000000000000000 ) ) ;
#54 = ORIENTED_EDGE ( 'NONE', *, *, #243, .F. ) ;
#55 = EDGE_CURVE ( 'NONE', #316, #60, #336, .T. ) ;
#56 = DIRECTION ( 'NONE',  ( 0.000000000000000000, 0.000000000000000000, 1.000000000000000000 ) ) ;
#57 = EDGE_CURVE ( 'NONE', #127, #60, #299, .T. ) ;
#58 = DIRECTION ( 'NONE',  ( 0.000000000000000000, 0.000000000000000000, -1.000000000000000000 ) ) ;
#59 = VECTOR ( 'NONE', #103, 1000.000000000000000 ) ;
#60 = VERTEX_POINT ( 'NONE', #119 ) ;
#61 = APPLICATION_PROTOCOL_DEFINITION ( 'international standard', 'config_control_design', 1994, #214 ) ;
#62 = DIRECTION ( 'NONE',  ( 0.000000000000000000, 0.000000000000000000, 1.000000000000000000 ) ) ;
#63 = EDGE_CURVE ( 'NONE', #295, #26, #215, .T. ) ;
#64 = CARTESIAN_POINT ( 'NONE',  ( -6.000000000000000888, 0.000000000000000000, 5.000000000000000000 ) ) ;
#65 = CARTESIAN_POINT ( 'NONE',  ( 0.000000000000000000, 0.000000000000000000, 5.000000000000000000 ) ) ;
#66 = DIRECTION ( 'NONE',  ( 1.000000000000000000, 0.000000000000000000, 0.000000000000000000 ) ) ;
#67 = ADVANCED_FACE ( 'NONE', ( #208 ), #271, .T. ) ;
#68 = CARTESIAN_POINT ( 'NONE',  ( -6.000000000000000888, 0.000000000000000000, 5.000000000000000000 ) ) ;
#69 = TOROIDAL_SURFACE ( 'NONE', #177, 3.500000000000000444, 0.5000000000000000000 ) ;
#70 = DIRECTION ( 'NONE',  ( 1.000000000000000000, 0.000000000000000000, 0.000000000000000000 ) ) ;
#71 = AXIS2_PLACEMENT_3D ( 'NONE', #51, #285, #319 ) ;
#72 = ORIENTED_EDGE ( 'NONE', *, *, #63, .F. ) ;
#73 = EDGE_LOOP ( 'NONE', ( #140, #99, #154, #310 ) ) ;
#74 = CARTESIAN_POINT ( 'NONE',  ( -3.500000000000000444, 4.286263797015737088E-16, 4.999999999999975131 ) ) ;
#75 = ORIENTED_EDGE ( 'NONE', *, *, #305, .T. ) ;
#76 = FACE_OUTER_BOUND ( 'NONE', #98, .T. ) ;
#77 = CIRCLE ( 'NONE', #260, 0.4999999999999995559 ) ;
#78 = CARTESIAN_POINT ( 'NONE',  ( 3.500000000000000444, 0.000000000000000000, 4.999999999999975131 ) ) ;
#79 = DIRECTION ( 'NONE',  ( -0.000000000000000000, -0.000000000000000000, -1.000000000000000000 ) ) ;
#80 = CARTESIAN_POINT ( 'NONE',  ( 0.000000000000000000, 0.000000000000000000, 0.000000000000000000 ) ) ;
#81 = PERSON_AND_ORGANIZATION_ROLE ( 'design_supplier' ) ;
#82 = ORIENTED_EDGE ( 'NONE', *, *, #351, .T. ) ;
#83 = CC_DESIGN_PERSON_AND_ORGANIZATION_ASSIGNMENT ( #334, #200, ( #320 ) ) ;
#84 = EDGE_CURVE ( 'NONE', #134, #163, #370, .T. ) ;
#85 = VECTOR ( 'NONE', #150, 1000.000000000000000 ) ;
#86 = PERSON_AND_ORGANIZATION_ROLE ( 'creator' ) ;
#87 = PERSON_AND_ORGANIZATION ( #35, #250 ) ;
#88 = DIRECTION ( 'NONE',  ( 1.000000000000000000, 0.000000000000000000, 0.000000000000000000 ) ) ;
#89 = APPROVAL_DATE_TIME ( #303, #13 ) ;
#90 = DIRECTION ( 'NONE',  ( 1.000000000000000000, 0.000000000000000000, 0.000000000000000000 ) ) ;
#91 = PRODUCT ( '566b', '566b', '', ( #363 ) ) ;
#92 = DATE_AND_TIME ( #365, #236 ) ;
#93 = VECTOR ( 'NONE', #124, 1000.000000000000000 ) ;
#94 = LINE ( 'NONE', #68, #93 ) ;
#95 = ADVANCED_FACE ( 'NONE', ( #241, #145 ), #216, .T. ) ;
#96 = CARTESIAN_POINT ( 'NONE',  ( 2.000000000000000000, 2.449293598294706414E-16, 605.0000000000000000 ) ) ;
#97 = PRODUCT_DEFINITION_SHAPE ( 'NONE', 'NONE',  #278 ) ;
#98 = EDGE_LOOP ( 'NONE', ( #218, #322, #75, #72 ) ) ;
#99 = ORIENTED_EDGE ( 'NONE', *, *, #143, .T. ) ;
#100 = CARTESIAN_POINT ( 'NONE',  ( 0.000000000000000000, 0.000000000000000000, 5.499999999999949374 ) ) ;
#101 = CIRCLE ( 'NONE', #155, 6.000000000000000888 ) ;
#102 = UNCERTAINTY_MEASURE_WITH_UNIT (LENGTH_MEASURE( 1.000000000000000082E-05 ), #24, 'distance_accuracy_value', 'NONE');
#103 = DIRECTION ( 'NONE',  ( 0.000000000000000000, 0.000000000000000000, -1.000000000000000000 ) ) ;
#104 = ORIENTED_EDGE ( 'NONE', *, *, #380, .T. ) ;
#105 = AXIS2_PLACEMENT_3D ( 'NONE', #6, #323, #232 ) ;
#106 = DIRECTION ( 'NONE',  ( 0.000000000000000000, 0.000000000000000000, 1.000000000000000000 ) ) ;
#107 = ORIENTED_EDGE ( 'NONE', *, *, #57, .T. ) ;
#108 = DIRECTION ( 'NONE',  ( -0.000000000000000000, -0.000000000000000000, -1.000000000000000000 ) ) ;
#109 = PRODUCT_RELATED_PRODUCT_CATEGORY ( 'detail', '', ( #91 ) ) ;
#110 = VERTEX_POINT ( 'NONE', #64 ) ;
#111 = CARTESIAN_POINT ( 'NONE',  ( -2.000000000000000000, 0.000000000000000000, 605.0000000000000000 ) ) ;
#112 = CYLINDRICAL_SURFACE ( 'NONE', #105, 2.000000000000000000 ) ;
#113 = EDGE_LOOP ( 'NONE', ( #373, #1 ) ) ;
#114 = CC_DESIGN_PERSON_AND_ORGANIZATION_ASSIGNMENT ( #211, #86, ( #278 ) ) ;
#115 = APPROVAL_ROLE ( '' ) ;
#116 = PERSON_AND_ORGANIZATION_ROLE ( 'design_owner' ) ;
#117 = CARTESIAN_POINT ( 'NONE',  ( 0.000000000000000000, 0.000000000000000000, 0.000000000000000000 ) ) ;
#118 = APPROVAL_ROLE ( '' ) ;
#119 = CARTESIAN_POINT ( 'NONE',  ( 6.000000000000000888, 7.347880794884120722E-16, 0.000000000000000000 ) ) ;
#120 = EDGE_CURVE ( 'NONE', #166, #330, #47, .T. ) ;
#121 = MANIFOLD_SOLID_BREP ( 'Odebrat vysunutím3', #151 ) ;
#122 = LOCAL_TIME ( 17, 34, 9.000000000000000000, #327 ) ;
#123 = DIRECTION ( 'NONE',  ( 0.000000000000000000, 0.000000000000000000, 1.000000000000000000 ) ) ;
#124 = DIRECTION ( 'NONE',  ( -0.000000000000000000, -0.000000000000000000, -1.000000000000000000 ) ) ;
#125 = AXIS2_PLACEMENT_3D ( 'NONE', #217, #272, #70 ) ;
#126 = ORIENTED_EDGE ( 'NONE', *, *, #237, .F. ) ;
#127 = VERTEX_POINT ( 'NONE', #9 ) ;
#128 = DIRECTION ( 'NONE',  ( 1.000000000000000000, 0.000000000000000000, 0.000000000000000000 ) ) ;
#129 = EDGE_LOOP ( 'NONE', ( #104, #311 ) ) ;
#130 = FACE_OUTER_BOUND ( 'NONE', #30, .T. ) ;
#131 = ORIENTED_EDGE ( 'NONE', *, *, #290, .F. ) ;
#132 = CC_DESIGN_PERSON_AND_ORGANIZATION_ASSIGNMENT ( #87, #204, ( #368 ) ) ;
#133 = CARTESIAN_POINT ( 'NONE',  ( 3.500000000000000444, 0.000000000000000000, 5.499999999999949374 ) ) ;
#134 = VERTEX_POINT ( 'NONE', #301 ) ;
#135 = FACE_BOUND ( 'NONE', #254, .T. ) ;
#136 = FACE_BOUND ( 'NONE', #156, .T. ) ;
#137 = COORDINATED_UNIVERSAL_TIME_OFFSET ( 1, 0, .AHEAD. ) ;
#138 = DIRECTION ( 'NONE',  ( 1.000000000000000000, 0.000000000000000000, 0.000000000000000000 ) ) ;
#139 = PERSON_AND_ORGANIZATION ( #35, #250 ) ;
#140 = ORIENTED_EDGE ( 'NONE', *, *, #191, .F. ) ;
#141 = AXIS2_PLACEMENT_3D ( 'NONE', #133, #196, #49 ) ;
#142 = CARTESIAN_POINT ( 'NONE',  ( 0.000000000000000000, 0.000000000000000000, 605.0000000000000000 ) ) ;
#143 = EDGE_CURVE ( 'NONE', #163, #134, #249, .T. ) ;
#144 = COORDINATED_UNIVERSAL_TIME_OFFSET ( 1, 0, .AHEAD. ) ;
#145 = FACE_OUTER_BOUND ( 'NONE', #36, .T. ) ;
#146 = AXIS2_PLACEMENT_3D ( 'NONE', #41, #333, #275 ) ;
#147 = CARTESIAN_POINT ( 'NONE',  ( -2.000000000000000000, 0.000000000000000000, 0.000000000000000000 ) ) ;
#148 = CC_DESIGN_APPROVAL ( #13, ( #368 ) ) ;
#149 = ADVANCED_FACE ( 'NONE', ( #371 ), #307, .T. ) ;
#150 = DIRECTION ( 'NONE',  ( -0.000000000000000000, -0.000000000000000000, -1.000000000000000000 ) ) ;
#151 = CLOSED_SHELL ( 'NONE', ( #33, #21, #374, #67, #338, #321, #11, #149, #95, #312, #37 ) ) ;
#152 = AXIS2_PLACEMENT_3D ( 'NONE', #142, #123, #176 ) ;
#153 = DIRECTION ( 'NONE',  ( 1.000000000000000000, 0.000000000000000000, 0.000000000000000000 ) ) ;
#154 = ORIENTED_EDGE ( 'NONE', *, *, #377, .T. ) ;
#155 = AXIS2_PLACEMENT_3D ( 'NONE', #53, #375, #162 ) ;
#156 = EDGE_LOOP ( 'NONE', ( #329, #131 ) ) ;
#157 = CIRCLE ( 'NONE', #18, 3.000000000000000444 ) ;
#158 = ORIENTED_EDGE ( 'NONE', *, *, #191, .T. ) ;
#159 = DESIGN_CONTEXT ( 'detailed design', #25, 'design' ) ;
#160 = ORIENTED_EDGE ( 'NONE', *, *, #237, .T. ) ;
#161 = LOCAL_TIME ( 17, 34, 9.000000000000000000, #240 ) ;
#162 = DIRECTION ( 'NONE',  ( 1.000000000000000000, 0.000000000000000000, 0.000000000000000000 ) ) ;
#163 = VERTEX_POINT ( 'NONE', #39 ) ;
#164 = AXIS2_PLACEMENT_3D ( 'NONE', #169, #34, #138 ) ;
#165 = PLANE ( 'NONE',  #280 ) ;
#166 = VERTEX_POINT ( 'NONE', #210 ) ;
#167 = EDGE_CURVE ( 'NONE', #127, #110, #245, .T. ) ;
#168 = APPROVAL_DATE_TIME ( #263, #207 ) ;
#169 = CARTESIAN_POINT ( 'NONE',  ( 0.000000000000000000, 0.000000000000000000, 0.000000000000000000 ) ) ;
#170 = LOCAL_TIME ( 17, 34, 9.000000000000000000, #137 ) ;
#171 = DATE_TIME_ROLE ( 'creation_date' ) ;
#172 = ORIENTED_EDGE ( 'NONE', *, *, #17, .F. ) ;
#173 = DATE_AND_TIME ( #8, #170 ) ;
#174 = PLANE ( 'NONE',  #282 ) ;
#175 = APPROVAL_STATUS ( 'not_yet_approved' ) ;
#176 = DIRECTION ( 'NONE',  ( 1.000000000000000000, 0.000000000000000000, 0.000000000000000000 ) ) ;
#177 = AXIS2_PLACEMENT_3D ( 'NONE', #227, #56, #381 ) ;
#178 = PERSON_AND_ORGANIZATION ( #35, #250 ) ;
#179 = AXIS2_PLACEMENT_3D ( 'NONE', #10, #62, #242 ) ;
#180 = DIRECTION ( 'NONE',  ( 0.000000000000000000, 0.000000000000000000, 1.000000000000000000 ) ) ;
#181 = DIRECTION ( 'NONE',  ( -1.000000000000000000, 0.000000000000000000, 0.000000000000000000 ) ) ;
#182 = CC_DESIGN_DATE_AND_TIME_ASSIGNMENT ( #206, #38, ( #320 ) ) ;
#183 = CARTESIAN_POINT ( 'NONE',  ( -3.000000000000000444, 0.000000000000000000, 605.0000000000000000 ) ) ;
#184 = DIRECTION ( 'NONE',  ( -1.000000000000000000, 1.224646799147354440E-16, 0.000000000000000000 ) ) ;
#185 = ORIENTED_EDGE ( 'NONE', *, *, #380, .F. ) ;
#186 = CC_DESIGN_PERSON_AND_ORGANIZATION_ASSIGNMENT ( #139, #81, ( #368 ) ) ;
#187 = ORIENTED_EDGE ( 'NONE', *, *, #290, .T. ) ;
#188 =( NAMED_UNIT ( * ) SI_UNIT ( $, .STERADIAN. ) SOLID_ANGLE_UNIT ( ) );
#189 = AXIS2_PLACEMENT_3D ( 'NONE', #247, #331, #181 ) ;
#190 = CARTESIAN_POINT ( 'NONE',  ( -3.000000000000000444, 0.000000000000000000, 605.0000000000000000 ) ) ;
#191 = EDGE_CURVE ( 'NONE', #163, #195, #43, .T. ) ;
#192 = ORIENTED_EDGE ( 'NONE', *, *, #342, .T. ) ;
#193 = DIRECTION ( 'NONE',  ( 1.000000000000000000, 0.000000000000000000, 0.000000000000000000 ) ) ;
#194 = CIRCLE ( 'NONE', #340, 3.000000000000000444 ) ;
#195 = VERTEX_POINT ( 'NONE', #367 ) ;
#196 = DIRECTION ( 'NONE',  ( 0.000000000000000000, -1.000000000000000000, 0.000000000000000000 ) ) ;
#197 = FACE_OUTER_BOUND ( 'NONE', #45, .T. ) ;
#198 = AXIS2_PLACEMENT_3D ( 'NONE', #306, #304, #88 ) ;
#199 = CARTESIAN_POINT ( 'NONE',  ( -3.000000000000000444, 0.000000000000000000, 5.499999999999949374 ) ) ;
#200 = PERSON_AND_ORGANIZATION_ROLE ( 'classification_officer' ) ;
#201 = ORIENTED_EDGE ( 'NONE', *, *, #143, .F. ) ;
#202 = AXIS2_PLACEMENT_3D ( 'NONE', #337, #364, #14 ) ;
#203 = CIRCLE ( 'NONE', #274, 3.000000000000000444 ) ;
#204 = PERSON_AND_ORGANIZATION_ROLE ( 'creator' ) ;
#205 = CARTESIAN_POINT ( 'NONE',  ( 6.000000000000000888, 7.347880794884120722E-16, 5.000000000000000000 ) ) ;
#206 = DATE_AND_TIME ( #298, #122 ) ;
#207 = APPROVAL ( #40, 'NEURÈENÝ' ) ;
#208 = FACE_OUTER_BOUND ( 'NONE', #221, .T. ) ;
#209 = PERSON_AND_ORGANIZATION ( #35, #250 ) ;
#210 = CARTESIAN_POINT ( 'NONE',  ( 3.000000000000000444, 3.673940397442060361E-16, 605.0000000000000000 ) ) ;
#211 = PERSON_AND_ORGANIZATION ( #35, #250 ) ;
#212 = CC_DESIGN_APPROVAL ( #207, ( #320 ) ) ;
#213 = DIRECTION ( 'NONE',  ( 1.224646799147353207E-16, 1.000000000000000000, -0.000000000000000000 ) ) ;
#214 = APPLICATION_CONTEXT ( 'configuration controlled 3d designs of mechanical parts and assemblies' ) ;
#215 = CIRCLE ( 'NONE', #198, 3.500000000000000444 ) ;
#216 = PLANE ( 'NONE',  #146 ) ;
#217 = CARTESIAN_POINT ( 'NONE',  ( 0.000000000000000000, 0.000000000000000000, 605.0000000000000000 ) ) ;
#218 = ORIENTED_EDGE ( 'NONE', *, *, #219, .F. ) ;
#219 = EDGE_CURVE ( 'NONE', #376, #295, #77, .T. ) ;
#220 = EDGE_CURVE ( 'NONE', #60, #316, #42, .T. ) ;
#221 = EDGE_LOOP ( 'NONE', ( #226, #107, #46, #126 ) ) ;
#222 =( NAMED_UNIT ( * ) PLANE_ANGLE_UNIT ( ) SI_UNIT ( $, .RADIAN. ) );
#223 = VECTOR ( 'NONE', #29, 1000.000000000000000 ) ;
#224 = CC_DESIGN_DATE_AND_TIME_ASSIGNMENT ( #173, #171, ( #278 ) ) ;
#225 = AXIS2_PLACEMENT_3D ( 'NONE', #264, #58, #360 ) ;
#226 = ORIENTED_EDGE ( 'NONE', *, *, #167, .F. ) ;
#227 = CARTESIAN_POINT ( 'NONE',  ( 0.000000000000000000, 0.000000000000000000, 5.499999999999949374 ) ) ;
#228 = DIRECTION ( 'NONE',  ( -0.000000000000000000, -0.000000000000000000, -1.000000000000000000 ) ) ;
#229 = CARTESIAN_POINT ( 'NONE',  ( 0.000000000000000000, 0.000000000000000000, 605.0000000000000000 ) ) ;
#230 = VERTEX_POINT ( 'NONE', #147 ) ;
#231 = CARTESIAN_POINT ( 'NONE',  ( 3.000000000000000444, 3.673940397442060361E-16, 5.499999999999949374 ) ) ;
#232 = DIRECTION ( 'NONE',  ( -1.000000000000000000, 0.000000000000000000, 0.000000000000000000 ) ) ;
#233 = ORIENTED_EDGE ( 'NONE', *, *, #120, .F. ) ;
#234 = APPLICATION_PROTOCOL_DEFINITION ( 'international standard', 'config_control_design', 1994, #25 ) ;
#235 = AXIS2_PLACEMENT_3D ( 'NONE', #117, #239, #348 ) ;
#236 = LOCAL_TIME ( 17, 34, 9.000000000000000000, #266 ) ;
#237 = EDGE_CURVE ( 'NONE', #110, #316, #94, .T. ) ;
#238 = APPROVAL_DATE_TIME ( #92, #248 ) ;
#239 = DIRECTION ( 'NONE',  ( -0.000000000000000000, -0.000000000000000000, -1.000000000000000000 ) ) ;
#240 = COORDINATED_UNIVERSAL_TIME_OFFSET ( 1, 0, .AHEAD. ) ;
#241 = FACE_BOUND ( 'NONE', #19, .T. ) ;
#242 = DIRECTION ( 'NONE',  ( 1.000000000000000000, 0.000000000000000000, 0.000000000000000000 ) ) ;
#243 = EDGE_CURVE ( 'NONE', #330, #376, #44, .T. ) ;
#244 = CARTESIAN_POINT ( 'NONE',  ( -3.500000000000000444, 4.286263797015737088E-16, 5.499999999999949374 ) ) ;
#245 = CIRCLE ( 'NONE', #294, 6.000000000000000888 ) ;
#246 = DIRECTION ( 'NONE',  ( -0.000000000000000000, -0.000000000000000000, -1.000000000000000000 ) ) ;
#247 = CARTESIAN_POINT ( 'NONE',  ( 0.000000000000000000, 0.000000000000000000, 5.000000000000000000 ) ) ;
#248 = APPROVAL ( #332, 'NEURÈENÝ' ) ;
#249 = CIRCLE ( 'NONE', #125, 2.000000000000000000 ) ;
#250 = ORGANIZATION ( 'NEURÈENÝ', 'NEURÈENÝ', '' ) ;
#251 = ORIENTED_EDGE ( 'NONE', *, *, #243, .T. ) ;
#252 = AXIS2_PLACEMENT_3D ( 'NONE', #4, #362, #356 ) ;
#253 = FACE_OUTER_BOUND ( 'NONE', #129, .T. ) ;
#254 = EDGE_LOOP ( 'NONE', ( #82, #347 ) ) ;
#255 = CARTESIAN_POINT ( 'NONE',  ( -6.000000000000000888, 0.000000000000000000, 0.000000000000000000 ) ) ;
#256 = AXIS2_PLACEMENT_3D ( 'NONE', #369, #335, #66 ) ;
#257 = ORIENTED_EDGE ( 'NONE', *, *, #120, .T. ) ;
#258 = CARTESIAN_POINT ( 'NONE',  ( 3.000000000000000444, 3.673940397442060361E-16, 605.0000000000000000 ) ) ;
#259 = DIRECTION ( 'NONE',  ( 0.000000000000000000, 0.000000000000000000, 1.000000000000000000 ) ) ;
#260 = AXIS2_PLACEMENT_3D ( 'NONE', #244, #213, #184 ) ;
#261 = DIRECTION ( 'NONE',  ( 0.000000000000000000, 0.000000000000000000, 1.000000000000000000 ) ) ;
#262 = EDGE_LOOP ( 'NONE', ( #279, #172, #251, #192 ) ) ;
#263 = DATE_AND_TIME ( #270, #378 ) ;
#264 = CARTESIAN_POINT ( 'NONE',  ( 0.000000000000000000, 0.000000000000000000, 605.0000000000000000 ) ) ;
#265 = EDGE_CURVE ( 'NONE', #230, #195, #308, .T. ) ;
#266 = COORDINATED_UNIVERSAL_TIME_OFFSET ( 1, 0, .AHEAD. ) ;
#267 = ORIENTED_EDGE ( 'NONE', *, *, #351, .F. ) ;
#268 = PERSON_AND_ORGANIZATION ( #35, #250 ) ;
#269 = CARTESIAN_POINT ( 'NONE',  ( 0.000000000000000000, 0.000000000000000000, 605.0000000000000000 ) ) ;
#270 = CALENDAR_DATE ( 2022, 8, 7 ) ;
#271 = CYLINDRICAL_SURFACE ( 'NONE', #189, 6.000000000000000888 ) ;
#272 = DIRECTION ( 'NONE',  ( 0.000000000000000000, 0.000000000000000000, 1.000000000000000000 ) ) ;
#273 = AXIS2_PLACEMENT_3D ( 'NONE', #269, #246, #366 ) ;
#274 = AXIS2_PLACEMENT_3D ( 'NONE', #277, #106, #193 ) ;
#275 = DIRECTION ( 'NONE',  ( 1.000000000000000000, 0.000000000000000000, -0.000000000000000000 ) ) ;
#276 = ADVANCED_BREP_SHAPE_REPRESENTATION ( '566b', ( #121, #179 ), #302 ) ;
#277 = CARTESIAN_POINT ( 'NONE',  ( 0.000000000000000000, 0.000000000000000000, 5.499999999999949374 ) ) ;
#278 = PRODUCT_DEFINITION ( 'NEZNÁMÝ', '', #368, #159 ) ;
#279 = ORIENTED_EDGE ( 'NONE', *, *, #361, .F. ) ;
#280 = AXIS2_PLACEMENT_3D ( 'NONE', #20, #27, #350 ) ;
#281 = ORIENTED_EDGE ( 'NONE', *, *, #57, .F. ) ;
#282 = AXIS2_PLACEMENT_3D ( 'NONE', #80, #259, #289 ) ;
#283 = ORIENTED_EDGE ( 'NONE', *, *, #219, .T. ) ;
#284 = ORIENTED_EDGE ( 'NONE', *, *, #377, .F. ) ;
#285 = DIRECTION ( 'NONE',  ( -0.000000000000000000, -0.000000000000000000, -1.000000000000000000 ) ) ;
#286 = AXIS2_PLACEMENT_3D ( 'NONE', #229, #108, #353 ) ;
#287 = EDGE_LOOP ( 'NONE', ( #281, #185, #160, #349 ) ) ;
#288 = TOROIDAL_SURFACE ( 'NONE', #252, 3.500000000000000444, 0.5000000000000000000 ) ;
#289 = DIRECTION ( 'NONE',  ( 1.000000000000000000, 0.000000000000000000, -0.000000000000000000 ) ) ;
#290 = EDGE_CURVE ( 'NONE', #195, #230, #23, .T. ) ;
#291 = DIRECTION ( 'NONE',  ( 1.000000000000000000, 0.000000000000000000, 0.000000000000000000 ) ) ;
#292 = ORIENTED_EDGE ( 'NONE', *, *, #361, .T. ) ;
#293 = SHAPE_DEFINITION_REPRESENTATION ( #97, #276 ) ;
#294 = AXIS2_PLACEMENT_3D ( 'NONE', #65, #180, #90 ) ;
#295 = VERTEX_POINT ( 'NONE', #74 ) ;
#296 = APPROVAL_ROLE ( '' ) ;
#297 = FACE_OUTER_BOUND ( 'NONE', #73, .T. ) ;
#298 = CALENDAR_DATE ( 2022, 8, 7 ) ;
#299 = LINE ( 'NONE', #205, #315 ) ;
#300 = CALENDAR_DATE ( 2022, 8, 7 ) ;
#301 = CARTESIAN_POINT ( 'NONE',  ( -2.000000000000000000, 0.000000000000000000, 605.0000000000000000 ) ) ;
#302 =( GEOMETRIC_REPRESENTATION_CONTEXT ( 3 ) GLOBAL_UNCERTAINTY_ASSIGNED_CONTEXT ( ( #102 ) ) GLOBAL_UNIT_ASSIGNED_CONTEXT ( ( #24, #222, #188 ) ) REPRESENTATION_CONTEXT ( 'NONE', 'WORKASPACE' ) );
#303 = DATE_AND_TIME ( #300, #161 ) ;
#304 = DIRECTION ( 'NONE',  ( -0.000000000000000000, -0.000000000000000000, -1.000000000000000000 ) ) ;
#305 = EDGE_CURVE ( 'NONE', #314, #26, #354, .T. ) ;
#306 = CARTESIAN_POINT ( 'NONE',  ( 0.000000000000000000, 0.000000000000000000, 5.000000000000000000 ) ) ;
#307 = CYLINDRICAL_SURFACE ( 'NONE', #273, 3.000000000000000444 ) ;
#308 = CIRCLE ( 'NONE', #313, 2.000000000000000000 ) ;
#309 = DIRECTION ( 'NONE',  ( -0.000000000000000000, -0.000000000000000000, -1.000000000000000000 ) ) ;
#310 = ORIENTED_EDGE ( 'NONE', *, *, #265, .T. ) ;
#311 = ORIENTED_EDGE ( 'NONE', *, *, #167, .T. ) ;
#312 = ADVANCED_FACE ( 'NONE', ( #76 ), #69, .F. ) ;
#313 = AXIS2_PLACEMENT_3D ( 'NONE', #339, #309, #153 ) ;
#314 = VERTEX_POINT ( 'NONE', #231 ) ;
#315 = VECTOR ( 'NONE', #228, 1000.000000000000000 ) ;
#316 = VERTEX_POINT ( 'NONE', #255 ) ;
#317 = FACE_OUTER_BOUND ( 'NONE', #287, .T. ) ;
#318 = ORIENTED_EDGE ( 'NONE', *, *, #326, .T. ) ;
#319 = DIRECTION ( 'NONE',  ( -1.000000000000000000, 0.000000000000000000, 0.000000000000000000 ) ) ;
#320 = SECURITY_CLASSIFICATION ( '', '', #32 ) ;
#321 = ADVANCED_FACE ( 'NONE', ( #135, #253 ), #165, .T. ) ;
#322 = ORIENTED_EDGE ( 'NONE', *, *, #326, .F. ) ;
#323 = DIRECTION ( 'NONE',  ( 0.000000000000000000, 0.000000000000000000, -1.000000000000000000 ) ) ;
#324 = LINE ( 'NONE', #111, #59 ) ;
#325 = CYLINDRICAL_SURFACE ( 'NONE', #225, 2.000000000000000000 ) ;
#326 = EDGE_CURVE ( 'NONE', #314, #376, #194, .T. ) ;
#327 = COORDINATED_UNIVERSAL_TIME_OFFSET ( 1, 0, .AHEAD. ) ;
#328 = CC_DESIGN_APPROVAL ( #248, ( #278 ) ) ;
#329 = ORIENTED_EDGE ( 'NONE', *, *, #265, .F. ) ;
#330 = VERTEX_POINT ( 'NONE', #190 ) ;
#331 = DIRECTION ( 'NONE',  ( -0.000000000000000000, -0.000000000000000000, -1.000000000000000000 ) ) ;
#332 = APPROVAL_STATUS ( 'not_yet_approved' ) ;
#333 = DIRECTION ( 'NONE',  ( 0.000000000000000000, 0.000000000000000000, 1.000000000000000000 ) ) ;
#334 = PERSON_AND_ORGANIZATION ( #35, #250 ) ;
#335 = DIRECTION ( 'NONE',  ( 0.000000000000000000, 0.000000000000000000, 1.000000000000000000 ) ) ;
#336 = CIRCLE ( 'NONE', #164, 6.000000000000000888 ) ;
#337 = CARTESIAN_POINT ( 'NONE',  ( 0.000000000000000000, 0.000000000000000000, 605.0000000000000000 ) ) ;
#338 = ADVANCED_FACE ( 'NONE', ( #317 ), #357, .T. ) ;
#339 = CARTESIAN_POINT ( 'NONE',  ( 0.000000000000000000, 0.000000000000000000, 0.000000000000000000 ) ) ;
#340 = AXIS2_PLACEMENT_3D ( 'NONE', #100, #346, #291 ) ;
#341 = APPROVAL_PERSON_ORGANIZATION ( #178, #13, #118 ) ;
#342 = EDGE_CURVE ( 'NONE', #376, #314, #203, .T. ) ;
#343 = ORIENTED_EDGE ( 'NONE', *, *, #342, .F. ) ;
#344 = VECTOR ( 'NONE', #12, 1000.000000000000000 ) ;
#345 = AXIS2_PLACEMENT_3D ( 'NONE', #16, #79, #128 ) ;
#346 = DIRECTION ( 'NONE',  ( 0.000000000000000000, 0.000000000000000000, 1.000000000000000000 ) ) ;
#347 = ORIENTED_EDGE ( 'NONE', *, *, #63, .T. ) ;
#348 = DIRECTION ( 'NONE',  ( 1.000000000000000000, 0.000000000000000000, 0.000000000000000000 ) ) ;
#349 = ORIENTED_EDGE ( 'NONE', *, *, #55, .T. ) ;
#350 = DIRECTION ( 'NONE',  ( 1.000000000000000000, 0.000000000000000000, -0.000000000000000000 ) ) ;
#351 = EDGE_CURVE ( 'NONE', #26, #295, #15, .T. ) ;
#352 = ORIENTED_EDGE ( 'NONE', *, *, #84, .T. ) ;
#353 = DIRECTION ( 'NONE',  ( -1.000000000000000000, 0.000000000000000000, 0.000000000000000000 ) ) ;
#354 = CIRCLE ( 'NONE', #141, 0.5000000000000004441 ) ;
#355 = APPROVAL_PERSON_ORGANIZATION ( #359, #248, #296 ) ;
#356 = DIRECTION ( 'NONE',  ( 1.000000000000000000, 0.000000000000000000, 0.000000000000000000 ) ) ;
#357 = CYLINDRICAL_SURFACE ( 'NONE', #71, 6.000000000000000888 ) ;
#358 = CC_DESIGN_PERSON_AND_ORGANIZATION_ASSIGNMENT ( #268, #116, ( #91 ) ) ;
#359 = PERSON_AND_ORGANIZATION ( #35, #250 ) ;
#360 = DIRECTION ( 'NONE',  ( -1.000000000000000000, 0.000000000000000000, 0.000000000000000000 ) ) ;
#361 = EDGE_CURVE ( 'NONE', #166, #314, #379, .T. ) ;
#362 = DIRECTION ( 'NONE',  ( 0.000000000000000000, 0.000000000000000000, 1.000000000000000000 ) ) ;
#363 = MECHANICAL_CONTEXT ( 'NONE', #214, 'mechanical' ) ;
#364 = DIRECTION ( 'NONE',  ( 0.000000000000000000, 0.000000000000000000, 1.000000000000000000 ) ) ;
#365 = CALENDAR_DATE ( 2022, 8, 7 ) ;
#366 = DIRECTION ( 'NONE',  ( -1.000000000000000000, 0.000000000000000000, 0.000000000000000000 ) ) ;
#367 = CARTESIAN_POINT ( 'NONE',  ( 2.000000000000000000, 2.449293598294706414E-16, 0.000000000000000000 ) ) ;
#368 = PRODUCT_DEFINITION_FORMATION_WITH_SPECIFIED_SOURCE ( 'LIBOVOLNÝ', '', #91, .NOT_KNOWN. ) ;
#369 = CARTESIAN_POINT ( 'NONE',  ( 0.000000000000000000, 0.000000000000000000, 0.000000000000000000 ) ) ;
#370 = CIRCLE ( 'NONE', #152, 2.000000000000000000 ) ;
#371 = FACE_OUTER_BOUND ( 'NONE', #262, .T. ) ;
#372 = CC_DESIGN_SECURITY_CLASSIFICATION ( #320, ( #368 ) ) ;
#373 = ORIENTED_EDGE ( 'NONE', *, *, #55, .F. ) ;
#374 = ADVANCED_FACE ( 'NONE', ( #130 ), #2, .T. ) ;
#375 = DIRECTION ( 'NONE',  ( 0.000000000000000000, 0.000000000000000000, 1.000000000000000000 ) ) ;
#376 = VERTEX_POINT ( 'NONE', #199 ) ;
#377 = EDGE_CURVE ( 'NONE', #134, #230, #324, .T. ) ;
#378 = LOCAL_TIME ( 17, 34, 9.000000000000000000, #144 ) ;
#379 = LINE ( 'NONE', #258, #223 ) ;
#380 = EDGE_CURVE ( 'NONE', #110, #127, #101, .T. ) ;
#381 = DIRECTION ( 'NONE',  ( 1.000000000000000000, 0.000000000000000000, 0.000000000000000000 ) ) ;
ENDSEC;
END-ISO-10303-21;
