ISO-10303-21;
HEADER;
FILE_DESCRIPTION (( 'STEP AP203' ),
    '1' );
FILE_NAME ('8209.STEP',
    '2022-07-08T14:35:00',
    ( '' ),
    ( '' ),
    'SwSTEP 2.0',
    'SolidWorks 2019',
    '' );
FILE_SCHEMA (( 'CONFIG_CONTROL_DESIGN' ));
ENDSEC;

DATA;
#1 = AXIS2_PLACEMENT_3D ( 'NONE', #272, #13, #209 ) ;
#2 = CARTESIAN_POINT ( 'NONE',  ( 4.099999999999999645, 5.021051876504147385E-16, 182.0000000000000000 ) ) ;
#3 = APPROVAL_ROLE ( '' ) ;
#4 = ORIENTED_EDGE ( 'NONE', *, *, #194, .F. ) ;
#5 = EDGE_LOOP ( 'NONE', ( #364, #164, #172, #346 ) ) ;
#6 = LINE ( 'NONE', #305, #79 ) ;
#7 = DIRECTION ( 'NONE',  ( -1.000000000000000000, 0.000000000000000000, 0.000000000000000000 ) ) ;
#8 = ORIENTED_EDGE ( 'NONE', *, *, #315, .F. ) ;
#9 = DIRECTION ( 'NONE',  ( 1.000000000000000000, 0.000000000000000000, 0.000000000000000000 ) ) ;
#10 = AXIS2_PLACEMENT_3D ( 'NONE', #331, #111, #198 ) ;
#11 = CARTESIAN_POINT ( 'NONE',  ( 0.000000000000000000, 0.000000000000000000, 0.000000000000000000 ) ) ;
#12 = EDGE_LOOP ( 'NONE', ( #69, #375, #370, #47 ) ) ;
#13 = DIRECTION ( 'NONE',  ( 0.000000000000000000, 0.000000000000000000, 1.000000000000000000 ) ) ;
#14 = ADVANCED_FACE ( 'NONE', ( #281, #368 ), #95, .T. ) ;
#15 = DIRECTION ( 'NONE',  ( 0.000000000000000000, 0.000000000000000000, 1.000000000000000000 ) ) ;
#16 = DIRECTION ( 'NONE',  ( 0.000000000000000000, 0.000000000000000000, 1.000000000000000000 ) ) ;
#17 = CARTESIAN_POINT ( 'NONE',  ( 0.000000000000000000, 0.000000000000000000, 7.000000000000000000 ) ) ;
#18 = DIRECTION ( 'NONE',  ( -0.000000000000000000, -0.000000000000000000, -1.000000000000000000 ) ) ;
#19 = ADVANCED_FACE ( 'NONE', ( #66 ), #193, .F. ) ;
#20 = AXIS2_PLACEMENT_3D ( 'NONE', #182, #36, #311 ) ;
#21 = EDGE_CURVE ( 'NONE', #234, #113, #32, .T. ) ;
#22 = CARTESIAN_POINT ( 'NONE',  ( 0.000000000000000000, 0.000000000000000000, 0.000000000000000000 ) ) ;
#23 = LINE ( 'NONE', #289, #120 ) ;
#24 = DIRECTION ( 'NONE',  ( 1.000000000000000000, 0.000000000000000000, 0.000000000000000000 ) ) ;
#25 = CARTESIAN_POINT ( 'NONE',  ( 0.000000000000000000, 0.000000000000000000, 182.0000000000000000 ) ) ;
#26 = APPROVAL_ROLE ( '' ) ;
#27 = LOCAL_TIME ( 16, 35, 0.000000000000000000, #294 ) ;
#28 = PRODUCT ( '8209', '8209', '', ( #136 ) ) ;
#29 = ORIENTED_EDGE ( 'NONE', *, *, #75, .F. ) ;
#30 = DIRECTION ( 'NONE',  ( -1.000000000000000000, 1.224646799147353454E-16, 0.000000000000000000 ) ) ;
#31 = APPROVAL_STATUS ( 'not_yet_approved' ) ;
#32 = CIRCLE ( 'NONE', #84, 6.700000000000001066 ) ;
#33 = CARTESIAN_POINT ( 'NONE',  ( 0.000000000000000000, 0.000000000000000000, 7.000000000000000000 ) ) ;
#34 = VERTEX_POINT ( 'NONE', #213 ) ;
#35 = CIRCLE ( 'NONE', #204, 0.7000000000000000666 ) ;
#36 = DIRECTION ( 'NONE',  ( 0.000000000000000000, 0.000000000000000000, 1.000000000000000000 ) ) ;
#37 = EDGE_LOOP ( 'NONE', ( #275, #342 ) ) ;
#38 = VECTOR ( 'NONE', #184, 1000.000000000000000 ) ;
#39 = DIRECTION ( 'NONE',  ( 0.000000000000000000, 0.000000000000000000, -1.000000000000000000 ) ) ;
#40 = ORIENTED_EDGE ( 'NONE', *, *, #155, .T. ) ;
#41 = CC_DESIGN_DATE_AND_TIME_ASSIGNMENT ( #239, #257, ( #337 ) ) ;
#42 = DIRECTION ( 'NONE',  ( -0.000000000000000000, -0.000000000000000000, -1.000000000000000000 ) ) ;
#43 = AXIS2_PLACEMENT_3D ( 'NONE', #89, #39, #91 ) ;
#44 = ORIENTED_EDGE ( 'NONE', *, *, #372, .T. ) ;
#45 = PLANE ( 'NONE',  #127 ) ;
#46 = CIRCLE ( 'NONE', #366, 10.00000000000000000 ) ;
#47 = ORIENTED_EDGE ( 'NONE', *, *, #75, .T. ) ;
#48 = EDGE_CURVE ( 'NONE', #244, #122, #338, .T. ) ;
#49 = APPROVAL_DATE_TIME ( #351, #191 ) ;
#50 = CARTESIAN_POINT ( 'NONE',  ( 0.000000000000000000, 0.000000000000000000, 7.700000000000012612 ) ) ;
#51 = CARTESIAN_POINT ( 'NONE',  ( 10.00000000000000000, 1.224646799147353256E-15, 7.000000000000000000 ) ) ;
#52 = APPROVAL_ROLE ( '' ) ;
#53 = APPLICATION_CONTEXT ( 'configuration controlled 3d designs of mechanical parts and assemblies' ) ;
#54 = CARTESIAN_POINT ( 'NONE',  ( 0.000000000000000000, 0.000000000000000000, 0.000000000000000000 ) ) ;
#55 = AXIS2_PLACEMENT_3D ( 'NONE', #379, #138, #108 ) ;
#56 = ORIENTED_EDGE ( 'NONE', *, *, #261, .T. ) ;
#57 = CARTESIAN_POINT ( 'NONE',  ( 10.00000000000000000, 1.224646799147353256E-15, 7.000000000000000000 ) ) ;
#58 = APPROVAL_PERSON_ORGANIZATION ( #59, #286, #52 ) ;
#59 = PERSON_AND_ORGANIZATION ( #319, #152 ) ;
#60 = DIRECTION ( 'NONE',  ( -1.000000000000000000, 0.000000000000000000, 0.000000000000000000 ) ) ;
#61 = EDGE_LOOP ( 'NONE', ( #153, #217, #334, #270 ) ) ;
#62 = CYLINDRICAL_SURFACE ( 'NONE', #304, 10.00000000000000000 ) ;
#63 = ADVANCED_FACE ( 'NONE', ( #71, #158 ), #45, .T. ) ;
#64 = DIRECTION ( 'NONE',  ( 0.000000000000000000, 0.000000000000000000, -1.000000000000000000 ) ) ;
#65 = DIRECTION ( 'NONE',  ( 1.000000000000000000, 0.000000000000000000, -0.000000000000000000 ) ) ;
#66 = FACE_OUTER_BOUND ( 'NONE', #295, .T. ) ;
#67 = ORIENTED_EDGE ( 'NONE', *, *, #21, .F. ) ;
#68 = AXIS2_PLACEMENT_3D ( 'NONE', #50, #381, #87 ) ;
#69 = ORIENTED_EDGE ( 'NONE', *, *, #310, .F. ) ;
#70 = CIRCLE ( 'NONE', #320, 4.099999999999999645 ) ;
#71 = FACE_BOUND ( 'NONE', #251, .T. ) ;
#72 = CC_DESIGN_PERSON_AND_ORGANIZATION_ASSIGNMENT ( #104, #322, ( #224 ) ) ;
#73 = ORIENTED_EDGE ( 'NONE', *, *, #160, .F. ) ;
#74 = CIRCLE ( 'NONE', #277, 0.7000000000000000666 ) ;
#75 = EDGE_CURVE ( 'NONE', #181, #314, #299, .T. ) ;
#76 = DIRECTION ( 'NONE',  ( -0.000000000000000000, -0.000000000000000000, -1.000000000000000000 ) ) ;
#77 = AXIS2_PLACEMENT_3D ( 'NONE', #80, #76, #232 ) ;
#78 = DATE_TIME_ROLE ( 'classification_date' ) ;
#79 = VECTOR ( 'NONE', #307, 1000.000000000000000 ) ;
#80 = CARTESIAN_POINT ( 'NONE',  ( 0.000000000000000000, 0.000000000000000000, 7.000000000000000000 ) ) ;
#81 = PERSON_AND_ORGANIZATION ( #319, #152 ) ;
#82 = DIRECTION ( 'NONE',  ( -0.000000000000000000, -0.000000000000000000, -1.000000000000000000 ) ) ;
#83 = ADVANCED_FACE ( 'NONE', ( #371 ), #285, .T. ) ;
#84 = AXIS2_PLACEMENT_3D ( 'NONE', #101, #97, #317 ) ;
#85 = DIRECTION ( 'NONE',  ( -1.000000000000000000, 0.000000000000000000, 0.000000000000000000 ) ) ;
#86 = ORIENTED_EDGE ( 'NONE', *, *, #137, .F. ) ;
#87 = DIRECTION ( 'NONE',  ( 1.000000000000000000, 0.000000000000000000, 0.000000000000000000 ) ) ;
#88 = CC_DESIGN_PERSON_AND_ORGANIZATION_ASSIGNMENT ( #143, #115, ( #337 ) ) ;
#89 = CARTESIAN_POINT ( 'NONE',  ( 0.000000000000000000, 0.000000000000000000, 182.0000000000000000 ) ) ;
#90 = EDGE_LOOP ( 'NONE', ( #4, #250, #252, #161 ) ) ;
#91 = DIRECTION ( 'NONE',  ( -1.000000000000000000, 0.000000000000000000, 0.000000000000000000 ) ) ;
#92 = CARTESIAN_POINT ( 'NONE',  ( 6.700000000000001066, 0.000000000000000000, 7.700000000000012612 ) ) ;
#93 = EDGE_LOOP ( 'NONE', ( #208, #328 ) ) ;
#94 = VECTOR ( 'NONE', #42, 1000.000000000000000 ) ;
#95 = PLANE ( 'NONE',  #308 ) ;
#96 = CARTESIAN_POINT ( 'NONE',  ( 10.00000000000000000, 1.224646799147353256E-15, 0.000000000000000000 ) ) ;
#97 = DIRECTION ( 'NONE',  ( -0.000000000000000000, -0.000000000000000000, -1.000000000000000000 ) ) ;
#98 = DESIGN_CONTEXT ( 'detailed design', #53, 'design' ) ;
#99 = CIRCLE ( 'NONE', #20, 6.000000000000000888 ) ;
#100 = EDGE_CURVE ( 'NONE', #211, #312, #23, .T. ) ;
#101 = CARTESIAN_POINT ( 'NONE',  ( 0.000000000000000000, 0.000000000000000000, 7.000000000000000000 ) ) ;
#102 = CC_DESIGN_PERSON_AND_ORGANIZATION_ASSIGNMENT ( #106, #134, ( #28 ) ) ;
#103 = DIRECTION ( 'NONE',  ( 1.000000000000000000, 0.000000000000000000, 0.000000000000000000 ) ) ;
#104 = PERSON_AND_ORGANIZATION ( #319, #152 ) ;
#105 = FACE_OUTER_BOUND ( 'NONE', #12, .T. ) ;
#106 = PERSON_AND_ORGANIZATION ( #319, #152 ) ;
#107 = EDGE_CURVE ( 'NONE', #110, #201, #373, .T. ) ;
#108 = DIRECTION ( 'NONE',  ( 1.000000000000000000, 0.000000000000000000, 0.000000000000000000 ) ) ;
#109 = PERSON_AND_ORGANIZATION ( #319, #152 ) ;
#110 = VERTEX_POINT ( 'NONE', #324 ) ;
#111 = DIRECTION ( 'NONE',  ( -0.000000000000000000, -0.000000000000000000, -1.000000000000000000 ) ) ;
#112 = PERSON_AND_ORGANIZATION_ROLE ( 'creator' ) ;
#113 = VERTEX_POINT ( 'NONE', #235 ) ;
#114 = LINE ( 'NONE', #51, #139 ) ;
#115 = PERSON_AND_ORGANIZATION_ROLE ( 'creator' ) ;
#116 = ADVANCED_FACE ( 'NONE', ( #229 ), #142, .T. ) ;
#117 = ORIENTED_EDGE ( 'NONE', *, *, #21, .T. ) ;
#118 = ORIENTED_EDGE ( 'NONE', *, *, #315, .T. ) ;
#119 = DIRECTION ( 'NONE',  ( 1.000000000000000000, 0.000000000000000000, 0.000000000000000000 ) ) ;
#120 = VECTOR ( 'NONE', #258, 1000.000000000000000 ) ;
#121 = CYLINDRICAL_SURFACE ( 'NONE', #43, 4.099999999999999645 ) ;
#122 = VERTEX_POINT ( 'NONE', #238 ) ;
#123 = DIRECTION ( 'NONE',  ( 0.000000000000000000, 0.000000000000000000, 1.000000000000000000 ) ) ;
#124 = CARTESIAN_POINT ( 'NONE',  ( 0.000000000000000000, 0.000000000000000000, 182.0000000000000000 ) ) ;
#125 = LOCAL_TIME ( 16, 35, 0.000000000000000000, #233 ) ;
#126 = CARTESIAN_POINT ( 'NONE',  ( 6.000000000000000888, 7.347880794884120722E-16, 7.700000000000012612 ) ) ;
#127 = AXIS2_PLACEMENT_3D ( 'NONE', #124, #248, #280 ) ;
#128 = DIRECTION ( 'NONE',  ( 0.000000000000000000, 0.000000000000000000, 1.000000000000000000 ) ) ;
#129 = EDGE_LOOP ( 'NONE', ( #325, #278, #301, #56 ) ) ;
#130 = APPROVAL_PERSON_ORGANIZATION ( #265, #191, #26 ) ;
#131 = CIRCLE ( 'NONE', #228, 10.00000000000000000 ) ;
#132 = CARTESIAN_POINT ( 'NONE',  ( -10.00000000000000000, 0.000000000000000000, 7.000000000000000000 ) ) ;
#133 = APPLICATION_CONTEXT ( 'configuration controlled 3d designs of mechanical parts and assemblies' ) ;
#134 = PERSON_AND_ORGANIZATION_ROLE ( 'design_owner' ) ;
#135 = FACE_OUTER_BOUND ( 'NONE', #129, .T. ) ;
#136 = MECHANICAL_CONTEXT ( 'NONE', #133, 'mechanical' ) ;
#137 = EDGE_CURVE ( 'NONE', #309, #122, #131, .T. ) ;
#138 = DIRECTION ( 'NONE',  ( 0.000000000000000000, 0.000000000000000000, 1.000000000000000000 ) ) ;
#139 = VECTOR ( 'NONE', #82, 1000.000000000000000 ) ;
#140 = APPROVAL_STATUS ( 'not_yet_approved' ) ;
#141 = PRODUCT_DEFINITION_FORMATION_WITH_SPECIFIED_SOURCE ( 'LIBOVOLNÝ', '', #28, .NOT_KNOWN. ) ;
#142 = CYLINDRICAL_SURFACE ( 'NONE', #180, 10.00000000000000000 ) ;
#143 = PERSON_AND_ORGANIZATION ( #319, #152 ) ;
#144 = ORIENTED_EDGE ( 'NONE', *, *, #107, .T. ) ;
#145 = DIRECTION ( 'NONE',  ( -0.000000000000000000, -0.000000000000000000, -1.000000000000000000 ) ) ;
#146 = CC_DESIGN_PERSON_AND_ORGANIZATION_ASSIGNMENT ( #378, #169, ( #141 ) ) ;
#147 = CALENDAR_DATE ( 2022, 8, 7 ) ;
#148 = EDGE_LOOP ( 'NONE', ( #306, #8, #303, #316 ) ) ;
#149 =( NAMED_UNIT ( * ) PLANE_ANGLE_UNIT ( ) SI_UNIT ( $, .RADIAN. ) );
#150 = ORIENTED_EDGE ( 'NONE', *, *, #107, .F. ) ;
#151 = DIRECTION ( 'NONE',  ( -0.000000000000000000, -0.000000000000000000, -1.000000000000000000 ) ) ;
#152 = ORGANIZATION ( 'NEURÈENÝ', 'NEURÈENÝ', '' ) ;
#153 = ORIENTED_EDGE ( 'NONE', *, *, #349, .F. ) ;
#154 = DIRECTION ( 'NONE',  ( 0.000000000000000000, 0.000000000000000000, 1.000000000000000000 ) ) ;
#155 = EDGE_CURVE ( 'NONE', #113, #234, #237, .T. ) ;
#156 = DIRECTION ( 'NONE',  ( -0.000000000000000000, -0.000000000000000000, -1.000000000000000000 ) ) ;
#157 = CARTESIAN_POINT ( 'NONE',  ( 0.000000000000000000, 0.000000000000000000, 0.000000000000000000 ) ) ;
#158 = FACE_OUTER_BOUND ( 'NONE', #188, .T. ) ;
#159 = APPLICATION_PROTOCOL_DEFINITION ( 'international standard', 'config_control_design', 1994, #133 ) ;
#160 = EDGE_CURVE ( 'NONE', #273, #211, #267, .T. ) ;
#161 = ORIENTED_EDGE ( 'NONE', *, *, #222, .T. ) ;
#162 = AXIS2_PLACEMENT_3D ( 'NONE', #215, #15, #340 ) ;
#163 = DIRECTION ( 'NONE',  ( 1.000000000000000000, 0.000000000000000000, 0.000000000000000000 ) ) ;
#164 = ORIENTED_EDGE ( 'NONE', *, *, #100, .T. ) ;
#165 =( GEOMETRIC_REPRESENTATION_CONTEXT ( 3 ) GLOBAL_UNCERTAINTY_ASSIGNED_CONTEXT ( ( #254 ) ) GLOBAL_UNIT_ASSIGNED_CONTEXT ( ( #367, #149, #339 ) ) REPRESENTATION_CONTEXT ( 'NONE', 'WORKASPACE' ) );
#166 = AXIS2_PLACEMENT_3D ( 'NONE', #25, #145, #60 ) ;
#167 = CALENDAR_DATE ( 2022, 8, 7 ) ;
#168 = AXIS2_PLACEMENT_3D ( 'NONE', #178, #154, #341 ) ;
#169 = PERSON_AND_ORGANIZATION_ROLE ( 'design_supplier' ) ;
#170 = DIRECTION ( 'NONE',  ( 1.000000000000000000, 0.000000000000000000, 0.000000000000000000 ) ) ;
#171 = CYLINDRICAL_SURFACE ( 'NONE', #166, 6.000000000000000888 ) ;
#172 = ORIENTED_EDGE ( 'NONE', *, *, #318, .T. ) ;
#173 = ADVANCED_BREP_SHAPE_REPRESENTATION ( '8209', ( #190, #212 ), #165 ) ;
#174 = ADVANCED_FACE ( 'NONE', ( #321 ), #223, .F. ) ;
#175 = CC_DESIGN_APPROVAL ( #191, ( #337 ) ) ;
#176 = DIRECTION ( 'NONE',  ( 1.224646799147353207E-16, 1.000000000000000000, -0.000000000000000000 ) ) ;
#177 = CALENDAR_DATE ( 2022, 8, 7 ) ;
#178 = CARTESIAN_POINT ( 'NONE',  ( 0.000000000000000000, 0.000000000000000000, 7.000000000000000000 ) ) ;
#179 = CARTESIAN_POINT ( 'NONE',  ( 4.099999999999999645, 5.021051876504147385E-16, 0.000000000000000000 ) ) ;
#180 = AXIS2_PLACEMENT_3D ( 'NONE', #355, #18, #85 ) ;
#181 = VERTEX_POINT ( 'NONE', #200 ) ;
#182 = CARTESIAN_POINT ( 'NONE',  ( 0.000000000000000000, 0.000000000000000000, 182.0000000000000000 ) ) ;
#183 = CC_DESIGN_SECURITY_CLASSIFICATION ( #224, ( #141 ) ) ;
#184 = DIRECTION ( 'NONE',  ( -0.000000000000000000, -0.000000000000000000, -1.000000000000000000 ) ) ;
#185 = FACE_OUTER_BOUND ( 'NONE', #61, .T. ) ;
#186 = ORIENTED_EDGE ( 'NONE', *, *, #222, .F. ) ;
#187 = ORIENTED_EDGE ( 'NONE', *, *, #300, .F. ) ;
#188 = EDGE_LOOP ( 'NONE', ( #44, #144 ) ) ;
#189 = DIRECTION ( 'NONE',  ( 1.000000000000000000, 0.000000000000000000, -0.000000000000000000 ) ) ;
#190 = MANIFOLD_SOLID_BREP ( 'Odebrat vysunutím3', #291 ) ;
#191 = APPROVAL ( #380, 'NEURÈENÝ' ) ;
#192 = LOCAL_TIME ( 16, 35, 0.000000000000000000, #290 ) ;
#193 = TOROIDAL_SURFACE ( 'NONE', #282, 6.700000000000001066, 0.6999999999999999556 ) ;
#194 = EDGE_CURVE ( 'NONE', #221, #309, #114, .T. ) ;
#195 = CARTESIAN_POINT ( 'NONE',  ( 0.000000000000000000, 0.000000000000000000, 182.0000000000000000 ) ) ;
#196 = DATE_AND_TIME ( #177, #288 ) ;
#197 = AXIS2_PLACEMENT_3D ( 'NONE', #274, #298, #9 ) ;
#198 = DIRECTION ( 'NONE',  ( -1.000000000000000000, 0.000000000000000000, 0.000000000000000000 ) ) ;
#199 = APPROVAL_DATE_TIME ( #360, #242 ) ;
#200 = CARTESIAN_POINT ( 'NONE',  ( -6.000000000000000888, 0.000000000000000000, 7.700000000000012612 ) ) ;
#201 = VERTEX_POINT ( 'NONE', #297 ) ;
#202 = CARTESIAN_POINT ( 'NONE',  ( 0.000000000000000000, 0.000000000000000000, 182.0000000000000000 ) ) ;
#203 = ORIENTED_EDGE ( 'NONE', *, *, #225, .T. ) ;
#204 = AXIS2_PLACEMENT_3D ( 'NONE', #92, #240, #365 ) ;
#205 = DIRECTION ( 'NONE',  ( 0.000000000000000000, 0.000000000000000000, -1.000000000000000000 ) ) ;
#206 = COORDINATED_UNIVERSAL_TIME_OFFSET ( 1, 0, .AHEAD. ) ;
#207 = DIRECTION ( 'NONE',  ( 0.000000000000000000, 0.000000000000000000, 1.000000000000000000 ) ) ;
#208 = ORIENTED_EDGE ( 'NONE', *, *, #261, .F. ) ;
#209 = DIRECTION ( 'NONE',  ( 1.000000000000000000, 0.000000000000000000, 0.000000000000000000 ) ) ;
#210 = EDGE_CURVE ( 'NONE', #273, #34, #359, .T. ) ;
#211 = VERTEX_POINT ( 'NONE', #2 ) ;
#212 = AXIS2_PLACEMENT_3D ( 'NONE', #218, #16, #24 ) ;
#213 = CARTESIAN_POINT ( 'NONE',  ( -4.099999999999999645, 0.000000000000000000, 0.000000000000000000 ) ) ;
#214 = CARTESIAN_POINT ( 'NONE',  ( -4.099999999999999645, 0.000000000000000000, 182.0000000000000000 ) ) ;
#215 = CARTESIAN_POINT ( 'NONE',  ( 0.000000000000000000, 0.000000000000000000, 7.700000000000012612 ) ) ;
#216 = DIRECTION ( 'NONE',  ( -0.000000000000000000, -0.000000000000000000, -1.000000000000000000 ) ) ;
#217 = ORIENTED_EDGE ( 'NONE', *, *, #194, .T. ) ;
#218 = CARTESIAN_POINT ( 'NONE',  ( 0.000000000000000000, 0.000000000000000000, 0.000000000000000000 ) ) ;
#219 = CC_DESIGN_APPROVAL ( #242, ( #141 ) ) ;
#220 = CARTESIAN_POINT ( 'NONE',  ( -10.00000000000000000, 0.000000000000000000, 7.000000000000000000 ) ) ;
#221 = VERTEX_POINT ( 'NONE', #57 ) ;
#222 = EDGE_CURVE ( 'NONE', #122, #309, #46, .T. ) ;
#223 = TOROIDAL_SURFACE ( 'NONE', #68, 6.700000000000001066, 0.6999999999999999556 ) ;
#224 = SECURITY_CLASSIFICATION ( '', '', #259 ) ;
#225 = EDGE_CURVE ( 'NONE', #181, #113, #74, .T. ) ;
#226 = DIRECTION ( 'NONE',  ( 0.000000000000000000, 0.000000000000000000, 1.000000000000000000 ) ) ;
#227 = DATE_AND_TIME ( #147, #246 ) ;
#228 = AXIS2_PLACEMENT_3D ( 'NONE', #22, #226, #103 ) ;
#229 = FACE_OUTER_BOUND ( 'NONE', #90, .T. ) ;
#230 = CALENDAR_DATE ( 2022, 8, 7 ) ;
#231 = CIRCLE ( 'NONE', #1, 6.000000000000000888 ) ;
#232 = DIRECTION ( 'NONE',  ( 1.000000000000000000, 0.000000000000000000, 0.000000000000000000 ) ) ;
#233 = COORDINATED_UNIVERSAL_TIME_OFFSET ( 1, 0, .AHEAD. ) ;
#234 = VERTEX_POINT ( 'NONE', #292 ) ;
#235 = CARTESIAN_POINT ( 'NONE',  ( -6.700000000000001066, 8.205133554287267548E-16, 7.000000000000006217 ) ) ;
#236 = COORDINATED_UNIVERSAL_TIME_OFFSET ( 1, 0, .AHEAD. ) ;
#237 = CIRCLE ( 'NONE', #77, 6.700000000000001066 ) ;
#238 = CARTESIAN_POINT ( 'NONE',  ( -10.00000000000000000, 0.000000000000000000, 0.000000000000000000 ) ) ;
#239 = DATE_AND_TIME ( #327, #27 ) ;
#240 = DIRECTION ( 'NONE',  ( 0.000000000000000000, -1.000000000000000000, 0.000000000000000000 ) ) ;
#241 = ORIENTED_EDGE ( 'NONE', *, *, #255, .F. ) ;
#242 = APPROVAL ( #31, 'NEURÈENÝ' ) ;
#243 = DIRECTION ( 'NONE',  ( -1.000000000000000000, 0.000000000000000000, 0.000000000000000000 ) ) ;
#244 = VERTEX_POINT ( 'NONE', #132 ) ;
#245 = CARTESIAN_POINT ( 'NONE',  ( 0.000000000000000000, 0.000000000000000000, 182.0000000000000000 ) ) ;
#246 = LOCAL_TIME ( 16, 35, 0.000000000000000000, #236 ) ;
#247 = ADVANCED_FACE ( 'NONE', ( #105 ), #171, .T. ) ;
#248 = DIRECTION ( 'NONE',  ( 0.000000000000000000, 0.000000000000000000, 1.000000000000000000 ) ) ;
#249 = PLANE ( 'NONE',  #313 ) ;
#250 = ORIENTED_EDGE ( 'NONE', *, *, #376, .F. ) ;
#251 = EDGE_LOOP ( 'NONE', ( #73, #264 ) ) ;
#252 = ORIENTED_EDGE ( 'NONE', *, *, #48, .T. ) ;
#253 = ADVANCED_FACE ( 'NONE', ( #135 ), #256, .F. ) ;
#254 = UNCERTAINTY_MEASURE_WITH_UNIT (LENGTH_MEASURE( 1.000000000000000082E-05 ), #367, 'distance_accuracy_value', 'NONE');
#255 = EDGE_CURVE ( 'NONE', #314, #234, #35, .T. ) ;
#256 = CYLINDRICAL_SURFACE ( 'NONE', #352, 4.099999999999999645 ) ;
#257 = DATE_TIME_ROLE ( 'creation_date' ) ;
#258 = DIRECTION ( 'NONE',  ( 0.000000000000000000, 0.000000000000000000, -1.000000000000000000 ) ) ;
#259 = SECURITY_CLASSIFICATION_LEVEL ( 'unclassified' ) ;
#260 = AXIS2_PLACEMENT_3D ( 'NONE', #245, #123, #333 ) ;
#261 = EDGE_CURVE ( 'NONE', #34, #312, #70, .T. ) ;
#262 = DIRECTION ( 'NONE',  ( 0.000000000000000000, 0.000000000000000000, 1.000000000000000000 ) ) ;
#263 = APPLICATION_PROTOCOL_DEFINITION ( 'international standard', 'config_control_design', 1994, #53 ) ;
#264 = ORIENTED_EDGE ( 'NONE', *, *, #357, .F. ) ;
#265 = PERSON_AND_ORGANIZATION ( #319, #152 ) ;
#266 = EDGE_LOOP ( 'NONE', ( #117, #40 ) ) ;
#267 = CIRCLE ( 'NONE', #348, 4.099999999999999645 ) ;
#268 = LINE ( 'NONE', #276, #94 ) ;
#269 = ADVANCED_FACE ( 'NONE', ( #279 ), #121, .F. ) ;
#270 = ORIENTED_EDGE ( 'NONE', *, *, #48, .F. ) ;
#271 = AXIS2_PLACEMENT_3D ( 'NONE', #302, #216, #332 ) ;
#272 = CARTESIAN_POINT ( 'NONE',  ( 0.000000000000000000, 0.000000000000000000, 7.700000000000012612 ) ) ;
#273 = VERTEX_POINT ( 'NONE', #214 ) ;
#274 = CARTESIAN_POINT ( 'NONE',  ( 0.000000000000000000, 0.000000000000000000, 7.000000000000000000 ) ) ;
#275 = ORIENTED_EDGE ( 'NONE', *, *, #376, .T. ) ;
#276 = CARTESIAN_POINT ( 'NONE',  ( -6.000000000000000888, 0.000000000000000000, 182.0000000000000000 ) ) ;
#277 = AXIS2_PLACEMENT_3D ( 'NONE', #377, #176, #30 ) ;
#278 = ORIENTED_EDGE ( 'NONE', *, *, #357, .T. ) ;
#279 = FACE_OUTER_BOUND ( 'NONE', #5, .T. ) ;
#280 = DIRECTION ( 'NONE',  ( 1.000000000000000000, 0.000000000000000000, -0.000000000000000000 ) ) ;
#281 = FACE_BOUND ( 'NONE', #266, .T. ) ;
#282 = AXIS2_PLACEMENT_3D ( 'NONE', #283, #374, #163 ) ;
#283 = CARTESIAN_POINT ( 'NONE',  ( 0.000000000000000000, 0.000000000000000000, 7.700000000000012612 ) ) ;
#284 = CC_DESIGN_PERSON_AND_ORGANIZATION_ASSIGNMENT ( #81, #112, ( #141 ) ) ;
#285 = CYLINDRICAL_SURFACE ( 'NONE', #10, 6.000000000000000888 ) ;
#286 = APPROVAL ( #140, 'NEURÈENÝ' ) ;
#287 = VECTOR ( 'NONE', #205, 1000.000000000000000 ) ;
#288 = LOCAL_TIME ( 16, 35, 0.000000000000000000, #206 ) ;
#289 = CARTESIAN_POINT ( 'NONE',  ( 4.099999999999999645, 5.021051876504147385E-16, 182.0000000000000000 ) ) ;
#290 = COORDINATED_UNIVERSAL_TIME_OFFSET ( 1, 0, .AHEAD. ) ;
#291 = CLOSED_SHELL ( 'NONE', ( #269, #19, #83, #323, #116, #14, #293, #247, #63, #174, #253 ) ) ;
#292 = CARTESIAN_POINT ( 'NONE',  ( 6.700000000000001066, 0.000000000000000000, 7.000000000000006217 ) ) ;
#293 = ADVANCED_FACE ( 'NONE', ( #336, #363 ), #249, .F. ) ;
#294 = COORDINATED_UNIVERSAL_TIME_OFFSET ( 1, 0, .AHEAD. ) ;
#295 = EDGE_LOOP ( 'NONE', ( #29, #203, #67, #241 ) ) ;
#296 = APPROVAL_PERSON_ORGANIZATION ( #109, #242, #3 ) ;
#297 = CARTESIAN_POINT ( 'NONE',  ( -6.000000000000000888, 0.000000000000000000, 182.0000000000000000 ) ) ;
#298 = DIRECTION ( 'NONE',  ( 0.000000000000000000, 0.000000000000000000, 1.000000000000000000 ) ) ;
#299 = CIRCLE ( 'NONE', #162, 6.000000000000000888 ) ;
#300 = EDGE_CURVE ( 'NONE', #201, #181, #268, .T. ) ;
#301 = ORIENTED_EDGE ( 'NONE', *, *, #210, .T. ) ;
#302 = CARTESIAN_POINT ( 'NONE',  ( 0.000000000000000000, 0.000000000000000000, 0.000000000000000000 ) ) ;
#303 = ORIENTED_EDGE ( 'NONE', *, *, #255, .T. ) ;
#304 = AXIS2_PLACEMENT_3D ( 'NONE', #33, #151, #7 ) ;
#305 = CARTESIAN_POINT ( 'NONE',  ( 6.000000000000000888, 7.347880794884120722E-16, 182.0000000000000000 ) ) ;
#306 = ORIENTED_EDGE ( 'NONE', *, *, #225, .F. ) ;
#307 = DIRECTION ( 'NONE',  ( -0.000000000000000000, -0.000000000000000000, -1.000000000000000000 ) ) ;
#308 = AXIS2_PLACEMENT_3D ( 'NONE', #17, #128, #189 ) ;
#309 = VERTEX_POINT ( 'NONE', #96 ) ;
#310 = EDGE_CURVE ( 'NONE', #110, #314, #6, .T. ) ;
#311 = DIRECTION ( 'NONE',  ( 1.000000000000000000, 0.000000000000000000, 0.000000000000000000 ) ) ;
#312 = VERTEX_POINT ( 'NONE', #179 ) ;
#313 = AXIS2_PLACEMENT_3D ( 'NONE', #157, #207, #65 ) ;
#314 = VERTEX_POINT ( 'NONE', #126 ) ;
#315 = EDGE_CURVE ( 'NONE', #314, #181, #231, .T. ) ;
#316 = ORIENTED_EDGE ( 'NONE', *, *, #155, .F. ) ;
#317 = DIRECTION ( 'NONE',  ( 1.000000000000000000, 0.000000000000000000, 0.000000000000000000 ) ) ;
#318 = EDGE_CURVE ( 'NONE', #312, #34, #361, .T. ) ;
#319 = PERSON ( 'NEURÈENÝ', 'NEURÈENÝ', 'NEURÈENÝ', ('NEURÈENÝ'), ('NEURÈENÝ'), ('NEURÈENÝ') ) ;
#320 = AXIS2_PLACEMENT_3D ( 'NONE', #11, #156, #119 ) ;
#321 = FACE_OUTER_BOUND ( 'NONE', #148, .T. ) ;
#322 = PERSON_AND_ORGANIZATION_ROLE ( 'classification_officer' ) ;
#323 = ADVANCED_FACE ( 'NONE', ( #185 ), #62, .T. ) ;
#324 = CARTESIAN_POINT ( 'NONE',  ( 6.000000000000000888, 7.347880794884120722E-16, 182.0000000000000000 ) ) ;
#325 = ORIENTED_EDGE ( 'NONE', *, *, #100, .F. ) ;
#326 = DIRECTION ( 'NONE',  ( 0.000000000000000000, 0.000000000000000000, 1.000000000000000000 ) ) ;
#327 = CALENDAR_DATE ( 2022, 8, 7 ) ;
#328 = ORIENTED_EDGE ( 'NONE', *, *, #318, .F. ) ;
#329 = CIRCLE ( 'NONE', #197, 10.00000000000000000 ) ;
#330 = CC_DESIGN_DATE_AND_TIME_ASSIGNMENT ( #227, #78, ( #224 ) ) ;
#331 = CARTESIAN_POINT ( 'NONE',  ( 0.000000000000000000, 0.000000000000000000, 182.0000000000000000 ) ) ;
#332 = DIRECTION ( 'NONE',  ( 1.000000000000000000, 0.000000000000000000, 0.000000000000000000 ) ) ;
#333 = DIRECTION ( 'NONE',  ( 1.000000000000000000, 0.000000000000000000, 0.000000000000000000 ) ) ;
#334 = ORIENTED_EDGE ( 'NONE', *, *, #137, .T. ) ;
#335 = CIRCLE ( 'NONE', #260, 4.099999999999999645 ) ;
#336 = FACE_BOUND ( 'NONE', #93, .T. ) ;
#337 = PRODUCT_DEFINITION ( 'NEZNÁMÝ', '', #141, #98 ) ;
#338 = LINE ( 'NONE', #220, #38 ) ;
#339 =( NAMED_UNIT ( * ) SI_UNIT ( $, .STERADIAN. ) SOLID_ANGLE_UNIT ( ) );
#340 = DIRECTION ( 'NONE',  ( 1.000000000000000000, 0.000000000000000000, 0.000000000000000000 ) ) ;
#341 = DIRECTION ( 'NONE',  ( 1.000000000000000000, 0.000000000000000000, 0.000000000000000000 ) ) ;
#342 = ORIENTED_EDGE ( 'NONE', *, *, #349, .T. ) ;
#343 = PRODUCT_RELATED_PRODUCT_CATEGORY ( 'detail', '', ( #28 ) ) ;
#344 = CIRCLE ( 'NONE', #168, 10.00000000000000000 ) ;
#345 = EDGE_LOOP ( 'NONE', ( #186, #86 ) ) ;
#346 = ORIENTED_EDGE ( 'NONE', *, *, #210, .F. ) ;
#347 = APPROVAL_DATE_TIME ( #196, #286 ) ;
#348 = AXIS2_PLACEMENT_3D ( 'NONE', #202, #262, #350 ) ;
#349 = EDGE_CURVE ( 'NONE', #221, #244, #344, .T. ) ;
#350 = DIRECTION ( 'NONE',  ( 1.000000000000000000, 0.000000000000000000, 0.000000000000000000 ) ) ;
#351 = DATE_AND_TIME ( #230, #192 ) ;
#352 = AXIS2_PLACEMENT_3D ( 'NONE', #195, #64, #243 ) ;
#353 = CARTESIAN_POINT ( 'NONE',  ( -4.099999999999999645, 0.000000000000000000, 182.0000000000000000 ) ) ;
#354 = ORIENTED_EDGE ( 'NONE', *, *, #310, .T. ) ;
#355 = CARTESIAN_POINT ( 'NONE',  ( 0.000000000000000000, 0.000000000000000000, 7.000000000000000000 ) ) ;
#356 = SHAPE_DEFINITION_REPRESENTATION ( #362, #173 ) ;
#357 = EDGE_CURVE ( 'NONE', #211, #273, #335, .T. ) ;
#358 = EDGE_LOOP ( 'NONE', ( #150, #354, #118, #187 ) ) ;
#359 = LINE ( 'NONE', #353, #287 ) ;
#360 = DATE_AND_TIME ( #167, #125 ) ;
#361 = CIRCLE ( 'NONE', #271, 4.099999999999999645 ) ;
#362 = PRODUCT_DEFINITION_SHAPE ( 'NONE', 'NONE',  #337 ) ;
#363 = FACE_OUTER_BOUND ( 'NONE', #345, .T. ) ;
#364 = ORIENTED_EDGE ( 'NONE', *, *, #160, .T. ) ;
#365 = DIRECTION ( 'NONE',  ( 0.000000000000000000, 0.000000000000000000, -1.000000000000000000 ) ) ;
#366 = AXIS2_PLACEMENT_3D ( 'NONE', #54, #326, #170 ) ;
#367 =( LENGTH_UNIT ( ) NAMED_UNIT ( * ) SI_UNIT ( .MILLI., .METRE. ) );
#368 = FACE_OUTER_BOUND ( 'NONE', #37, .T. ) ;
#369 = CC_DESIGN_APPROVAL ( #286, ( #224 ) ) ;
#370 = ORIENTED_EDGE ( 'NONE', *, *, #300, .T. ) ;
#371 = FACE_OUTER_BOUND ( 'NONE', #358, .T. ) ;
#372 = EDGE_CURVE ( 'NONE', #201, #110, #99, .T. ) ;
#373 = CIRCLE ( 'NONE', #55, 6.000000000000000888 ) ;
#374 = DIRECTION ( 'NONE',  ( 0.000000000000000000, 0.000000000000000000, 1.000000000000000000 ) ) ;
#375 = ORIENTED_EDGE ( 'NONE', *, *, #372, .F. ) ;
#376 = EDGE_CURVE ( 'NONE', #244, #221, #329, .T. ) ;
#377 = CARTESIAN_POINT ( 'NONE',  ( -6.700000000000001066, 8.205133554287267548E-16, 7.700000000000012612 ) ) ;
#378 = PERSON_AND_ORGANIZATION ( #319, #152 ) ;
#379 = CARTESIAN_POINT ( 'NONE',  ( 0.000000000000000000, 0.000000000000000000, 182.0000000000000000 ) ) ;
#380 = APPROVAL_STATUS ( 'not_yet_approved' ) ;
#381 = DIRECTION ( 'NONE',  ( 0.000000000000000000, 0.000000000000000000, 1.000000000000000000 ) ) ;
ENDSEC;
END-ISO-10303-21;
