ISO-10303-21;
HEADER;
FILE_DESCRIPTION (( 'STEP AP203' ),
    '1' );
FILE_NAME ('8035.STEP',
    '2022-07-08T14:27:11',
    ( '' ),
    ( '' ),
    'SwSTEP 2.0',
    'SolidWorks 2019',
    '' );
FILE_SCHEMA (( 'CONFIG_CONTROL_DESIGN' ));
ENDSEC;

DATA;
#1 = CARTESIAN_POINT ( 'NONE',  ( 0.000000000000000000, 0.000000000000000000, 257.0000000000000000 ) ) ;
#2 = COORDINATED_UNIVERSAL_TIME_OFFSET ( 1, 0, .AHEAD. ) ;
#3 = FACE_BOUND ( 'NONE', #192, .T. ) ;
#4 = PERSON_AND_ORGANIZATION ( #376, #204 ) ;
#5 = AXIS2_PLACEMENT_3D ( 'NONE', #291, #296, #87 ) ;
#6 = LINE ( 'NONE', #176, #177 ) ;
#7 = DATE_TIME_ROLE ( 'classification_date' ) ;
#8 = FACE_OUTER_BOUND ( 'NONE', #100, .T. ) ;
#9 = DIRECTION ( 'NONE',  ( -0.000000000000000000, -0.000000000000000000, -1.000000000000000000 ) ) ;
#10 = EDGE_CURVE ( 'NONE', #128, #110, #208, .T. ) ;
#11 = DIRECTION ( 'NONE',  ( -0.000000000000000000, -0.000000000000000000, -1.000000000000000000 ) ) ;
#12 = CARTESIAN_POINT ( 'NONE',  ( 0.000000000000000000, 0.000000000000000000, 7.700000000000012612 ) ) ;
#13 = AXIS2_PLACEMENT_3D ( 'NONE', #57, #160, #71 ) ;
#14 = CIRCLE ( 'NONE', #170, 6.000000000000000888 ) ;
#15 = EDGE_LOOP ( 'NONE', ( #17, #337 ) ) ;
#16 = ORIENTED_EDGE ( 'NONE', *, *, #210, .F. ) ;
#17 = ORIENTED_EDGE ( 'NONE', *, *, #312, .T. ) ;
#18 = CIRCLE ( 'NONE', #323, 6.000000000000000888 ) ;
#19 = APPROVAL_ROLE ( '' ) ;
#20 = DIRECTION ( 'NONE',  ( 1.000000000000000000, 0.000000000000000000, 0.000000000000000000 ) ) ;
#21 = CC_DESIGN_PERSON_AND_ORGANIZATION_ASSIGNMENT ( #4, #236, ( #355 ) ) ;
#22 = DIRECTION ( 'NONE',  ( 0.000000000000000000, 0.000000000000000000, 1.000000000000000000 ) ) ;
#23 = AXIS2_PLACEMENT_3D ( 'NONE', #243, #146, #266 ) ;
#24 = ORIENTED_EDGE ( 'NONE', *, *, #222, .F. ) ;
#25 = CC_DESIGN_PERSON_AND_ORGANIZATION_ASSIGNMENT ( #65, #186, ( #343 ) ) ;
#26 = EDGE_LOOP ( 'NONE', ( #139, #182, #363, #250 ) ) ;
#27 = DATE_AND_TIME ( #173, #39 ) ;
#28 = CARTESIAN_POINT ( 'NONE',  ( -6.700000000000001066, 8.205133554287267548E-16, 7.700000000000012612 ) ) ;
#29 = CALENDAR_DATE ( 2022, 8, 7 ) ;
#30 = CIRCLE ( 'NONE', #247, 6.000000000000000888 ) ;
#31 = CARTESIAN_POINT ( 'NONE',  ( 6.000000000000000888, 7.347880794884120722E-16, 7.700000000000012612 ) ) ;
#32 = DIRECTION ( 'NONE',  ( 0.000000000000000000, 0.000000000000000000, -1.000000000000000000 ) ) ;
#33 = SECURITY_CLASSIFICATION_LEVEL ( 'unclassified' ) ;
#34 = CARTESIAN_POINT ( 'NONE',  ( 10.00000000000000000, 1.224646799147353256E-15, 7.000000000000000000 ) ) ;
#35 = CIRCLE ( 'NONE', #307, 10.00000000000000000 ) ;
#36 = CARTESIAN_POINT ( 'NONE',  ( 0.000000000000000000, 0.000000000000000000, 257.0000000000000000 ) ) ;
#37 = ADVANCED_FACE ( 'NONE', ( #54 ), #260, .T. ) ;
#38 = LINE ( 'NONE', #207, #348 ) ;
#39 = LOCAL_TIME ( 16, 27, 11.00000000000000000, #248 ) ;
#40 = ORIENTED_EDGE ( 'NONE', *, *, #229, .T. ) ;
#41 = EDGE_LOOP ( 'NONE', ( #98, #190, #340, #52 ) ) ;
#42 = ORIENTED_EDGE ( 'NONE', *, *, #180, .F. ) ;
#43 = APPLICATION_PROTOCOL_DEFINITION ( 'international standard', 'config_control_design', 1994, #297 ) ;
#44 = VERTEX_POINT ( 'NONE', #104 ) ;
#45 = EDGE_CURVE ( 'NONE', #275, #108, #381, .T. ) ;
#46 = DIRECTION ( 'NONE',  ( 0.000000000000000000, 0.000000000000000000, 1.000000000000000000 ) ) ;
#47 = DIRECTION ( 'NONE',  ( 0.000000000000000000, 0.000000000000000000, 1.000000000000000000 ) ) ;
#48 = AXIS2_PLACEMENT_3D ( 'NONE', #1, #201, #317 ) ;
#49 = DIRECTION ( 'NONE',  ( 0.000000000000000000, 0.000000000000000000, 1.000000000000000000 ) ) ;
#50 = ORIENTED_EDGE ( 'NONE', *, *, #320, .T. ) ;
#51 = CIRCLE ( 'NONE', #13, 4.500000000000000000 ) ;
#52 = ORIENTED_EDGE ( 'NONE', *, *, #336, .F. ) ;
#53 = PERSON_AND_ORGANIZATION_ROLE ( 'design_supplier' ) ;
#54 = FACE_OUTER_BOUND ( 'NONE', #41, .T. ) ;
#55 = PLANE ( 'NONE',  #238 ) ;
#56 = EDGE_CURVE ( 'NONE', #136, #102, #303, .T. ) ;
#57 = CARTESIAN_POINT ( 'NONE',  ( 0.000000000000000000, 0.000000000000000000, 257.0000000000000000 ) ) ;
#58 = APPROVAL_STATUS ( 'not_yet_approved' ) ;
#59 = CARTESIAN_POINT ( 'NONE',  ( -4.500000000000000000, 0.000000000000000000, 257.0000000000000000 ) ) ;
#60 = VECTOR ( 'NONE', #286, 1000.000000000000000 ) ;
#61 = CARTESIAN_POINT ( 'NONE',  ( -10.00000000000000000, 0.000000000000000000, 0.000000000000000000 ) ) ;
#62 = ADVANCED_FACE ( 'NONE', ( #351 ), #80, .T. ) ;
#63 = DIRECTION ( 'NONE',  ( 0.000000000000000000, 0.000000000000000000, 1.000000000000000000 ) ) ;
#64 = DIRECTION ( 'NONE',  ( 1.000000000000000000, 0.000000000000000000, 0.000000000000000000 ) ) ;
#65 = PERSON_AND_ORGANIZATION ( #376, #204 ) ;
#66 = ORIENTED_EDGE ( 'NONE', *, *, #191, .T. ) ;
#67 = MANIFOLD_SOLID_BREP ( 'Odebrat vysunutím3', #175 ) ;
#68 = EDGE_LOOP ( 'NONE', ( #219, #305 ) ) ;
#69 = ORIENTED_EDGE ( 'NONE', *, *, #257, .T. ) ;
#70 = EDGE_CURVE ( 'NONE', #161, #79, #321, .T. ) ;
#71 = DIRECTION ( 'NONE',  ( 1.000000000000000000, 0.000000000000000000, 0.000000000000000000 ) ) ;
#72 = ORIENTED_EDGE ( 'NONE', *, *, #154, .F. ) ;
#73 = VECTOR ( 'NONE', #251, 1000.000000000000000 ) ;
#74 = CARTESIAN_POINT ( 'NONE',  ( 0.000000000000000000, 0.000000000000000000, 257.0000000000000000 ) ) ;
#75 =( NAMED_UNIT ( * ) PLANE_ANGLE_UNIT ( ) SI_UNIT ( $, .RADIAN. ) );
#76 = APPROVAL ( #58, 'NEURÈENÝ' ) ;
#77 = EDGE_LOOP ( 'NONE', ( #187, #221, #259, #365 ) ) ;
#78 = DIRECTION ( 'NONE',  ( 0.000000000000000000, 0.000000000000000000, 1.000000000000000000 ) ) ;
#79 = VERTEX_POINT ( 'NONE', #282 ) ;
#80 = CYLINDRICAL_SURFACE ( 'NONE', #372, 6.000000000000000888 ) ;
#81 = DIRECTION ( 'NONE',  ( 1.000000000000000000, 0.000000000000000000, 0.000000000000000000 ) ) ;
#82 = CC_DESIGN_DATE_AND_TIME_ASSIGNMENT ( #119, #354, ( #112 ) ) ;
#83 = PERSON_AND_ORGANIZATION ( #376, #204 ) ;
#84 = DIRECTION ( 'NONE',  ( 0.000000000000000000, 0.000000000000000000, 1.000000000000000000 ) ) ;
#85 = APPROVAL_ROLE ( '' ) ;
#86 = LOCAL_TIME ( 16, 27, 11.00000000000000000, #2 ) ;
#87 = DIRECTION ( 'NONE',  ( 1.000000000000000000, 0.000000000000000000, -0.000000000000000000 ) ) ;
#88 = APPROVAL_DATE_TIME ( #314, #76 ) ;
#89 = EDGE_CURVE ( 'NONE', #79, #161, #311, .T. ) ;
#90 = DIRECTION ( 'NONE',  ( 1.000000000000000000, 0.000000000000000000, 0.000000000000000000 ) ) ;
#91 = DIRECTION ( 'NONE',  ( 1.000000000000000000, 0.000000000000000000, -0.000000000000000000 ) ) ;
#92 = AXIS2_PLACEMENT_3D ( 'NONE', #245, #213, #188 ) ;
#93 = CARTESIAN_POINT ( 'NONE',  ( 10.00000000000000000, 1.224646799147353256E-15, 0.000000000000000000 ) ) ;
#94 = CC_DESIGN_SECURITY_CLASSIFICATION ( #122, ( #355 ) ) ;
#95 = EDGE_LOOP ( 'NONE', ( #274, #167, #218, #334 ) ) ;
#96 = ORIENTED_EDGE ( 'NONE', *, *, #229, .F. ) ;
#97 = CIRCLE ( 'NONE', #105, 4.500000000000000000 ) ;
#98 = ORIENTED_EDGE ( 'NONE', *, *, #70, .F. ) ;
#99 = ADVANCED_FACE ( 'NONE', ( #378, #164 ), #55, .T. ) ;
#100 = EDGE_LOOP ( 'NONE', ( #279, #72 ) ) ;
#101 = CARTESIAN_POINT ( 'NONE',  ( 0.000000000000000000, 0.000000000000000000, 257.0000000000000000 ) ) ;
#102 = VERTEX_POINT ( 'NONE', #141 ) ;
#103 = LINE ( 'NONE', #304, #224 ) ;
#104 = CARTESIAN_POINT ( 'NONE',  ( 6.000000000000000888, 7.347880794884120722E-16, 257.0000000000000000 ) ) ;
#105 = AXIS2_PLACEMENT_3D ( 'NONE', #212, #290, #64 ) ;
#106 = DIRECTION ( 'NONE',  ( -0.000000000000000000, -0.000000000000000000, -1.000000000000000000 ) ) ;
#107 = UNCERTAINTY_MEASURE_WITH_UNIT (LENGTH_MEASURE( 1.000000000000000082E-05 ), #163, 'distance_accuracy_value', 'NONE');
#108 = VERTEX_POINT ( 'NONE', #380 ) ;
#109 = CARTESIAN_POINT ( 'NONE',  ( 0.000000000000000000, 0.000000000000000000, 7.000000000000000000 ) ) ;
#110 = VERTEX_POINT ( 'NONE', #230 ) ;
#111 = AXIS2_PLACEMENT_3D ( 'NONE', #152, #9, #118 ) ;
#112 = PRODUCT_DEFINITION ( 'NEZNÁMÝ', '', #355, #369 ) ;
#113 = DIRECTION ( 'NONE',  ( -0.000000000000000000, -0.000000000000000000, -1.000000000000000000 ) ) ;
#114 = APPROVAL_DATE_TIME ( #27, #270 ) ;
#115 = PLANE ( 'NONE',  #217 ) ;
#116 = AXIS2_PLACEMENT_3D ( 'NONE', #227, #113, #344 ) ;
#117 = PERSON_AND_ORGANIZATION ( #376, #204 ) ;
#118 = DIRECTION ( 'NONE',  ( 1.000000000000000000, 0.000000000000000000, 0.000000000000000000 ) ) ;
#119 = DATE_AND_TIME ( #352, #86 ) ;
#120 = CC_DESIGN_PERSON_AND_ORGANIZATION_ASSIGNMENT ( #83, #284, ( #112 ) ) ;
#121 = AXIS2_PLACEMENT_3D ( 'NONE', #36, #32, #359 ) ;
#122 = SECURITY_CLASSIFICATION ( '', '', #33 ) ;
#123 = DIRECTION ( 'NONE',  ( -0.000000000000000000, -0.000000000000000000, -1.000000000000000000 ) ) ;
#124 = CARTESIAN_POINT ( 'NONE',  ( 4.500000000000000000, 5.510910596163088569E-16, 257.0000000000000000 ) ) ;
#125 = FACE_OUTER_BOUND ( 'NONE', #214, .T. ) ;
#126 = MECHANICAL_CONTEXT ( 'NONE', #148, 'mechanical' ) ;
#127 = ADVANCED_FACE ( 'NONE', ( #346 ), #319, .F. ) ;
#128 = VERTEX_POINT ( 'NONE', #31 ) ;
#129 = ORIENTED_EDGE ( 'NONE', *, *, #249, .T. ) ;
#130 = CC_DESIGN_PERSON_AND_ORGANIZATION_ASSIGNMENT ( #117, #53, ( #355 ) ) ;
#131 = CC_DESIGN_APPROVAL ( #349, ( #355 ) ) ;
#132 = ORIENTED_EDGE ( 'NONE', *, *, #157, .F. ) ;
#133 = CARTESIAN_POINT ( 'NONE',  ( -4.500000000000000000, 0.000000000000000000, 0.000000000000000000 ) ) ;
#134 = CARTESIAN_POINT ( 'NONE',  ( 6.000000000000000888, 7.347880794884120722E-16, 257.0000000000000000 ) ) ;
#135 = FACE_OUTER_BOUND ( 'NONE', #95, .T. ) ;
#136 = VERTEX_POINT ( 'NONE', #253 ) ;
#137 = DIRECTION ( 'NONE',  ( 1.000000000000000000, 0.000000000000000000, 0.000000000000000000 ) ) ;
#138 = DIRECTION ( 'NONE',  ( -1.000000000000000000, 0.000000000000000000, 0.000000000000000000 ) ) ;
#139 = ORIENTED_EDGE ( 'NONE', *, *, #320, .F. ) ;
#140 = ADVANCED_FACE ( 'NONE', ( #3, #272 ), #327, .T. ) ;
#141 = CARTESIAN_POINT ( 'NONE',  ( -6.700000000000001066, 8.205133554287267548E-16, 7.000000000000006217 ) ) ;
#142 = AXIS2_PLACEMENT_3D ( 'NONE', #271, #84, #329 ) ;
#143 = DIRECTION ( 'NONE',  ( 1.000000000000000000, 0.000000000000000000, 0.000000000000000000 ) ) ;
#144 = DATE_AND_TIME ( #262, #151 ) ;
#145 = ADVANCED_BREP_SHAPE_REPRESENTATION ( '8035', ( #67, #269 ), #273 ) ;
#146 = DIRECTION ( 'NONE',  ( -0.000000000000000000, -0.000000000000000000, -1.000000000000000000 ) ) ;
#147 = ADVANCED_FACE ( 'NONE', ( #268 ), #326, .F. ) ;
#148 = APPLICATION_CONTEXT ( 'configuration controlled 3d designs of mechanical parts and assemblies' ) ;
#149 = APPROVAL_ROLE ( '' ) ;
#150 = DIRECTION ( 'NONE',  ( -0.000000000000000000, -0.000000000000000000, -1.000000000000000000 ) ) ;
#151 = LOCAL_TIME ( 16, 27, 11.00000000000000000, #265 ) ;
#152 = CARTESIAN_POINT ( 'NONE',  ( 0.000000000000000000, 0.000000000000000000, 7.000000000000000000 ) ) ;
#153 = CARTESIAN_POINT ( 'NONE',  ( 0.000000000000000000, 0.000000000000000000, 0.000000000000000000 ) ) ;
#154 = EDGE_CURVE ( 'NONE', #232, #158, #364, .T. ) ;
#155 = CIRCLE ( 'NONE', #189, 6.000000000000000888 ) ;
#156 = ORIENTED_EDGE ( 'NONE', *, *, #312, .F. ) ;
#157 = EDGE_CURVE ( 'NONE', #275, #185, #368, .T. ) ;
#158 = VERTEX_POINT ( 'NONE', #61 ) ;
#159 = PERSON_AND_ORGANIZATION ( #376, #204 ) ;
#160 = DIRECTION ( 'NONE',  ( 0.000000000000000000, 0.000000000000000000, 1.000000000000000000 ) ) ;
#161 = VERTEX_POINT ( 'NONE', #34 ) ;
#162 = CARTESIAN_POINT ( 'NONE',  ( 0.000000000000000000, 0.000000000000000000, 7.000000000000000000 ) ) ;
#163 =( LENGTH_UNIT ( ) NAMED_UNIT ( * ) SI_UNIT ( .MILLI., .METRE. ) );
#164 = FACE_OUTER_BOUND ( 'NONE', #68, .T. ) ;
#165 = APPROVAL_PERSON_ORGANIZATION ( #241, #349, #85 ) ;
#166 = EDGE_LOOP ( 'NONE', ( #24, #42 ) ) ;
#167 = ORIENTED_EDGE ( 'NONE', *, *, #287, .T. ) ;
#168 = AXIS2_PLACEMENT_3D ( 'NONE', #285, #374, #350 ) ;
#169 = DIRECTION ( 'NONE',  ( 0.000000000000000000, 0.000000000000000000, 1.000000000000000000 ) ) ;
#170 = AXIS2_PLACEMENT_3D ( 'NONE', #101, #280, #258 ) ;
#171 = TOROIDAL_SURFACE ( 'NONE', #294, 6.700000000000001066, 0.6999999999999999556 ) ;
#172 = CARTESIAN_POINT ( 'NONE',  ( 0.000000000000000000, 0.000000000000000000, 257.0000000000000000 ) ) ;
#173 = CALENDAR_DATE ( 2022, 8, 7 ) ;
#174 = CYLINDRICAL_SURFACE ( 'NONE', #23, 10.00000000000000000 ) ;
#175 = CLOSED_SHELL ( 'NONE', ( #127, #361, #292, #37, #215, #99, #196, #62, #140, #276, #147 ) ) ;
#176 = CARTESIAN_POINT ( 'NONE',  ( -6.000000000000000888, 0.000000000000000000, 257.0000000000000000 ) ) ;
#177 = VECTOR ( 'NONE', #11, 1000.000000000000000 ) ;
#178 = APPROVAL_PERSON_ORGANIZATION ( #231, #76, #149 ) ;
#179 = CARTESIAN_POINT ( 'NONE',  ( 0.000000000000000000, 0.000000000000000000, 7.700000000000012612 ) ) ;
#180 = EDGE_CURVE ( 'NONE', #108, #301, #289, .T. ) ;
#181 = DIRECTION ( 'NONE',  ( 1.000000000000000000, 0.000000000000000000, 0.000000000000000000 ) ) ;
#182 = ORIENTED_EDGE ( 'NONE', *, *, #56, .T. ) ;
#183 = EDGE_CURVE ( 'NONE', #185, #301, #38, .T. ) ;
#184 = ORIENTED_EDGE ( 'NONE', *, *, #336, .T. ) ;
#185 = VERTEX_POINT ( 'NONE', #59 ) ;
#186 = PERSON_AND_ORGANIZATION_ROLE ( 'design_owner' ) ;
#187 = ORIENTED_EDGE ( 'NONE', *, *, #45, .F. ) ;
#188 = DIRECTION ( 'NONE',  ( -1.000000000000000000, 0.000000000000000000, 0.000000000000000000 ) ) ;
#189 = AXIS2_PLACEMENT_3D ( 'NONE', #310, #306, #228 ) ;
#190 = ORIENTED_EDGE ( 'NONE', *, *, #375, .T. ) ;
#191 = EDGE_CURVE ( 'NONE', #370, #136, #6, .T. ) ;
#192 = EDGE_LOOP ( 'NONE', ( #225, #132 ) ) ;
#193 =( NAMED_UNIT ( * ) SI_UNIT ( $, .STERADIAN. ) SOLID_ANGLE_UNIT ( ) );
#194 = ORIENTED_EDGE ( 'NONE', *, *, #375, .F. ) ;
#195 = DIRECTION ( 'NONE',  ( 1.000000000000000000, 0.000000000000000000, 0.000000000000000000 ) ) ;
#196 = ADVANCED_FACE ( 'NONE', ( #264, #8 ), #115, .F. ) ;
#197 = CARTESIAN_POINT ( 'NONE',  ( 0.000000000000000000, 0.000000000000000000, 7.000000000000000000 ) ) ;
#198 = AXIS2_PLACEMENT_3D ( 'NONE', #239, #242, #20 ) ;
#199 = DIRECTION ( 'NONE',  ( 1.000000000000000000, 0.000000000000000000, 0.000000000000000000 ) ) ;
#200 = APPROVAL_STATUS ( 'not_yet_approved' ) ;
#201 = DIRECTION ( 'NONE',  ( 0.000000000000000000, 0.000000000000000000, -1.000000000000000000 ) ) ;
#202 = SHAPE_DEFINITION_REPRESENTATION ( #252, #145 ) ;
#203 = CARTESIAN_POINT ( 'NONE',  ( 0.000000000000000000, 0.000000000000000000, 0.000000000000000000 ) ) ;
#204 = ORGANIZATION ( 'NEURÈENÝ', 'NEURÈENÝ', '' ) ;
#205 = PERSON_AND_ORGANIZATION_ROLE ( 'classification_officer' ) ;
#206 = DIRECTION ( 'NONE',  ( 0.000000000000000000, 0.000000000000000000, 1.000000000000000000 ) ) ;
#207 = CARTESIAN_POINT ( 'NONE',  ( -4.500000000000000000, 0.000000000000000000, 257.0000000000000000 ) ) ;
#208 = CIRCLE ( 'NONE', #168, 0.7000000000000000666 ) ;
#209 = DIRECTION ( 'NONE',  ( 0.000000000000000000, 0.000000000000000000, 1.000000000000000000 ) ) ;
#210 = EDGE_CURVE ( 'NONE', #128, #136, #18, .T. ) ;
#211 = AXIS2_PLACEMENT_3D ( 'NONE', #172, #63, #358 ) ;
#212 = CARTESIAN_POINT ( 'NONE',  ( 0.000000000000000000, 0.000000000000000000, 0.000000000000000000 ) ) ;
#213 = DIRECTION ( 'NONE',  ( -0.000000000000000000, -0.000000000000000000, -1.000000000000000000 ) ) ;
#214 = EDGE_LOOP ( 'NONE', ( #194, #322, #184, #69 ) ) ;
#215 = ADVANCED_FACE ( 'NONE', ( #125 ), #174, .T. ) ;
#216 = EDGE_LOOP ( 'NONE', ( #371, #313, #333, #302 ) ) ;
#217 = AXIS2_PLACEMENT_3D ( 'NONE', #153, #206, #91 ) ;
#218 = ORIENTED_EDGE ( 'NONE', *, *, #210, .T. ) ;
#219 = ORIENTED_EDGE ( 'NONE', *, *, #89, .T. ) ;
#220 = CYLINDRICAL_SURFACE ( 'NONE', #92, 6.000000000000000888 ) ;
#221 = ORIENTED_EDGE ( 'NONE', *, *, #157, .T. ) ;
#222 = EDGE_CURVE ( 'NONE', #301, #108, #97, .T. ) ;
#223 = LINE ( 'NONE', #134, #73 ) ;
#224 = VECTOR ( 'NONE', #341, 1000.000000000000000 ) ;
#225 = ORIENTED_EDGE ( 'NONE', *, *, #281, .F. ) ;
#226 = CARTESIAN_POINT ( 'NONE',  ( -6.000000000000000888, 0.000000000000000000, 257.0000000000000000 ) ) ;
#227 = CARTESIAN_POINT ( 'NONE',  ( 0.000000000000000000, 0.000000000000000000, 7.000000000000000000 ) ) ;
#228 = DIRECTION ( 'NONE',  ( 1.000000000000000000, 0.000000000000000000, 0.000000000000000000 ) ) ;
#229 = EDGE_CURVE ( 'NONE', #102, #110, #335, .T. ) ;
#230 = CARTESIAN_POINT ( 'NONE',  ( 6.700000000000001066, 0.000000000000000000, 7.000000000000006217 ) ) ;
#231 = PERSON_AND_ORGANIZATION ( #376, #204 ) ;
#232 = VERTEX_POINT ( 'NONE', #93 ) ;
#233 = AXIS2_PLACEMENT_3D ( 'NONE', #203, #123, #90 ) ;
#234 = CALENDAR_DATE ( 2022, 8, 7 ) ;
#235 = CARTESIAN_POINT ( 'NONE',  ( 4.500000000000000000, 5.510910596163088569E-16, 257.0000000000000000 ) ) ;
#236 = PERSON_AND_ORGANIZATION_ROLE ( 'creator' ) ;
#237 = FACE_OUTER_BOUND ( 'NONE', #367, .T. ) ;
#238 = AXIS2_PLACEMENT_3D ( 'NONE', #109, #169, #283 ) ;
#239 = CARTESIAN_POINT ( 'NONE',  ( 0.000000000000000000, 0.000000000000000000, 7.700000000000012612 ) ) ;
#240 = AXIS2_PLACEMENT_3D ( 'NONE', #360, #150, #181 ) ;
#241 = PERSON_AND_ORGANIZATION ( #376, #204 ) ;
#242 = DIRECTION ( 'NONE',  ( 0.000000000000000000, 0.000000000000000000, 1.000000000000000000 ) ) ;
#243 = CARTESIAN_POINT ( 'NONE',  ( 0.000000000000000000, 0.000000000000000000, 7.000000000000000000 ) ) ;
#244 = VECTOR ( 'NONE', #106, 1000.000000000000000 ) ;
#245 = CARTESIAN_POINT ( 'NONE',  ( 0.000000000000000000, 0.000000000000000000, 257.0000000000000000 ) ) ;
#246 = ORIENTED_EDGE ( 'NONE', *, *, #56, .F. ) ;
#247 = AXIS2_PLACEMENT_3D ( 'NONE', #12, #49, #137 ) ;
#248 = COORDINATED_UNIVERSAL_TIME_OFFSET ( 1, 0, .AHEAD. ) ;
#249 = EDGE_CURVE ( 'NONE', #110, #102, #278, .T. ) ;
#250 = ORIENTED_EDGE ( 'NONE', *, *, #10, .F. ) ;
#251 = DIRECTION ( 'NONE',  ( -0.000000000000000000, -0.000000000000000000, -1.000000000000000000 ) ) ;
#252 = PRODUCT_DEFINITION_SHAPE ( 'NONE', 'NONE',  #112 ) ;
#253 = CARTESIAN_POINT ( 'NONE',  ( -6.000000000000000888, 0.000000000000000000, 7.700000000000012612 ) ) ;
#254 = CC_DESIGN_APPROVAL ( #270, ( #112 ) ) ;
#255 = CC_DESIGN_APPROVAL ( #76, ( #122 ) ) ;
#256 = DIRECTION ( 'NONE',  ( 1.224646799147353207E-16, 1.000000000000000000, -0.000000000000000000 ) ) ;
#257 = EDGE_CURVE ( 'NONE', #158, #232, #35, .T. ) ;
#258 = DIRECTION ( 'NONE',  ( 1.000000000000000000, 0.000000000000000000, 0.000000000000000000 ) ) ;
#259 = ORIENTED_EDGE ( 'NONE', *, *, #183, .T. ) ;
#260 = CYLINDRICAL_SURFACE ( 'NONE', #116, 10.00000000000000000 ) ;
#261 = EDGE_LOOP ( 'NONE', ( #338, #156, #66, #50 ) ) ;
#262 = CALENDAR_DATE ( 2022, 8, 7 ) ;
#263 = CC_DESIGN_DATE_AND_TIME_ASSIGNMENT ( #357, #7, ( #122 ) ) ;
#264 = FACE_BOUND ( 'NONE', #166, .T. ) ;
#265 = COORDINATED_UNIVERSAL_TIME_OFFSET ( 1, 0, .AHEAD. ) ;
#266 = DIRECTION ( 'NONE',  ( -1.000000000000000000, 0.000000000000000000, 0.000000000000000000 ) ) ;
#267 = PERSON_AND_ORGANIZATION ( #376, #204 ) ;
#268 = FACE_OUTER_BOUND ( 'NONE', #77, .T. ) ;
#269 = AXIS2_PLACEMENT_3D ( 'NONE', #345, #78, #195 ) ;
#270 = APPROVAL ( #277, 'NEURÈENÝ' ) ;
#271 = CARTESIAN_POINT ( 'NONE',  ( 0.000000000000000000, 0.000000000000000000, 0.000000000000000000 ) ) ;
#272 = FACE_OUTER_BOUND ( 'NONE', #15, .T. ) ;
#273 =( GEOMETRIC_REPRESENTATION_CONTEXT ( 3 ) GLOBAL_UNCERTAINTY_ASSIGNED_CONTEXT ( ( #107 ) ) GLOBAL_UNIT_ASSIGNED_CONTEXT ( ( #163, #75, #193 ) ) REPRESENTATION_CONTEXT ( 'NONE', 'WORKASPACE' ) );
#274 = ORIENTED_EDGE ( 'NONE', *, *, #366, .F. ) ;
#275 = VERTEX_POINT ( 'NONE', #124 ) ;
#276 = ADVANCED_FACE ( 'NONE', ( #237 ), #328, .F. ) ;
#277 = APPROVAL_STATUS ( 'not_yet_approved' ) ;
#278 = CIRCLE ( 'NONE', #111, 6.700000000000001066 ) ;
#279 = ORIENTED_EDGE ( 'NONE', *, *, #257, .F. ) ;
#280 = DIRECTION ( 'NONE',  ( 0.000000000000000000, 0.000000000000000000, 1.000000000000000000 ) ) ;
#281 = EDGE_CURVE ( 'NONE', #185, #275, #51, .T. ) ;
#282 = CARTESIAN_POINT ( 'NONE',  ( -10.00000000000000000, 0.000000000000000000, 7.000000000000000000 ) ) ;
#283 = DIRECTION ( 'NONE',  ( 1.000000000000000000, 0.000000000000000000, -0.000000000000000000 ) ) ;
#284 = PERSON_AND_ORGANIZATION_ROLE ( 'creator' ) ;
#285 = CARTESIAN_POINT ( 'NONE',  ( 6.700000000000001066, 0.000000000000000000, 7.700000000000012612 ) ) ;
#286 = DIRECTION ( 'NONE',  ( 0.000000000000000000, 0.000000000000000000, -1.000000000000000000 ) ) ;
#287 = EDGE_CURVE ( 'NONE', #44, #128, #223, .T. ) ;
#288 = ORIENTED_EDGE ( 'NONE', *, *, #10, .T. ) ;
#289 = CIRCLE ( 'NONE', #233, 4.500000000000000000 ) ;
#290 = DIRECTION ( 'NONE',  ( -0.000000000000000000, -0.000000000000000000, -1.000000000000000000 ) ) ;
#291 = CARTESIAN_POINT ( 'NONE',  ( 0.000000000000000000, 0.000000000000000000, 257.0000000000000000 ) ) ;
#292 = ADVANCED_FACE ( 'NONE', ( #135 ), #220, .T. ) ;
#293 = DIRECTION ( 'NONE',  ( 1.000000000000000000, 0.000000000000000000, 0.000000000000000000 ) ) ;
#294 = AXIS2_PLACEMENT_3D ( 'NONE', #339, #46, #331 ) ;
#295 = LOCAL_TIME ( 16, 27, 11.00000000000000000, #325 ) ;
#296 = DIRECTION ( 'NONE',  ( 0.000000000000000000, 0.000000000000000000, 1.000000000000000000 ) ) ;
#297 = APPLICATION_CONTEXT ( 'configuration controlled 3d designs of mechanical parts and assemblies' ) ;
#298 = DIRECTION ( 'NONE',  ( 0.000000000000000000, 0.000000000000000000, 1.000000000000000000 ) ) ;
#299 = AXIS2_PLACEMENT_3D ( 'NONE', #162, #47, #199 ) ;
#300 = PRODUCT_RELATED_PRODUCT_CATEGORY ( 'detail', '', ( #343 ) ) ;
#301 = VERTEX_POINT ( 'NONE', #133 ) ;
#302 = ORIENTED_EDGE ( 'NONE', *, *, #183, .F. ) ;
#303 = CIRCLE ( 'NONE', #332, 0.7000000000000000666 ) ;
#304 = CARTESIAN_POINT ( 'NONE',  ( 10.00000000000000000, 1.224646799147353256E-15, 7.000000000000000000 ) ) ;
#305 = ORIENTED_EDGE ( 'NONE', *, *, #70, .T. ) ;
#306 = DIRECTION ( 'NONE',  ( 0.000000000000000000, 0.000000000000000000, 1.000000000000000000 ) ) ;
#307 = AXIS2_PLACEMENT_3D ( 'NONE', #324, #298, #143 ) ;
#308 = EDGE_LOOP ( 'NONE', ( #129, #40 ) ) ;
#309 = DIRECTION ( 'NONE',  ( -0.000000000000000000, -0.000000000000000000, -1.000000000000000000 ) ) ;
#310 = CARTESIAN_POINT ( 'NONE',  ( 0.000000000000000000, 0.000000000000000000, 257.0000000000000000 ) ) ;
#311 = CIRCLE ( 'NONE', #353, 10.00000000000000000 ) ;
#312 = EDGE_CURVE ( 'NONE', #370, #44, #155, .T. ) ;
#313 = ORIENTED_EDGE ( 'NONE', *, *, #45, .T. ) ;
#314 = DATE_AND_TIME ( #234, #316 ) ;
#315 = APPROVAL_PERSON_ORGANIZATION ( #159, #270, #19 ) ;
#316 = LOCAL_TIME ( 16, 27, 11.00000000000000000, #347 ) ;
#317 = DIRECTION ( 'NONE',  ( -1.000000000000000000, 0.000000000000000000, 0.000000000000000000 ) ) ;
#318 = APPROVAL_DATE_TIME ( #144, #349 ) ;
#319 = CYLINDRICAL_SURFACE ( 'NONE', #48, 4.500000000000000000 ) ;
#320 = EDGE_CURVE ( 'NONE', #136, #128, #30, .T. ) ;
#321 = CIRCLE ( 'NONE', #299, 10.00000000000000000 ) ;
#322 = ORIENTED_EDGE ( 'NONE', *, *, #89, .F. ) ;
#323 = AXIS2_PLACEMENT_3D ( 'NONE', #179, #209, #293 ) ;
#324 = CARTESIAN_POINT ( 'NONE',  ( 0.000000000000000000, 0.000000000000000000, 0.000000000000000000 ) ) ;
#325 = COORDINATED_UNIVERSAL_TIME_OFFSET ( 1, 0, .AHEAD. ) ;
#326 = CYLINDRICAL_SURFACE ( 'NONE', #121, 4.500000000000000000 ) ;
#327 = PLANE ( 'NONE',  #5 ) ;
#328 = TOROIDAL_SURFACE ( 'NONE', #198, 6.700000000000001066, 0.6999999999999999556 ) ;
#329 = DIRECTION ( 'NONE',  ( 1.000000000000000000, 0.000000000000000000, 0.000000000000000000 ) ) ;
#330 = CC_DESIGN_PERSON_AND_ORGANIZATION_ASSIGNMENT ( #267, #205, ( #122 ) ) ;
#331 = DIRECTION ( 'NONE',  ( 1.000000000000000000, 0.000000000000000000, 0.000000000000000000 ) ) ;
#332 = AXIS2_PLACEMENT_3D ( 'NONE', #28, #256, #342 ) ;
#333 = ORIENTED_EDGE ( 'NONE', *, *, #180, .T. ) ;
#334 = ORIENTED_EDGE ( 'NONE', *, *, #191, .F. ) ;
#335 = CIRCLE ( 'NONE', #240, 6.700000000000001066 ) ;
#336 = EDGE_CURVE ( 'NONE', #79, #158, #379, .T. ) ;
#337 = ORIENTED_EDGE ( 'NONE', *, *, #366, .T. ) ;
#338 = ORIENTED_EDGE ( 'NONE', *, *, #287, .F. ) ;
#339 = CARTESIAN_POINT ( 'NONE',  ( 0.000000000000000000, 0.000000000000000000, 7.700000000000012612 ) ) ;
#340 = ORIENTED_EDGE ( 'NONE', *, *, #154, .T. ) ;
#341 = DIRECTION ( 'NONE',  ( -0.000000000000000000, -0.000000000000000000, -1.000000000000000000 ) ) ;
#342 = DIRECTION ( 'NONE',  ( -1.000000000000000000, 1.224646799147353454E-16, 0.000000000000000000 ) ) ;
#343 = PRODUCT ( '8035', '8035', '', ( #126 ) ) ;
#344 = DIRECTION ( 'NONE',  ( -1.000000000000000000, 0.000000000000000000, 0.000000000000000000 ) ) ;
#345 = CARTESIAN_POINT ( 'NONE',  ( 0.000000000000000000, 0.000000000000000000, 0.000000000000000000 ) ) ;
#346 = FACE_OUTER_BOUND ( 'NONE', #216, .T. ) ;
#347 = COORDINATED_UNIVERSAL_TIME_OFFSET ( 1, 0, .AHEAD. ) ;
#348 = VECTOR ( 'NONE', #356, 1000.000000000000000 ) ;
#349 = APPROVAL ( #200, 'NEURÈENÝ' ) ;
#350 = DIRECTION ( 'NONE',  ( 0.000000000000000000, 0.000000000000000000, -1.000000000000000000 ) ) ;
#351 = FACE_OUTER_BOUND ( 'NONE', #261, .T. ) ;
#352 = CALENDAR_DATE ( 2022, 8, 7 ) ;
#353 = AXIS2_PLACEMENT_3D ( 'NONE', #197, #22, #81 ) ;
#354 = DATE_TIME_ROLE ( 'creation_date' ) ;
#355 = PRODUCT_DEFINITION_FORMATION_WITH_SPECIFIED_SOURCE ( 'LIBOVOLNÝ', '', #343, .NOT_KNOWN. ) ;
#356 = DIRECTION ( 'NONE',  ( 0.000000000000000000, 0.000000000000000000, -1.000000000000000000 ) ) ;
#357 = DATE_AND_TIME ( #29, #295 ) ;
#358 = DIRECTION ( 'NONE',  ( 1.000000000000000000, 0.000000000000000000, 0.000000000000000000 ) ) ;
#359 = DIRECTION ( 'NONE',  ( -1.000000000000000000, 0.000000000000000000, 0.000000000000000000 ) ) ;
#360 = CARTESIAN_POINT ( 'NONE',  ( 0.000000000000000000, 0.000000000000000000, 7.000000000000000000 ) ) ;
#361 = ADVANCED_FACE ( 'NONE', ( #377 ), #171, .F. ) ;
#362 = APPLICATION_PROTOCOL_DEFINITION ( 'international standard', 'config_control_design', 1994, #148 ) ;
#363 = ORIENTED_EDGE ( 'NONE', *, *, #249, .F. ) ;
#364 = CIRCLE ( 'NONE', #142, 10.00000000000000000 ) ;
#365 = ORIENTED_EDGE ( 'NONE', *, *, #222, .T. ) ;
#366 = EDGE_CURVE ( 'NONE', #44, #370, #14, .T. ) ;
#367 = EDGE_LOOP ( 'NONE', ( #246, #16, #288, #96 ) ) ;
#368 = CIRCLE ( 'NONE', #211, 4.500000000000000000 ) ;
#369 = DESIGN_CONTEXT ( 'detailed design', #297, 'design' ) ;
#370 = VERTEX_POINT ( 'NONE', #226 ) ;
#371 = ORIENTED_EDGE ( 'NONE', *, *, #281, .T. ) ;
#372 = AXIS2_PLACEMENT_3D ( 'NONE', #74, #309, #138 ) ;
#373 = CARTESIAN_POINT ( 'NONE',  ( -10.00000000000000000, 0.000000000000000000, 7.000000000000000000 ) ) ;
#374 = DIRECTION ( 'NONE',  ( 0.000000000000000000, -1.000000000000000000, 0.000000000000000000 ) ) ;
#375 = EDGE_CURVE ( 'NONE', #161, #232, #103, .T. ) ;
#376 = PERSON ( 'NEURÈENÝ', 'NEURÈENÝ', 'NEURÈENÝ', ('NEURÈENÝ'), ('NEURÈENÝ'), ('NEURÈENÝ') ) ;
#377 = FACE_OUTER_BOUND ( 'NONE', #26, .T. ) ;
#378 = FACE_BOUND ( 'NONE', #308, .T. ) ;
#379 = LINE ( 'NONE', #373, #244 ) ;
#380 = CARTESIAN_POINT ( 'NONE',  ( 4.500000000000000000, 5.510910596163088569E-16, 0.000000000000000000 ) ) ;
#381 = LINE ( 'NONE', #235, #60 ) ;
ENDSEC;
END-ISO-10303-21;
