ISO-10303-21;
HEADER;
FILE_DESCRIPTION (( 'STEP AP203' ),
    '1' );
FILE_NAME ('a6b5.STEP',
    '2022-07-08T15:37:22',
    ( '' ),
    ( '' ),
    'SwSTEP 2.0',
    'SolidWorks 2019',
    '' );
FILE_SCHEMA (( 'CONFIG_CONTROL_DESIGN' ));
ENDSEC;

DATA;
#1 = DESIGN_CONTEXT ( 'detailed design', #246, 'design' ) ;
#2 = DIRECTION ( 'NONE',  ( 1.000000000000000000, 0.000000000000000000, 0.000000000000000000 ) ) ;
#3 = DIRECTION ( 'NONE',  ( -0.000000000000000000, -0.000000000000000000, -1.000000000000000000 ) ) ;
#4 = AXIS2_PLACEMENT_3D ( 'NONE', #10, #159, #155 ) ;
#5 = CARTESIAN_POINT ( 'NONE',  ( 0.000000000000000000, 0.000000000000000000, 0.000000000000000000 ) ) ;
#6 = EDGE_CURVE ( 'NONE', #103, #47, #41, .T. ) ;
#7 = DIRECTION ( 'NONE',  ( 0.000000000000000000, 0.000000000000000000, -1.000000000000000000 ) ) ;
#8 =( LENGTH_UNIT ( ) NAMED_UNIT ( * ) SI_UNIT ( .MILLI., .METRE. ) );
#9 = AXIS2_PLACEMENT_3D ( 'NONE', #354, #240, #2 ) ;
#10 = CARTESIAN_POINT ( 'NONE',  ( 0.000000000000000000, 0.000000000000000000, 655.0000000000000000 ) ) ;
#11 = CYLINDRICAL_SURFACE ( 'NONE', #331, 6.000000000000000888 ) ;
#12 = ORIENTED_EDGE ( 'NONE', *, *, #228, .T. ) ;
#13 = EDGE_CURVE ( 'NONE', #322, #304, #161, .T. ) ;
#14 = CARTESIAN_POINT ( 'NONE',  ( 0.000000000000000000, 0.000000000000000000, 5.000000000000000000 ) ) ;
#15 = ORIENTED_EDGE ( 'NONE', *, *, #6, .T. ) ;
#16 = VECTOR ( 'NONE', #117, 1000.000000000000000 ) ;
#17 = CARTESIAN_POINT ( 'NONE',  ( -3.000000000000000444, 0.000000000000000000, 5.499999999999949374 ) ) ;
#18 = CARTESIAN_POINT ( 'NONE',  ( 0.000000000000000000, 0.000000000000000000, 0.000000000000000000 ) ) ;
#19 = EDGE_LOOP ( 'NONE', ( #136, #225, #12, #375 ) ) ;
#20 = DATE_AND_TIME ( #163, #169 ) ;
#21 = CARTESIAN_POINT ( 'NONE',  ( 0.000000000000000000, 0.000000000000000000, 5.000000000000000000 ) ) ;
#22 = LOCAL_TIME ( 17, 37, 22.00000000000000000, #24 ) ;
#23 = DIRECTION ( 'NONE',  ( 1.000000000000000000, 0.000000000000000000, 0.000000000000000000 ) ) ;
#24 = COORDINATED_UNIVERSAL_TIME_OFFSET ( 1, 0, .AHEAD. ) ;
#25 = CYLINDRICAL_SURFACE ( 'NONE', #180, 3.000000000000000444 ) ;
#26 = CC_DESIGN_PERSON_AND_ORGANIZATION_ASSIGNMENT ( #206, #369, ( #43 ) ) ;
#27 = DIRECTION ( 'NONE',  ( 0.000000000000000000, 0.000000000000000000, -1.000000000000000000 ) ) ;
#28 = CC_DESIGN_APPROVAL ( #239, ( #43 ) ) ;
#29 = DIRECTION ( 'NONE',  ( -0.000000000000000000, -0.000000000000000000, -1.000000000000000000 ) ) ;
#30 = CARTESIAN_POINT ( 'NONE',  ( 6.000000000000000888, 7.347880794884120722E-16, 5.000000000000000000 ) ) ;
#31 = CIRCLE ( 'NONE', #195, 6.000000000000000888 ) ;
#32 = CARTESIAN_POINT ( 'NONE',  ( 0.000000000000000000, 0.000000000000000000, 655.0000000000000000 ) ) ;
#33 = CC_DESIGN_PERSON_AND_ORGANIZATION_ASSIGNMENT ( #135, #281, ( #231 ) ) ;
#34 = AXIS2_PLACEMENT_3D ( 'NONE', #32, #56, #90 ) ;
#35 = CARTESIAN_POINT ( 'NONE',  ( 1.750000000000000000, 2.143131898507868297E-16, 655.0000000000000000 ) ) ;
#36 = CC_DESIGN_PERSON_AND_ORGANIZATION_ASSIGNMENT ( #44, #141, ( #43 ) ) ;
#37 = ORIENTED_EDGE ( 'NONE', *, *, #65, .F. ) ;
#38 = CARTESIAN_POINT ( 'NONE',  ( 6.000000000000000888, 7.347880794884120722E-16, 0.000000000000000000 ) ) ;
#39 = CARTESIAN_POINT ( 'NONE',  ( 0.000000000000000000, 0.000000000000000000, 5.000000000000000000 ) ) ;
#40 = PLANE ( 'NONE',  #77 ) ;
#41 = CIRCLE ( 'NONE', #62, 3.000000000000000444 ) ;
#42 = PRODUCT_RELATED_PRODUCT_CATEGORY ( 'detail', '', ( #231 ) ) ;
#43 = PRODUCT_DEFINITION_FORMATION_WITH_SPECIFIED_SOURCE ( 'LIBOVOLNÝ', '', #231, .NOT_KNOWN. ) ;
#44 = PERSON_AND_ORGANIZATION ( #286, #120 ) ;
#45 = ORIENTED_EDGE ( 'NONE', *, *, #228, .F. ) ;
#46 = APPROVAL_DATE_TIME ( #114, #338 ) ;
#47 = VERTEX_POINT ( 'NONE', #17 ) ;
#48 = PERSON_AND_ORGANIZATION ( #286, #120 ) ;
#49 = FACE_BOUND ( 'NONE', #174, .T. ) ;
#50 = AXIS2_PLACEMENT_3D ( 'NONE', #18, #289, #376 ) ;
#51 = CALENDAR_DATE ( 2022, 8, 7 ) ;
#52 = ORIENTED_EDGE ( 'NONE', *, *, #218, .T. ) ;
#53 = ADVANCED_FACE ( 'NONE', ( #49, #282 ), #111, .F. ) ;
#54 = ORIENTED_EDGE ( 'NONE', *, *, #364, .T. ) ;
#55 = APPLICATION_CONTEXT ( 'configuration controlled 3d designs of mechanical parts and assemblies' ) ;
#56 = DIRECTION ( 'NONE',  ( 0.000000000000000000, 0.000000000000000000, -1.000000000000000000 ) ) ;
#57 = AXIS2_PLACEMENT_3D ( 'NONE', #66, #222, #69 ) ;
#58 = LINE ( 'NONE', #30, #61 ) ;
#59 = CC_DESIGN_PERSON_AND_ORGANIZATION_ASSIGNMENT ( #166, #229, ( #308 ) ) ;
#60 = CARTESIAN_POINT ( 'NONE',  ( 0.000000000000000000, 0.000000000000000000, 0.000000000000000000 ) ) ;
#61 = VECTOR ( 'NONE', #3, 1000.000000000000000 ) ;
#62 = AXIS2_PLACEMENT_3D ( 'NONE', #173, #256, #208 ) ;
#63 = AXIS2_PLACEMENT_3D ( 'NONE', #305, #303, #158 ) ;
#64 = FACE_OUTER_BOUND ( 'NONE', #130, .T. ) ;
#65 = EDGE_CURVE ( 'NONE', #279, #319, #150, .T. ) ;
#66 = CARTESIAN_POINT ( 'NONE',  ( 0.000000000000000000, 0.000000000000000000, 655.0000000000000000 ) ) ;
#67 = CARTESIAN_POINT ( 'NONE',  ( 0.000000000000000000, 0.000000000000000000, 5.000000000000000000 ) ) ;
#68 = CIRCLE ( 'NONE', #350, 3.500000000000000444 ) ;
#69 = DIRECTION ( 'NONE',  ( 1.000000000000000000, 0.000000000000000000, 0.000000000000000000 ) ) ;
#70 = ORIENTED_EDGE ( 'NONE', *, *, #218, .F. ) ;
#71 = CARTESIAN_POINT ( 'NONE',  ( -3.000000000000000444, 0.000000000000000000, 655.0000000000000000 ) ) ;
#72 = ORIENTED_EDGE ( 'NONE', *, *, #128, .T. ) ;
#73 =( NAMED_UNIT ( * ) SI_UNIT ( $, .STERADIAN. ) SOLID_ANGLE_UNIT ( ) );
#74 = ORIENTED_EDGE ( 'NONE', *, *, #6, .F. ) ;
#75 = APPROVAL_ROLE ( '' ) ;
#76 = ORIENTED_EDGE ( 'NONE', *, *, #264, .F. ) ;
#77 = AXIS2_PLACEMENT_3D ( 'NONE', #67, #245, #357 ) ;
#78 = ADVANCED_FACE ( 'NONE', ( #142 ), #25, .T. ) ;
#79 = DATE_AND_TIME ( #51, #140 ) ;
#80 = ORIENTED_EDGE ( 'NONE', *, *, #264, .T. ) ;
#81 = APPROVAL_STATUS ( 'not_yet_approved' ) ;
#82 = ORIENTED_EDGE ( 'NONE', *, *, #276, .F. ) ;
#83 = PERSON_AND_ORGANIZATION_ROLE ( 'classification_officer' ) ;
#84 = ORIENTED_EDGE ( 'NONE', *, *, #213, .F. ) ;
#85 = CIRCLE ( 'NONE', #378, 1.750000000000000000 ) ;
#86 = ORIENTED_EDGE ( 'NONE', *, *, #134, .F. ) ;
#87 = CARTESIAN_POINT ( 'NONE',  ( 3.000000000000000444, 3.673940397442060361E-16, 655.0000000000000000 ) ) ;
#88 = CARTESIAN_POINT ( 'NONE',  ( 0.000000000000000000, 0.000000000000000000, 655.0000000000000000 ) ) ;
#89 = DIRECTION ( 'NONE',  ( -1.000000000000000000, 0.000000000000000000, 0.000000000000000000 ) ) ;
#90 = DIRECTION ( 'NONE',  ( -1.000000000000000000, 0.000000000000000000, 0.000000000000000000 ) ) ;
#91 = CIRCLE ( 'NONE', #215, 3.000000000000000444 ) ;
#92 = LINE ( 'NONE', #381, #16 ) ;
#93 = EDGE_CURVE ( 'NONE', #47, #103, #91, .T. ) ;
#94 = TOROIDAL_SURFACE ( 'NONE', #109, 3.500000000000000444, 0.5000000000000000000 ) ;
#95 = CARTESIAN_POINT ( 'NONE',  ( -3.500000000000000444, 4.286263797015737088E-16, 5.499999999999949374 ) ) ;
#96 = DIRECTION ( 'NONE',  ( 1.000000000000000000, 0.000000000000000000, 0.000000000000000000 ) ) ;
#97 = DIRECTION ( 'NONE',  ( -1.000000000000000000, 0.000000000000000000, 0.000000000000000000 ) ) ;
#98 = ORIENTED_EDGE ( 'NONE', *, *, #276, .T. ) ;
#99 = ADVANCED_FACE ( 'NONE', ( #296 ), #149, .T. ) ;
#100 = LOCAL_TIME ( 17, 37, 22.00000000000000000, #367 ) ;
#101 = CARTESIAN_POINT ( 'NONE',  ( 0.000000000000000000, 0.000000000000000000, 5.000000000000000000 ) ) ;
#102 = EDGE_LOOP ( 'NONE', ( #333, #98 ) ) ;
#103 = VERTEX_POINT ( 'NONE', #263 ) ;
#104 = APPROVAL_STATUS ( 'not_yet_approved' ) ;
#105 = CARTESIAN_POINT ( 'NONE',  ( 0.000000000000000000, 0.000000000000000000, 0.000000000000000000 ) ) ;
#106 = EDGE_CURVE ( 'NONE', #319, #279, #31, .T. ) ;
#107 = SECURITY_CLASSIFICATION_LEVEL ( 'unclassified' ) ;
#108 = VERTEX_POINT ( 'NONE', #266 ) ;
#109 = AXIS2_PLACEMENT_3D ( 'NONE', #261, #294, #216 ) ;
#110 = PERSON_AND_ORGANIZATION ( #286, #120 ) ;
#111 = PLANE ( 'NONE',  #270 ) ;
#112 = APPROVAL_DATE_TIME ( #20, #162 ) ;
#113 = EDGE_LOOP ( 'NONE', ( #127, #72, #368, #258 ) ) ;
#114 = DATE_AND_TIME ( #372, #22 ) ;
#115 = ORIENTED_EDGE ( 'NONE', *, *, #13, .T. ) ;
#116 = AXIS2_PLACEMENT_3D ( 'NONE', #14, #336, #269 ) ;
#117 = DIRECTION ( 'NONE',  ( -0.000000000000000000, -0.000000000000000000, -1.000000000000000000 ) ) ;
#118 = CYLINDRICAL_SURFACE ( 'NONE', #189, 1.750000000000000000 ) ;
#119 = CARTESIAN_POINT ( 'NONE',  ( 3.500000000000000444, 0.000000000000000000, 5.499999999999949374 ) ) ;
#120 = ORGANIZATION ( 'NEURÈENÝ', 'NEURÈENÝ', '' ) ;
#121 = DIRECTION ( 'NONE',  ( 1.000000000000000000, 0.000000000000000000, 0.000000000000000000 ) ) ;
#122 = EDGE_CURVE ( 'NONE', #202, #193, #352, .T. ) ;
#123 = CARTESIAN_POINT ( 'NONE',  ( 3.000000000000000444, 3.673940397442060361E-16, 655.0000000000000000 ) ) ;
#124 = CIRCLE ( 'NONE', #339, 0.5000000000000004441 ) ;
#125 = ORIENTED_EDGE ( 'NONE', *, *, #128, .F. ) ;
#126 = CARTESIAN_POINT ( 'NONE',  ( 6.000000000000000888, 7.347880794884120722E-16, 5.000000000000000000 ) ) ;
#127 = ORIENTED_EDGE ( 'NONE', *, *, #13, .F. ) ;
#128 = EDGE_CURVE ( 'NONE', #322, #319, #58, .T. ) ;
#129 = DIRECTION ( 'NONE',  ( 1.224646799147353207E-16, 1.000000000000000000, -0.000000000000000000 ) ) ;
#130 = EDGE_LOOP ( 'NONE', ( #200, #250, #76, #86 ) ) ;
#131 = CIRCLE ( 'NONE', #248, 1.750000000000000000 ) ;
#132 = FACE_OUTER_BOUND ( 'NONE', #102, .T. ) ;
#133 = EDGE_LOOP ( 'NONE', ( #167, #74, #311, #186 ) ) ;
#134 = EDGE_CURVE ( 'NONE', #103, #360, #124, .T. ) ;
#135 = PERSON_AND_ORGANIZATION ( #286, #120 ) ;
#136 = ORIENTED_EDGE ( 'NONE', *, *, #234, .F. ) ;
#137 = COORDINATED_UNIVERSAL_TIME_OFFSET ( 1, 0, .AHEAD. ) ;
#138 = VERTEX_POINT ( 'NONE', #214 ) ;
#139 = DIRECTION ( 'NONE',  ( 0.000000000000000000, 0.000000000000000000, 1.000000000000000000 ) ) ;
#140 = LOCAL_TIME ( 17, 37, 22.00000000000000000, #321 ) ;
#141 = PERSON_AND_ORGANIZATION_ROLE ( 'creator' ) ;
#142 = FACE_OUTER_BOUND ( 'NONE', #341, .T. ) ;
#143 = SHAPE_DEFINITION_REPRESENTATION ( #171, #205 ) ;
#144 = DIRECTION ( 'NONE',  ( 1.000000000000000000, 0.000000000000000000, -0.000000000000000000 ) ) ;
#145 = AXIS2_PLACEMENT_3D ( 'NONE', #356, #176, #211 ) ;
#146 = CYLINDRICAL_SURFACE ( 'NONE', #34, 1.750000000000000000 ) ;
#147 = ADVANCED_FACE ( 'NONE', ( #64 ), #177, .F. ) ;
#148 = DIRECTION ( 'NONE',  ( 0.000000000000000000, 0.000000000000000000, 1.000000000000000000 ) ) ;
#149 = CYLINDRICAL_SURFACE ( 'NONE', #145, 3.000000000000000444 ) ;
#150 = CIRCLE ( 'NONE', #318, 6.000000000000000888 ) ;
#151 = CARTESIAN_POINT ( 'NONE',  ( -1.750000000000000000, 0.000000000000000000, 655.0000000000000000 ) ) ;
#152 = CC_DESIGN_APPROVAL ( #162, ( #308 ) ) ;
#153 = CARTESIAN_POINT ( 'NONE',  ( 0.000000000000000000, 0.000000000000000000, 655.0000000000000000 ) ) ;
#154 = FACE_OUTER_BOUND ( 'NONE', #366, .T. ) ;
#155 = DIRECTION ( 'NONE',  ( 1.000000000000000000, 0.000000000000000000, 0.000000000000000000 ) ) ;
#156 = ORIENTED_EDGE ( 'NONE', *, *, #203, .T. ) ;
#157 =( GEOMETRIC_REPRESENTATION_CONTEXT ( 3 ) GLOBAL_UNCERTAINTY_ASSIGNED_CONTEXT ( ( #379 ) ) GLOBAL_UNIT_ASSIGNED_CONTEXT ( ( #8, #287, #73 ) ) REPRESENTATION_CONTEXT ( 'NONE', 'WORKASPACE' ) );
#158 = DIRECTION ( 'NONE',  ( 1.000000000000000000, 0.000000000000000000, 0.000000000000000000 ) ) ;
#159 = DIRECTION ( 'NONE',  ( 0.000000000000000000, 0.000000000000000000, 1.000000000000000000 ) ) ;
#160 = CYLINDRICAL_SURFACE ( 'NONE', #116, 6.000000000000000888 ) ;
#161 = CIRCLE ( 'NONE', #265, 6.000000000000000888 ) ;
#162 = APPROVAL ( #104, 'NEURÈENÝ' ) ;
#163 = CALENDAR_DATE ( 2022, 8, 7 ) ;
#164 = ORIENTED_EDGE ( 'NONE', *, *, #182, .T. ) ;
#165 = EDGE_LOOP ( 'NONE', ( #274, #207, #337, #197 ) ) ;
#166 = PERSON_AND_ORGANIZATION ( #286, #120 ) ;
#167 = ORIENTED_EDGE ( 'NONE', *, *, #334, .F. ) ;
#168 = APPROVAL_ROLE ( '' ) ;
#169 = LOCAL_TIME ( 17, 37, 22.00000000000000000, #137 ) ;
#170 = ORIENTED_EDGE ( 'NONE', *, *, #122, .T. ) ;
#171 = PRODUCT_DEFINITION_SHAPE ( 'NONE', 'NONE',  #308 ) ;
#172 = APPROVAL_STATUS ( 'not_yet_approved' ) ;
#173 = CARTESIAN_POINT ( 'NONE',  ( 0.000000000000000000, 0.000000000000000000, 5.499999999999949374 ) ) ;
#174 = EDGE_LOOP ( 'NONE', ( #349, #284 ) ) ;
#175 = ADVANCED_FACE ( 'NONE', ( #328 ), #118, .F. ) ;
#176 = DIRECTION ( 'NONE',  ( -0.000000000000000000, -0.000000000000000000, -1.000000000000000000 ) ) ;
#177 = TOROIDAL_SURFACE ( 'NONE', #9, 3.500000000000000444, 0.5000000000000000000 ) ;
#178 = CC_DESIGN_APPROVAL ( #338, ( #342 ) ) ;
#179 = DIRECTION ( 'NONE',  ( 1.000000000000000000, 0.000000000000000000, 0.000000000000000000 ) ) ;
#180 = AXIS2_PLACEMENT_3D ( 'NONE', #230, #346, #288 ) ;
#181 = DIRECTION ( 'NONE',  ( 0.000000000000000000, 0.000000000000000000, -1.000000000000000000 ) ) ;
#182 = EDGE_CURVE ( 'NONE', #304, #322, #254, .T. ) ;
#183 = CIRCLE ( 'NONE', #307, 1.750000000000000000 ) ;
#184 = DIRECTION ( 'NONE',  ( 1.000000000000000000, 0.000000000000000000, -0.000000000000000000 ) ) ;
#185 = PLANE ( 'NONE',  #293 ) ;
#186 = ORIENTED_EDGE ( 'NONE', *, *, #364, .F. ) ;
#187 = CARTESIAN_POINT ( 'NONE',  ( -6.000000000000000888, 0.000000000000000000, 5.000000000000000000 ) ) ;
#188 = MANIFOLD_SOLID_BREP ( 'Odebrat vysunutím3', #348 ) ;
#189 = AXIS2_PLACEMENT_3D ( 'NONE', #88, #292, #89 ) ;
#190 = CIRCLE ( 'NONE', #4, 3.000000000000000444 ) ;
#191 = CARTESIAN_POINT ( 'NONE',  ( 0.000000000000000000, 0.000000000000000000, 0.000000000000000000 ) ) ;
#192 = FACE_OUTER_BOUND ( 'NONE', #235, .T. ) ;
#193 = VERTEX_POINT ( 'NONE', #330 ) ;
#194 = ADVANCED_FACE ( 'NONE', ( #297 ), #146, .F. ) ;
#195 = AXIS2_PLACEMENT_3D ( 'NONE', #60, #327, #353 ) ;
#196 = MECHANICAL_CONTEXT ( 'NONE', #55, 'mechanical' ) ;
#197 = ORIENTED_EDGE ( 'NONE', *, *, #122, .F. ) ;
#198 = AXIS2_PLACEMENT_3D ( 'NONE', #95, #129, #302 ) ;
#199 = CALENDAR_DATE ( 2022, 8, 7 ) ;
#200 = ORIENTED_EDGE ( 'NONE', *, *, #93, .F. ) ;
#201 = DATE_TIME_ROLE ( 'classification_date' ) ;
#202 = VERTEX_POINT ( 'NONE', #151 ) ;
#203 = EDGE_CURVE ( 'NONE', #193, #138, #131, .T. ) ;
#204 = CARTESIAN_POINT ( 'NONE',  ( 0.000000000000000000, 0.000000000000000000, 5.499999999999949374 ) ) ;
#205 = ADVANCED_BREP_SHAPE_REPRESENTATION ( 'a6b5', ( #188, #50 ), #157 ) ;
#206 = PERSON_AND_ORGANIZATION ( #286, #120 ) ;
#207 = ORIENTED_EDGE ( 'NONE', *, *, #213, .T. ) ;
#208 = DIRECTION ( 'NONE',  ( 1.000000000000000000, 0.000000000000000000, 0.000000000000000000 ) ) ;
#209 = ADVANCED_FACE ( 'NONE', ( #355 ), #94, .F. ) ;
#210 = DIRECTION ( 'NONE',  ( -0.000000000000000000, -0.000000000000000000, -1.000000000000000000 ) ) ;
#211 = DIRECTION ( 'NONE',  ( -1.000000000000000000, 0.000000000000000000, 0.000000000000000000 ) ) ;
#212 = CARTESIAN_POINT ( 'NONE',  ( 0.000000000000000000, 0.000000000000000000, 5.000000000000000000 ) ) ;
#213 = EDGE_CURVE ( 'NONE', #227, #138, #299, .T. ) ;
#214 = CARTESIAN_POINT ( 'NONE',  ( 1.750000000000000000, 2.143131898507868297E-16, 0.000000000000000000 ) ) ;
#215 = AXIS2_PLACEMENT_3D ( 'NONE', #204, #259, #377 ) ;
#216 = DIRECTION ( 'NONE',  ( 1.000000000000000000, 0.000000000000000000, 0.000000000000000000 ) ) ;
#217 = APPROVAL_PERSON_ORGANIZATION ( #110, #162, #75 ) ;
#218 = EDGE_CURVE ( 'NONE', #227, #202, #85, .T. ) ;
#219 = DIRECTION ( 'NONE',  ( -0.000000000000000000, -0.000000000000000000, -1.000000000000000000 ) ) ;
#220 = VERTEX_POINT ( 'NONE', #123 ) ;
#221 = CARTESIAN_POINT ( 'NONE',  ( 0.000000000000000000, 0.000000000000000000, 5.000000000000000000 ) ) ;
#222 = DIRECTION ( 'NONE',  ( 0.000000000000000000, 0.000000000000000000, 1.000000000000000000 ) ) ;
#223 = ORIENTED_EDGE ( 'NONE', *, *, #234, .T. ) ;
#224 = DATE_TIME_ROLE ( 'creation_date' ) ;
#225 = ORIENTED_EDGE ( 'NONE', *, *, #301, .F. ) ;
#226 = PERSON_AND_ORGANIZATION ( #286, #120 ) ;
#227 = VERTEX_POINT ( 'NONE', #241 ) ;
#228 = EDGE_CURVE ( 'NONE', #373, #47, #92, .T. ) ;
#229 = PERSON_AND_ORGANIZATION_ROLE ( 'creator' ) ;
#230 = CARTESIAN_POINT ( 'NONE',  ( 0.000000000000000000, 0.000000000000000000, 655.0000000000000000 ) ) ;
#231 = PRODUCT ( 'a6b5', 'a6b5', '', ( #196 ) ) ;
#232 = ORIENTED_EDGE ( 'NONE', *, *, #182, .F. ) ;
#233 = CIRCLE ( 'NONE', #63, 1.750000000000000000 ) ;
#234 = EDGE_CURVE ( 'NONE', #220, #103, #236, .T. ) ;
#235 = EDGE_LOOP ( 'NONE', ( #125, #232, #324, #278 ) ) ;
#236 = LINE ( 'NONE', #87, #238 ) ;
#237 = DIRECTION ( 'NONE',  ( 0.000000000000000000, -1.000000000000000000, 0.000000000000000000 ) ) ;
#238 = VECTOR ( 'NONE', #210, 1000.000000000000000 ) ;
#239 = APPROVAL ( #81, 'NEURÈENÝ' ) ;
#240 = DIRECTION ( 'NONE',  ( 0.000000000000000000, 0.000000000000000000, 1.000000000000000000 ) ) ;
#241 = CARTESIAN_POINT ( 'NONE',  ( 1.750000000000000000, 2.143131898507868297E-16, 655.0000000000000000 ) ) ;
#242 = DIRECTION ( 'NONE',  ( -0.000000000000000000, -0.000000000000000000, -1.000000000000000000 ) ) ;
#243 = CIRCLE ( 'NONE', #358, 3.500000000000000444 ) ;
#244 = CARTESIAN_POINT ( 'NONE',  ( -6.000000000000000888, 0.000000000000000000, 0.000000000000000000 ) ) ;
#245 = DIRECTION ( 'NONE',  ( 0.000000000000000000, 0.000000000000000000, 1.000000000000000000 ) ) ;
#246 = APPLICATION_CONTEXT ( 'configuration controlled 3d designs of mechanical parts and assemblies' ) ;
#247 = CARTESIAN_POINT ( 'NONE',  ( 3.500000000000000444, 0.000000000000000000, 4.999999999999975131 ) ) ;
#248 = AXIS2_PLACEMENT_3D ( 'NONE', #5, #29, #121 ) ;
#249 = CARTESIAN_POINT ( 'NONE',  ( 0.000000000000000000, 0.000000000000000000, 655.0000000000000000 ) ) ;
#250 = ORIENTED_EDGE ( 'NONE', *, *, #334, .T. ) ;
#251 = CARTESIAN_POINT ( 'NONE',  ( 0.000000000000000000, 0.000000000000000000, 0.000000000000000000 ) ) ;
#252 = DIRECTION ( 'NONE',  ( 0.000000000000000000, 0.000000000000000000, 1.000000000000000000 ) ) ;
#253 = CC_DESIGN_DATE_AND_TIME_ASSIGNMENT ( #79, #201, ( #342 ) ) ;
#254 = CIRCLE ( 'NONE', #306, 6.000000000000000888 ) ;
#255 = PERSON_AND_ORGANIZATION ( #286, #120 ) ;
#256 = DIRECTION ( 'NONE',  ( 0.000000000000000000, 0.000000000000000000, 1.000000000000000000 ) ) ;
#257 = DATE_AND_TIME ( #345, #100 ) ;
#258 = ORIENTED_EDGE ( 'NONE', *, *, #280, .F. ) ;
#259 = DIRECTION ( 'NONE',  ( 0.000000000000000000, 0.000000000000000000, 1.000000000000000000 ) ) ;
#260 = LOCAL_TIME ( 17, 37, 22.00000000000000000, #340 ) ;
#261 = CARTESIAN_POINT ( 'NONE',  ( 0.000000000000000000, 0.000000000000000000, 5.499999999999949374 ) ) ;
#262 = DIRECTION ( 'NONE',  ( 1.000000000000000000, 0.000000000000000000, 0.000000000000000000 ) ) ;
#263 = CARTESIAN_POINT ( 'NONE',  ( 3.000000000000000444, 3.673940397442060361E-16, 5.499999999999949374 ) ) ;
#264 = EDGE_CURVE ( 'NONE', #360, #108, #68, .T. ) ;
#265 = AXIS2_PLACEMENT_3D ( 'NONE', #21, #290, #23 ) ;
#266 = CARTESIAN_POINT ( 'NONE',  ( -3.500000000000000444, 4.286263797015737088E-16, 4.999999999999975131 ) ) ;
#267 = CC_DESIGN_SECURITY_CLASSIFICATION ( #342, ( #43 ) ) ;
#268 = DIRECTION ( 'NONE',  ( 0.000000000000000000, 0.000000000000000000, 1.000000000000000000 ) ) ;
#269 = DIRECTION ( 'NONE',  ( -1.000000000000000000, 0.000000000000000000, 0.000000000000000000 ) ) ;
#270 = AXIS2_PLACEMENT_3D ( 'NONE', #251, #252, #144 ) ;
#271 = CARTESIAN_POINT ( 'NONE',  ( -6.000000000000000888, 0.000000000000000000, 5.000000000000000000 ) ) ;
#272 = VECTOR ( 'NONE', #242, 1000.000000000000000 ) ;
#273 = LINE ( 'NONE', #271, #272 ) ;
#274 = ORIENTED_EDGE ( 'NONE', *, *, #313, .T. ) ;
#275 = DIRECTION ( 'NONE',  ( -0.000000000000000000, -0.000000000000000000, -1.000000000000000000 ) ) ;
#276 = EDGE_CURVE ( 'NONE', #220, #373, #312, .T. ) ;
#277 = FACE_BOUND ( 'NONE', #310, .T. ) ;
#278 = ORIENTED_EDGE ( 'NONE', *, *, #65, .T. ) ;
#279 = VERTEX_POINT ( 'NONE', #244 ) ;
#280 = EDGE_CURVE ( 'NONE', #304, #279, #273, .T. ) ;
#281 = PERSON_AND_ORGANIZATION_ROLE ( 'design_owner' ) ;
#282 = FACE_OUTER_BOUND ( 'NONE', #351, .T. ) ;
#283 = APPLICATION_PROTOCOL_DEFINITION ( 'international standard', 'config_control_design', 1994, #246 ) ;
#284 = ORIENTED_EDGE ( 'NONE', *, *, #291, .F. ) ;
#285 = CIRCLE ( 'NONE', #198, 0.4999999999999995559 ) ;
#286 = PERSON ( 'NEURÈENÝ', 'NEURÈENÝ', 'NEURÈENÝ', ('NEURÈENÝ'), ('NEURÈENÝ'), ('NEURÈENÝ') ) ;
#287 =( NAMED_UNIT ( * ) PLANE_ANGLE_UNIT ( ) SI_UNIT ( $, .RADIAN. ) );
#288 = DIRECTION ( 'NONE',  ( -1.000000000000000000, 0.000000000000000000, 0.000000000000000000 ) ) ;
#289 = DIRECTION ( 'NONE',  ( 0.000000000000000000, 0.000000000000000000, 1.000000000000000000 ) ) ;
#290 = DIRECTION ( 'NONE',  ( 0.000000000000000000, 0.000000000000000000, 1.000000000000000000 ) ) ;
#291 = EDGE_CURVE ( 'NONE', #138, #193, #183, .T. ) ;
#292 = DIRECTION ( 'NONE',  ( 0.000000000000000000, 0.000000000000000000, -1.000000000000000000 ) ) ;
#293 = AXIS2_PLACEMENT_3D ( 'NONE', #249, #365, #184 ) ;
#294 = DIRECTION ( 'NONE',  ( 0.000000000000000000, 0.000000000000000000, 1.000000000000000000 ) ) ;
#295 = ADVANCED_FACE ( 'NONE', ( #359, #154 ), #40, .T. ) ;
#296 = FACE_OUTER_BOUND ( 'NONE', #19, .T. ) ;
#297 = FACE_OUTER_BOUND ( 'NONE', #165, .T. ) ;
#298 = VECTOR ( 'NONE', #7, 1000.000000000000000 ) ;
#299 = LINE ( 'NONE', #35, #300 ) ;
#300 = VECTOR ( 'NONE', #27, 1000.000000000000000 ) ;
#301 = EDGE_CURVE ( 'NONE', #373, #220, #190, .T. ) ;
#302 = DIRECTION ( 'NONE',  ( -1.000000000000000000, 1.224646799147354440E-16, 0.000000000000000000 ) ) ;
#303 = DIRECTION ( 'NONE',  ( 0.000000000000000000, 0.000000000000000000, 1.000000000000000000 ) ) ;
#304 = VERTEX_POINT ( 'NONE', #187 ) ;
#305 = CARTESIAN_POINT ( 'NONE',  ( 0.000000000000000000, 0.000000000000000000, 655.0000000000000000 ) ) ;
#306 = AXIS2_PLACEMENT_3D ( 'NONE', #212, #148, #179 ) ;
#307 = AXIS2_PLACEMENT_3D ( 'NONE', #191, #275, #96 ) ;
#308 = PRODUCT_DEFINITION ( 'NEZNÁMÝ', '', #43, #1 ) ;
#309 = DIRECTION ( 'NONE',  ( -0.000000000000000000, -0.000000000000000000, -1.000000000000000000 ) ) ;
#310 = EDGE_LOOP ( 'NONE', ( #317, #70 ) ) ;
#311 = ORIENTED_EDGE ( 'NONE', *, *, #134, .T. ) ;
#312 = CIRCLE ( 'NONE', #57, 3.000000000000000444 ) ;
#313 = EDGE_CURVE ( 'NONE', #202, #227, #233, .T. ) ;
#314 = DATE_AND_TIME ( #199, #260 ) ;
#315 = EDGE_LOOP ( 'NONE', ( #84, #52, #170, #156 ) ) ;
#316 = APPROVAL_ROLE ( '' ) ;
#317 = ORIENTED_EDGE ( 'NONE', *, *, #313, .F. ) ;
#318 = AXIS2_PLACEMENT_3D ( 'NONE', #105, #139, #370 ) ;
#319 = VERTEX_POINT ( 'NONE', #38 ) ;
#320 = APPROVAL_PERSON_ORGANIZATION ( #255, #338, #316 ) ;
#321 = COORDINATED_UNIVERSAL_TIME_OFFSET ( 1, 0, .AHEAD. ) ;
#322 = VERTEX_POINT ( 'NONE', #126 ) ;
#323 = CC_DESIGN_DATE_AND_TIME_ASSIGNMENT ( #257, #224, ( #308 ) ) ;
#324 = ORIENTED_EDGE ( 'NONE', *, *, #280, .T. ) ;
#325 = CARTESIAN_POINT ( 'NONE',  ( -1.750000000000000000, 0.000000000000000000, 655.0000000000000000 ) ) ;
#326 = CC_DESIGN_PERSON_AND_ORGANIZATION_ASSIGNMENT ( #226, #83, ( #342 ) ) ;
#327 = DIRECTION ( 'NONE',  ( 0.000000000000000000, 0.000000000000000000, 1.000000000000000000 ) ) ;
#328 = FACE_OUTER_BOUND ( 'NONE', #315, .T. ) ;
#329 = ADVANCED_FACE ( 'NONE', ( #361 ), #11, .T. ) ;
#330 = CARTESIAN_POINT ( 'NONE',  ( -1.750000000000000000, 0.000000000000000000, 0.000000000000000000 ) ) ;
#331 = AXIS2_PLACEMENT_3D ( 'NONE', #221, #219, #97 ) ;
#332 = DIRECTION ( 'NONE',  ( -0.000000000000000000, -0.000000000000000000, -1.000000000000000000 ) ) ;
#333 = ORIENTED_EDGE ( 'NONE', *, *, #301, .T. ) ;
#334 = EDGE_CURVE ( 'NONE', #47, #108, #285, .T. ) ;
#335 = DIRECTION ( 'NONE',  ( 1.000000000000000000, 0.000000000000000000, 0.000000000000000000 ) ) ;
#336 = DIRECTION ( 'NONE',  ( -0.000000000000000000, -0.000000000000000000, -1.000000000000000000 ) ) ;
#337 = ORIENTED_EDGE ( 'NONE', *, *, #291, .T. ) ;
#338 = APPROVAL ( #172, 'NEURÈENÝ' ) ;
#339 = AXIS2_PLACEMENT_3D ( 'NONE', #119, #237, #181 ) ;
#340 = COORDINATED_UNIVERSAL_TIME_OFFSET ( 1, 0, .AHEAD. ) ;
#341 = EDGE_LOOP ( 'NONE', ( #82, #223, #15, #45 ) ) ;
#342 = SECURITY_CLASSIFICATION ( '', '', #107 ) ;
#343 = APPROVAL_DATE_TIME ( #314, #239 ) ;
#344 = ORIENTED_EDGE ( 'NONE', *, *, #106, .F. ) ;
#345 = CALENDAR_DATE ( 2022, 8, 7 ) ;
#346 = DIRECTION ( 'NONE',  ( -0.000000000000000000, -0.000000000000000000, -1.000000000000000000 ) ) ;
#347 = APPLICATION_PROTOCOL_DEFINITION ( 'international standard', 'config_control_design', 1994, #55 ) ;
#348 = CLOSED_SHELL ( 'NONE', ( #194, #147, #78, #329, #374, #295, #53, #99, #380, #209, #175 ) ) ;
#349 = ORIENTED_EDGE ( 'NONE', *, *, #203, .F. ) ;
#350 = AXIS2_PLACEMENT_3D ( 'NONE', #39, #332, #363 ) ;
#351 = EDGE_LOOP ( 'NONE', ( #37, #344 ) ) ;
#352 = LINE ( 'NONE', #325, #298 ) ;
#353 = DIRECTION ( 'NONE',  ( 1.000000000000000000, 0.000000000000000000, 0.000000000000000000 ) ) ;
#354 = CARTESIAN_POINT ( 'NONE',  ( 0.000000000000000000, 0.000000000000000000, 5.499999999999949374 ) ) ;
#355 = FACE_OUTER_BOUND ( 'NONE', #133, .T. ) ;
#356 = CARTESIAN_POINT ( 'NONE',  ( 0.000000000000000000, 0.000000000000000000, 655.0000000000000000 ) ) ;
#357 = DIRECTION ( 'NONE',  ( 1.000000000000000000, 0.000000000000000000, -0.000000000000000000 ) ) ;
#358 = AXIS2_PLACEMENT_3D ( 'NONE', #101, #309, #335 ) ;
#359 = FACE_BOUND ( 'NONE', #362, .T. ) ;
#360 = VERTEX_POINT ( 'NONE', #247 ) ;
#361 = FACE_OUTER_BOUND ( 'NONE', #113, .T. ) ;
#362 = EDGE_LOOP ( 'NONE', ( #80, #54 ) ) ;
#363 = DIRECTION ( 'NONE',  ( 1.000000000000000000, 0.000000000000000000, 0.000000000000000000 ) ) ;
#364 = EDGE_CURVE ( 'NONE', #108, #360, #243, .T. ) ;
#365 = DIRECTION ( 'NONE',  ( 0.000000000000000000, 0.000000000000000000, 1.000000000000000000 ) ) ;
#366 = EDGE_LOOP ( 'NONE', ( #164, #115 ) ) ;
#367 = COORDINATED_UNIVERSAL_TIME_OFFSET ( 1, 0, .AHEAD. ) ;
#368 = ORIENTED_EDGE ( 'NONE', *, *, #106, .T. ) ;
#369 = PERSON_AND_ORGANIZATION_ROLE ( 'design_supplier' ) ;
#370 = DIRECTION ( 'NONE',  ( 1.000000000000000000, 0.000000000000000000, 0.000000000000000000 ) ) ;
#371 = APPROVAL_PERSON_ORGANIZATION ( #48, #239, #168 ) ;
#372 = CALENDAR_DATE ( 2022, 8, 7 ) ;
#373 = VERTEX_POINT ( 'NONE', #71 ) ;
#374 = ADVANCED_FACE ( 'NONE', ( #192 ), #160, .T. ) ;
#375 = ORIENTED_EDGE ( 'NONE', *, *, #93, .T. ) ;
#376 = DIRECTION ( 'NONE',  ( 1.000000000000000000, 0.000000000000000000, 0.000000000000000000 ) ) ;
#377 = DIRECTION ( 'NONE',  ( 1.000000000000000000, 0.000000000000000000, 0.000000000000000000 ) ) ;
#378 = AXIS2_PLACEMENT_3D ( 'NONE', #153, #268, #262 ) ;
#379 = UNCERTAINTY_MEASURE_WITH_UNIT (LENGTH_MEASURE( 1.000000000000000082E-05 ), #8, 'distance_accuracy_value', 'NONE');
#380 = ADVANCED_FACE ( 'NONE', ( #277, #132 ), #185, .T. ) ;
#381 = CARTESIAN_POINT ( 'NONE',  ( -3.000000000000000444, 0.000000000000000000, 655.0000000000000000 ) ) ;
ENDSEC;
END-ISO-10303-21;
