ISO-10303-21;
HEADER;
FILE_DESCRIPTION (( 'STEP AP203' ),
    '1' );
FILE_NAME ('a2ac.STEP',
    '2022-07-08T15:13:46',
    ( '' ),
    ( '' ),
    'SwSTEP 2.0',
    'SolidWorks 2019',
    '' );
FILE_SCHEMA (( 'CONFIG_CONTROL_DESIGN' ));
ENDSEC;

DATA;
#1 = CIRCLE ( 'NONE', #314, 2.500000000000000000 ) ;
#2 = SECURITY_CLASSIFICATION ( '', '', #346 ) ;
#3 = DIRECTION ( 'NONE',  ( 1.000000000000000000, 0.000000000000000000, 0.000000000000000000 ) ) ;
#4 = CARTESIAN_POINT ( 'NONE',  ( 10.00000000000000000, 1.224646799147353256E-15, 7.000000000000000000 ) ) ;
#5 = ORIENTED_EDGE ( 'NONE', *, *, #136, .T. ) ;
#6 = CARTESIAN_POINT ( 'NONE',  ( 6.000000000000000888, 7.347880794884120722E-16, 7.500000000000007105 ) ) ;
#7 = CIRCLE ( 'NONE', #226, 6.000000000000000888 ) ;
#8 = CC_DESIGN_APPROVAL ( #142, ( #2 ) ) ;
#9 = LINE ( 'NONE', #324, #345 ) ;
#10 = ADVANCED_FACE ( 'NONE', ( #219 ), #170, .T. ) ;
#11 = ORIENTED_EDGE ( 'NONE', *, *, #327, .T. ) ;
#12 = CALENDAR_DATE ( 2022, 8, 7 ) ;
#13 = VERTEX_POINT ( 'NONE', #288 ) ;
#14 = SHAPE_DEFINITION_REPRESENTATION ( #339, #141 ) ;
#15 = EDGE_LOOP ( 'NONE', ( #326, #256, #171, #272 ) ) ;
#16 = COORDINATED_UNIVERSAL_TIME_OFFSET ( 1, 0, .AHEAD. ) ;
#17 = APPROVAL ( #133, 'NEURÈENÝ' ) ;
#18 = EDGE_LOOP ( 'NONE', ( #151, #48 ) ) ;
#19 = DATE_TIME_ROLE ( 'creation_date' ) ;
#20 = CC_DESIGN_DATE_AND_TIME_ASSIGNMENT ( #307, #333, ( #2 ) ) ;
#21 = ORIENTED_EDGE ( 'NONE', *, *, #312, .T. ) ;
#22 = DIRECTION ( 'NONE',  ( -0.000000000000000000, -0.000000000000000000, -1.000000000000000000 ) ) ;
#23 = EDGE_CURVE ( 'NONE', #253, #258, #230, .T. ) ;
#24 = AXIS2_PLACEMENT_3D ( 'NONE', #92, #180, #26 ) ;
#25 = EDGE_CURVE ( 'NONE', #251, #286, #222, .T. ) ;
#26 = DIRECTION ( 'NONE',  ( 1.000000000000000000, 0.000000000000000000, 0.000000000000000000 ) ) ;
#27 = EDGE_CURVE ( 'NONE', #338, #251, #255, .T. ) ;
#28 = TOROIDAL_SURFACE ( 'NONE', #150, 6.500000000000000888, 0.5000000000000000000 ) ;
#29 = LOCAL_TIME ( 17, 13, 46.00000000000000000, #372 ) ;
#30 = DIRECTION ( 'NONE',  ( 0.000000000000000000, 0.000000000000000000, 1.000000000000000000 ) ) ;
#31 = CARTESIAN_POINT ( 'NONE',  ( -2.500000000000000000, 0.000000000000000000, 0.000000000000000000 ) ) ;
#32 = CARTESIAN_POINT ( 'NONE',  ( 0.000000000000000000, 0.000000000000000000, 107.0000000000000142 ) ) ;
#33 = AXIS2_PLACEMENT_3D ( 'NONE', #32, #149, #98 ) ;
#34 = FACE_OUTER_BOUND ( 'NONE', #101, .T. ) ;
#35 = CARTESIAN_POINT ( 'NONE',  ( 0.000000000000000000, 0.000000000000000000, 107.0000000000000142 ) ) ;
#36 = EDGE_CURVE ( 'NONE', #286, #242, #340, .T. ) ;
#37 = VERTEX_POINT ( 'NONE', #78 ) ;
#38 =( NAMED_UNIT ( * ) PLANE_ANGLE_UNIT ( ) SI_UNIT ( $, .RADIAN. ) );
#39 = UNCERTAINTY_MEASURE_WITH_UNIT (LENGTH_MEASURE( 1.000000000000000082E-05 ), #66, 'distance_accuracy_value', 'NONE');
#40 = EDGE_CURVE ( 'NONE', #13, #168, #175, .T. ) ;
#41 = EDGE_LOOP ( 'NONE', ( #192, #107 ) ) ;
#42 = DIRECTION ( 'NONE',  ( -1.000000000000000000, 0.000000000000000000, 0.000000000000000000 ) ) ;
#43 = ORIENTED_EDGE ( 'NONE', *, *, #246, .F. ) ;
#44 = APPROVAL_ROLE ( '' ) ;
#45 = ORIENTED_EDGE ( 'NONE', *, *, #166, .F. ) ;
#46 = AXIS2_PLACEMENT_3D ( 'NONE', #117, #353, #179 ) ;
#47 = PERSON_AND_ORGANIZATION ( #51, #54 ) ;
#48 = ORIENTED_EDGE ( 'NONE', *, *, #327, .F. ) ;
#49 = APPLICATION_PROTOCOL_DEFINITION ( 'international standard', 'config_control_design', 1994, #67 ) ;
#50 = EDGE_LOOP ( 'NONE', ( #362, #111, #103, #139 ) ) ;
#51 = PERSON ( 'NEURÈENÝ', 'NEURÈENÝ', 'NEURÈENÝ', ('NEURÈENÝ'), ('NEURÈENÝ'), ('NEURÈENÝ') ) ;
#52 = CIRCLE ( 'NONE', #244, 6.500000000000000888 ) ;
#53 = CARTESIAN_POINT ( 'NONE',  ( 0.000000000000000000, 0.000000000000000000, 0.000000000000000000 ) ) ;
#54 = ORGANIZATION ( 'NEURÈENÝ', 'NEURÈENÝ', '' ) ;
#55 = ADVANCED_FACE ( 'NONE', ( #206, #86 ), #119, .F. ) ;
#56 = CYLINDRICAL_SURFACE ( 'NONE', #87, 10.00000000000000000 ) ;
#57 = CLOSED_SHELL ( 'NONE', ( #137, #68, #228, #99, #10, #177, #55, #334, #322, #198, #265 ) ) ;
#58 = DIRECTION ( 'NONE',  ( 0.000000000000000000, 0.000000000000000000, 1.000000000000000000 ) ) ;
#59 = FACE_OUTER_BOUND ( 'NONE', #15, .T. ) ;
#60 = CIRCLE ( 'NONE', #273, 6.000000000000000888 ) ;
#61 = CARTESIAN_POINT ( 'NONE',  ( 2.500000000000000000, 3.061616997868382648E-16, 107.0000000000000142 ) ) ;
#62 = CARTESIAN_POINT ( 'NONE',  ( -2.500000000000000000, 0.000000000000000000, 107.0000000000000142 ) ) ;
#63 = DIRECTION ( 'NONE',  ( 0.000000000000000000, 0.000000000000000000, -1.000000000000000000 ) ) ;
#64 = APPROVAL_PERSON_ORGANIZATION ( #108, #142, #44 ) ;
#65 = CC_DESIGN_PERSON_AND_ORGANIZATION_ASSIGNMENT ( #254, #252, ( #325 ) ) ;
#66 =( LENGTH_UNIT ( ) NAMED_UNIT ( * ) SI_UNIT ( .MILLI., .METRE. ) );
#67 = APPLICATION_CONTEXT ( 'configuration controlled 3d designs of mechanical parts and assemblies' ) ;
#68 = ADVANCED_FACE ( 'NONE', ( #91 ), #186, .F. ) ;
#69 = DIRECTION ( 'NONE',  ( 0.000000000000000000, 0.000000000000000000, 1.000000000000000000 ) ) ;
#70 = DIRECTION ( 'NONE',  ( 1.000000000000000000, 0.000000000000000000, 0.000000000000000000 ) ) ;
#71 = ORIENTED_EDGE ( 'NONE', *, *, #205, .F. ) ;
#72 = VECTOR ( 'NONE', #63, 1000.000000000000000 ) ;
#73 = VECTOR ( 'NONE', #211, 1000.000000000000000 ) ;
#74 = PERSON_AND_ORGANIZATION ( #51, #54 ) ;
#75 = DIRECTION ( 'NONE',  ( -0.000000000000000000, -0.000000000000000000, -1.000000000000000000 ) ) ;
#76 = ORIENTED_EDGE ( 'NONE', *, *, #173, .F. ) ;
#77 = DATE_AND_TIME ( #12, #261 ) ;
#78 = CARTESIAN_POINT ( 'NONE',  ( 6.000000000000000888, 7.347880794884120722E-16, 107.0000000000000142 ) ) ;
#79 = AXIS2_PLACEMENT_3D ( 'NONE', #172, #291, #148 ) ;
#80 = CC_DESIGN_PERSON_AND_ORGANIZATION_ASSIGNMENT ( #113, #221, ( #105 ) ) ;
#81 = ORIENTED_EDGE ( 'NONE', *, *, #234, .F. ) ;
#82 = DIRECTION ( 'NONE',  ( 1.000000000000000000, 0.000000000000000000, 0.000000000000000000 ) ) ;
#83 = ORIENTED_EDGE ( 'NONE', *, *, #40, .T. ) ;
#84 = COORDINATED_UNIVERSAL_TIME_OFFSET ( 1, 0, .AHEAD. ) ;
#85 = DIRECTION ( 'NONE',  ( 0.000000000000000000, 0.000000000000000000, 1.000000000000000000 ) ) ;
#86 = FACE_OUTER_BOUND ( 'NONE', #330, .T. ) ;
#87 = AXIS2_PLACEMENT_3D ( 'NONE', #145, #22, #88 ) ;
#88 = DIRECTION ( 'NONE',  ( -1.000000000000000000, 0.000000000000000000, 0.000000000000000000 ) ) ;
#89 = DIRECTION ( 'NONE',  ( 0.000000000000000000, 0.000000000000000000, -1.000000000000000000 ) ) ;
#90 = CC_DESIGN_DATE_AND_TIME_ASSIGNMENT ( #104, #19, ( #105 ) ) ;
#91 = FACE_OUTER_BOUND ( 'NONE', #134, .T. ) ;
#92 = CARTESIAN_POINT ( 'NONE',  ( 0.000000000000000000, 0.000000000000000000, 7.500000000000007105 ) ) ;
#93 = DIRECTION ( 'NONE',  ( -0.000000000000000000, -0.000000000000000000, -1.000000000000000000 ) ) ;
#94 = DIRECTION ( 'NONE',  ( 0.000000000000000000, 0.000000000000000000, 1.000000000000000000 ) ) ;
#95 = EDGE_CURVE ( 'NONE', #242, #286, #236, .T. ) ;
#96 = FACE_BOUND ( 'NONE', #18, .T. ) ;
#97 = EDGE_CURVE ( 'NONE', #37, #253, #318, .T. ) ;
#98 = DIRECTION ( 'NONE',  ( 1.000000000000000000, 0.000000000000000000, 0.000000000000000000 ) ) ;
#99 = ADVANCED_FACE ( 'NONE', ( #59 ), #56, .T. ) ;
#100 = CARTESIAN_POINT ( 'NONE',  ( -6.000000000000000888, 0.000000000000000000, 7.500000000000007105 ) ) ;
#101 = EDGE_LOOP ( 'NONE', ( #248, #220, #5, #129 ) ) ;
#102 = PERSON_AND_ORGANIZATION ( #51, #54 ) ;
#103 = ORIENTED_EDGE ( 'NONE', *, *, #380, .T. ) ;
#104 = DATE_AND_TIME ( #159, #183 ) ;
#105 = PRODUCT_DEFINITION ( 'NEZNÁMÝ', '', #325, #216 ) ;
#106 = ORIENTED_EDGE ( 'NONE', *, *, #249, .T. ) ;
#107 = ORIENTED_EDGE ( 'NONE', *, *, #173, .T. ) ;
#108 = PERSON_AND_ORGANIZATION ( #51, #54 ) ;
#109 = CARTESIAN_POINT ( 'NONE',  ( 6.500000000000000888, 0.000000000000000000, 7.500000000000007105 ) ) ;
#110 = AXIS2_PLACEMENT_3D ( 'NONE', #53, #350, #143 ) ;
#111 = ORIENTED_EDGE ( 'NONE', *, *, #249, .F. ) ;
#112 = AXIS2_PLACEMENT_3D ( 'NONE', #271, #329, #356 ) ;
#113 = PERSON_AND_ORGANIZATION ( #51, #54 ) ;
#114 = CARTESIAN_POINT ( 'NONE',  ( 0.000000000000000000, 0.000000000000000000, 7.000000000000000000 ) ) ;
#115 = FACE_BOUND ( 'NONE', #41, .T. ) ;
#116 = AXIS2_PLACEMENT_3D ( 'NONE', #337, #85, #191 ) ;
#117 = CARTESIAN_POINT ( 'NONE',  ( 0.000000000000000000, 0.000000000000000000, 7.000000000000000000 ) ) ;
#118 = AXIS2_PLACEMENT_3D ( 'NONE', #167, #310, #131 ) ;
#119 = PLANE ( 'NONE',  #193 ) ;
#120 = FACE_OUTER_BOUND ( 'NONE', #304, .T. ) ;
#121 = DIRECTION ( 'NONE',  ( 1.000000000000000000, 0.000000000000000000, 0.000000000000000000 ) ) ;
#122 =( NAMED_UNIT ( * ) SI_UNIT ( $, .STERADIAN. ) SOLID_ANGLE_UNIT ( ) );
#123 = AXIS2_PLACEMENT_3D ( 'NONE', #298, #184, #127 ) ;
#124 = CC_DESIGN_APPROVAL ( #17, ( #325 ) ) ;
#125 = CYLINDRICAL_SURFACE ( 'NONE', #266, 6.000000000000000888 ) ;
#126 = DIRECTION ( 'NONE',  ( 0.000000000000000000, 0.000000000000000000, 1.000000000000000000 ) ) ;
#127 = DIRECTION ( 'NONE',  ( -1.000000000000000000, 0.000000000000000000, 0.000000000000000000 ) ) ;
#128 = CARTESIAN_POINT ( 'NONE',  ( -6.500000000000000888, 7.960204194457796463E-16, 7.000000000000002665 ) ) ;
#129 = ORIENTED_EDGE ( 'NONE', *, *, #380, .F. ) ;
#130 = CC_DESIGN_PERSON_AND_ORGANIZATION_ASSIGNMENT ( #74, #363, ( #378 ) ) ;
#131 = DIRECTION ( 'NONE',  ( 1.000000000000000000, 0.000000000000000000, 0.000000000000000000 ) ) ;
#132 = ORIENTED_EDGE ( 'NONE', *, *, #95, .F. ) ;
#133 = APPROVAL_STATUS ( 'not_yet_approved' ) ;
#134 = EDGE_LOOP ( 'NONE', ( #371, #309, #367, #311 ) ) ;
#135 = APPROVAL_DATE_TIME ( #77, #17 ) ;
#136 = EDGE_CURVE ( 'NONE', #253, #308, #223, .T. ) ;
#137 = ADVANCED_FACE ( 'NONE', ( #120 ), #259, .F. ) ;
#138 = VECTOR ( 'NONE', #75, 1000.000000000000000 ) ;
#139 = ORIENTED_EDGE ( 'NONE', *, *, #320, .T. ) ;
#140 = CALENDAR_DATE ( 2022, 8, 7 ) ;
#141 = ADVANCED_BREP_SHAPE_REPRESENTATION ( 'a2ac', ( #331, #118 ), #165 ) ;
#142 = APPROVAL ( #257, 'NEURÈENÝ' ) ;
#143 = DIRECTION ( 'NONE',  ( 1.000000000000000000, 0.000000000000000000, 0.000000000000000000 ) ) ;
#144 = EDGE_CURVE ( 'NONE', #251, #338, #354, .T. ) ;
#145 = CARTESIAN_POINT ( 'NONE',  ( 0.000000000000000000, 0.000000000000000000, 7.000000000000000000 ) ) ;
#146 = DIRECTION ( 'NONE',  ( 1.000000000000000000, 0.000000000000000000, 0.000000000000000000 ) ) ;
#147 = DIRECTION ( 'NONE',  ( 1.000000000000000000, 0.000000000000000000, -0.000000000000000000 ) ) ;
#148 = DIRECTION ( 'NONE',  ( 1.000000000000000000, 0.000000000000000000, 0.000000000000000000 ) ) ;
#149 = DIRECTION ( 'NONE',  ( 0.000000000000000000, 0.000000000000000000, 1.000000000000000000 ) ) ;
#150 = AXIS2_PLACEMENT_3D ( 'NONE', #375, #231, #146 ) ;
#151 = ORIENTED_EDGE ( 'NONE', *, *, #312, .F. ) ;
#152 = CYLINDRICAL_SURFACE ( 'NONE', #377, 6.000000000000000888 ) ;
#153 = CARTESIAN_POINT ( 'NONE',  ( -10.00000000000000000, 0.000000000000000000, 7.000000000000000000 ) ) ;
#154 = EDGE_CURVE ( 'NONE', #258, #243, #52, .T. ) ;
#155 = CARTESIAN_POINT ( 'NONE',  ( 10.00000000000000000, 1.224646799147353256E-15, 0.000000000000000000 ) ) ;
#156 = VERTEX_POINT ( 'NONE', #351 ) ;
#157 = AXIS2_PLACEMENT_3D ( 'NONE', #237, #202, #316 ) ;
#158 = CIRCLE ( 'NONE', #178, 2.500000000000000000 ) ;
#159 = CALENDAR_DATE ( 2022, 8, 7 ) ;
#160 = ORIENTED_EDGE ( 'NONE', *, *, #25, .T. ) ;
#161 = ORIENTED_EDGE ( 'NONE', *, *, #144, .T. ) ;
#162 = DATE_AND_TIME ( #370, #366 ) ;
#163 = AXIS2_PLACEMENT_3D ( 'NONE', #260, #30, #121 ) ;
#164 = EDGE_LOOP ( 'NONE', ( #71, #11, #369, #364 ) ) ;
#165 =( GEOMETRIC_REPRESENTATION_CONTEXT ( 3 ) GLOBAL_UNCERTAINTY_ASSIGNED_CONTEXT ( ( #39 ) ) GLOBAL_UNIT_ASSIGNED_CONTEXT ( ( #66, #38, #122 ) ) REPRESENTATION_CONTEXT ( 'NONE', 'WORKASPACE' ) );
#166 = EDGE_CURVE ( 'NONE', #308, #243, #210, .T. ) ;
#167 = CARTESIAN_POINT ( 'NONE',  ( 0.000000000000000000, 0.000000000000000000, 0.000000000000000000 ) ) ;
#168 = VERTEX_POINT ( 'NONE', #31 ) ;
#169 = DATE_AND_TIME ( #215, #29 ) ;
#170 = CYLINDRICAL_SURFACE ( 'NONE', #278, 10.00000000000000000 ) ;
#171 = ORIENTED_EDGE ( 'NONE', *, *, #95, .T. ) ;
#172 = CARTESIAN_POINT ( 'NONE',  ( 0.000000000000000000, 0.000000000000000000, 0.000000000000000000 ) ) ;
#173 = EDGE_CURVE ( 'NONE', #243, #258, #332, .T. ) ;
#174 = CARTESIAN_POINT ( 'NONE',  ( 0.000000000000000000, 0.000000000000000000, 107.0000000000000142 ) ) ;
#175 = CIRCLE ( 'NONE', #110, 2.500000000000000000 ) ;
#176 = DIRECTION ( 'NONE',  ( -0.000000000000000000, -0.000000000000000000, -1.000000000000000000 ) ) ;
#177 = ADVANCED_FACE ( 'NONE', ( #115, #262 ), #313, .T. ) ;
#178 = AXIS2_PLACEMENT_3D ( 'NONE', #239, #94, #70 ) ;
#179 = DIRECTION ( 'NONE',  ( 1.000000000000000000, 0.000000000000000000, 0.000000000000000000 ) ) ;
#180 = DIRECTION ( 'NONE',  ( 0.000000000000000000, 0.000000000000000000, 1.000000000000000000 ) ) ;
#181 = CARTESIAN_POINT ( 'NONE',  ( 0.000000000000000000, 0.000000000000000000, 107.0000000000000142 ) ) ;
#182 = CARTESIAN_POINT ( 'NONE',  ( -10.00000000000000000, 0.000000000000000000, 0.000000000000000000 ) ) ;
#183 = LOCAL_TIME ( 17, 13, 46.00000000000000000, #16 ) ;
#184 = DIRECTION ( 'NONE',  ( 0.000000000000000000, 0.000000000000000000, -1.000000000000000000 ) ) ;
#185 = CARTESIAN_POINT ( 'NONE',  ( 0.000000000000000000, 0.000000000000000000, 107.0000000000000142 ) ) ;
#186 = TOROIDAL_SURFACE ( 'NONE', #24, 6.500000000000000888, 0.5000000000000000000 ) ;
#187 = ORIENTED_EDGE ( 'NONE', *, *, #188, .F. ) ;
#188 = EDGE_CURVE ( 'NONE', #168, #13, #1, .T. ) ;
#189 = EDGE_LOOP ( 'NONE', ( #161, #276 ) ) ;
#190 = ORIENTED_EDGE ( 'NONE', *, *, #205, .T. ) ;
#191 = DIRECTION ( 'NONE',  ( 1.000000000000000000, 0.000000000000000000, 0.000000000000000000 ) ) ;
#192 = ORIENTED_EDGE ( 'NONE', *, *, #154, .T. ) ;
#193 = AXIS2_PLACEMENT_3D ( 'NONE', #381, #379, #147 ) ;
#194 = ORIENTED_EDGE ( 'NONE', *, *, #23, .T. ) ;
#195 = MECHANICAL_CONTEXT ( 'NONE', #347, 'mechanical' ) ;
#196 = ORIENTED_EDGE ( 'NONE', *, *, #36, .T. ) ;
#197 = APPROVAL_PERSON_ORGANIZATION ( #279, #17, #275 ) ;
#198 = ADVANCED_FACE ( 'NONE', ( #294 ), #28, .F. ) ;
#199 = DIRECTION ( 'NONE',  ( 1.000000000000000000, 0.000000000000000000, 0.000000000000000000 ) ) ;
#200 = CIRCLE ( 'NONE', #33, 2.500000000000000000 ) ;
#201 = LOCAL_TIME ( 17, 13, 46.00000000000000000, #368 ) ;
#202 = DIRECTION ( 'NONE',  ( 1.224646799147353207E-16, 1.000000000000000000, -0.000000000000000000 ) ) ;
#203 = CARTESIAN_POINT ( 'NONE',  ( 6.000000000000000888, 7.347880794884120722E-16, 107.0000000000000142 ) ) ;
#204 = AXIS2_PLACEMENT_3D ( 'NONE', #109, #289, #373 ) ;
#205 = EDGE_CURVE ( 'NONE', #283, #13, #296, .T. ) ;
#206 = FACE_BOUND ( 'NONE', #217, .T. ) ;
#207 = CARTESIAN_POINT ( 'NONE',  ( 0.000000000000000000, 0.000000000000000000, 7.000000000000000000 ) ) ;
#208 = FACE_OUTER_BOUND ( 'NONE', #164, .T. ) ;
#209 = FACE_OUTER_BOUND ( 'NONE', #50, .T. ) ;
#210 = CIRCLE ( 'NONE', #157, 0.5000000000000004441 ) ;
#211 = DIRECTION ( 'NONE',  ( -0.000000000000000000, -0.000000000000000000, -1.000000000000000000 ) ) ;
#212 = CIRCLE ( 'NONE', #282, 6.000000000000000888 ) ;
#213 = PLANE ( 'NONE',  #112 ) ;
#214 = ORIENTED_EDGE ( 'NONE', *, *, #36, .F. ) ;
#215 = CALENDAR_DATE ( 2022, 8, 7 ) ;
#216 = DESIGN_CONTEXT ( 'detailed design', #67, 'design' ) ;
#217 = EDGE_LOOP ( 'NONE', ( #187, #277 ) ) ;
#218 = COORDINATED_UNIVERSAL_TIME_OFFSET ( 1, 0, .AHEAD. ) ;
#219 = FACE_OUTER_BOUND ( 'NONE', #306, .T. ) ;
#220 = ORIENTED_EDGE ( 'NONE', *, *, #97, .T. ) ;
#221 = PERSON_AND_ORGANIZATION_ROLE ( 'creator' ) ;
#222 = LINE ( 'NONE', #342, #138 ) ;
#223 = CIRCLE ( 'NONE', #163, 6.000000000000000888 ) ;
#224 = APPROVAL ( #344, 'NEURÈENÝ' ) ;
#225 = ORIENTED_EDGE ( 'NONE', *, *, #136, .F. ) ;
#226 = AXIS2_PLACEMENT_3D ( 'NONE', #181, #69, #3 ) ;
#227 = PERSON_AND_ORGANIZATION ( #51, #54 ) ;
#228 = ADVANCED_FACE ( 'NONE', ( #34 ), #125, .T. ) ;
#229 = DIRECTION ( 'NONE',  ( 1.000000000000000000, 0.000000000000000000, -0.000000000000000000 ) ) ;
#230 = CIRCLE ( 'NONE', #204, 0.5000000000000004441 ) ;
#231 = DIRECTION ( 'NONE',  ( 0.000000000000000000, 0.000000000000000000, 1.000000000000000000 ) ) ;
#232 = CC_DESIGN_APPROVAL ( #224, ( #105 ) ) ;
#233 = DIRECTION ( 'NONE',  ( 0.000000000000000000, 0.000000000000000000, 1.000000000000000000 ) ) ;
#234 = EDGE_CURVE ( 'NONE', #338, #242, #9, .T. ) ;
#235 = CARTESIAN_POINT ( 'NONE',  ( 0.000000000000000000, 0.000000000000000000, 0.000000000000000000 ) ) ;
#236 = CIRCLE ( 'NONE', #79, 10.00000000000000000 ) ;
#237 = CARTESIAN_POINT ( 'NONE',  ( -6.500000000000000888, 7.960204194457796463E-16, 7.500000000000007105 ) ) ;
#238 = VECTOR ( 'NONE', #315, 1000.000000000000000 ) ;
#239 = CARTESIAN_POINT ( 'NONE',  ( 0.000000000000000000, 0.000000000000000000, 107.0000000000000142 ) ) ;
#240 = CARTESIAN_POINT ( 'NONE',  ( 6.500000000000000888, 0.000000000000000000, 7.000000000000002665 ) ) ;
#241 = LINE ( 'NONE', #357, #73 ) ;
#242 = VERTEX_POINT ( 'NONE', #155 ) ;
#243 = VERTEX_POINT ( 'NONE', #128 ) ;
#244 = AXIS2_PLACEMENT_3D ( 'NONE', #297, #376, #374 ) ;
#245 = LINE ( 'NONE', #62, #72 ) ;
#246 = EDGE_CURVE ( 'NONE', #285, #168, #245, .T. ) ;
#247 = CYLINDRICAL_SURFACE ( 'NONE', #123, 2.500000000000000000 ) ;
#248 = ORIENTED_EDGE ( 'NONE', *, *, #352, .F. ) ;
#249 = EDGE_CURVE ( 'NONE', #156, #37, #7, .T. ) ;
#250 = APPLICATION_PROTOCOL_DEFINITION ( 'international standard', 'config_control_design', 1994, #347 ) ;
#251 = VERTEX_POINT ( 'NONE', #153 ) ;
#252 = PERSON_AND_ORGANIZATION_ROLE ( 'design_supplier' ) ;
#253 = VERTEX_POINT ( 'NONE', #6 ) ;
#254 = PERSON_AND_ORGANIZATION ( #51, #54 ) ;
#255 = CIRCLE ( 'NONE', #323, 10.00000000000000000 ) ;
#256 = ORIENTED_EDGE ( 'NONE', *, *, #234, .T. ) ;
#257 = APPROVAL_STATUS ( 'not_yet_approved' ) ;
#258 = VERTEX_POINT ( 'NONE', #240 ) ;
#259 = CYLINDRICAL_SURFACE ( 'NONE', #302, 2.500000000000000000 ) ;
#260 = CARTESIAN_POINT ( 'NONE',  ( 0.000000000000000000, 0.000000000000000000, 7.500000000000007105 ) ) ;
#261 = LOCAL_TIME ( 17, 13, 46.00000000000000000, #218 ) ;
#262 = FACE_OUTER_BOUND ( 'NONE', #189, .T. ) ;
#263 = CC_DESIGN_PERSON_AND_ORGANIZATION_ASSIGNMENT ( #102, #287, ( #325 ) ) ;
#264 = CARTESIAN_POINT ( 'NONE',  ( 0.000000000000000000, 0.000000000000000000, 7.000000000000000000 ) ) ;
#265 = ADVANCED_FACE ( 'NONE', ( #208 ), #247, .F. ) ;
#266 = AXIS2_PLACEMENT_3D ( 'NONE', #35, #328, #321 ) ;
#267 = CC_DESIGN_SECURITY_CLASSIFICATION ( #2, ( #325 ) ) ;
#268 = FACE_OUTER_BOUND ( 'NONE', #280, .T. ) ;
#269 = ORIENTED_EDGE ( 'NONE', *, *, #144, .F. ) ;
#270 = DIRECTION ( 'NONE',  ( -1.000000000000000000, 0.000000000000000000, 0.000000000000000000 ) ) ;
#271 = CARTESIAN_POINT ( 'NONE',  ( 0.000000000000000000, 0.000000000000000000, 107.0000000000000142 ) ) ;
#272 = ORIENTED_EDGE ( 'NONE', *, *, #25, .F. ) ;
#273 = AXIS2_PLACEMENT_3D ( 'NONE', #274, #299, #303 ) ;
#274 = CARTESIAN_POINT ( 'NONE',  ( 0.000000000000000000, 0.000000000000000000, 7.500000000000007105 ) ) ;
#275 = APPROVAL_ROLE ( '' ) ;
#276 = ORIENTED_EDGE ( 'NONE', *, *, #27, .T. ) ;
#277 = ORIENTED_EDGE ( 'NONE', *, *, #40, .F. ) ;
#278 = AXIS2_PLACEMENT_3D ( 'NONE', #335, #348, #42 ) ;
#279 = PERSON_AND_ORGANIZATION ( #51, #54 ) ;
#280 = EDGE_LOOP ( 'NONE', ( #106, #343 ) ) ;
#281 = APPROVAL_DATE_TIME ( #162, #142 ) ;
#282 = AXIS2_PLACEMENT_3D ( 'NONE', #185, #126, #301 ) ;
#283 = VERTEX_POINT ( 'NONE', #359 ) ;
#284 = APPROVAL_DATE_TIME ( #169, #224 ) ;
#285 = VERTEX_POINT ( 'NONE', #361 ) ;
#286 = VERTEX_POINT ( 'NONE', #182 ) ;
#287 = PERSON_AND_ORGANIZATION_ROLE ( 'creator' ) ;
#288 = CARTESIAN_POINT ( 'NONE',  ( 2.500000000000000000, 3.061616997868382648E-16, 0.000000000000000000 ) ) ;
#289 = DIRECTION ( 'NONE',  ( 0.000000000000000000, -1.000000000000000000, 0.000000000000000000 ) ) ;
#290 = APPROVAL_PERSON_ORGANIZATION ( #47, #224, #365 ) ;
#291 = DIRECTION ( 'NONE',  ( 0.000000000000000000, 0.000000000000000000, 1.000000000000000000 ) ) ;
#292 = DIRECTION ( 'NONE',  ( -0.000000000000000000, -0.000000000000000000, -1.000000000000000000 ) ) ;
#293 = VECTOR ( 'NONE', #292, 1000.000000000000000 ) ;
#294 = FACE_OUTER_BOUND ( 'NONE', #336, .T. ) ;
#295 = AXIS2_PLACEMENT_3D ( 'NONE', #264, #233, #199 ) ;
#296 = LINE ( 'NONE', #61, #238 ) ;
#297 = CARTESIAN_POINT ( 'NONE',  ( 0.000000000000000000, 0.000000000000000000, 7.000000000000000000 ) ) ;
#298 = CARTESIAN_POINT ( 'NONE',  ( 0.000000000000000000, 0.000000000000000000, 107.0000000000000142 ) ) ;
#299 = DIRECTION ( 'NONE',  ( 0.000000000000000000, 0.000000000000000000, 1.000000000000000000 ) ) ;
#300 = CARTESIAN_POINT ( 'NONE',  ( 0.000000000000000000, 0.000000000000000000, 107.0000000000000142 ) ) ;
#301 = DIRECTION ( 'NONE',  ( 1.000000000000000000, 0.000000000000000000, 0.000000000000000000 ) ) ;
#302 = AXIS2_PLACEMENT_3D ( 'NONE', #174, #89, #349 ) ;
#303 = DIRECTION ( 'NONE',  ( 1.000000000000000000, 0.000000000000000000, 0.000000000000000000 ) ) ;
#304 = EDGE_LOOP ( 'NONE', ( #21, #190, #83, #43 ) ) ;
#305 = DIRECTION ( 'NONE',  ( 0.000000000000000000, 0.000000000000000000, 1.000000000000000000 ) ) ;
#306 = EDGE_LOOP ( 'NONE', ( #81, #269, #160, #196 ) ) ;
#307 = DATE_AND_TIME ( #140, #201 ) ;
#308 = VERTEX_POINT ( 'NONE', #100 ) ;
#309 = ORIENTED_EDGE ( 'NONE', *, *, #166, .T. ) ;
#310 = DIRECTION ( 'NONE',  ( 0.000000000000000000, 0.000000000000000000, 1.000000000000000000 ) ) ;
#311 = ORIENTED_EDGE ( 'NONE', *, *, #23, .F. ) ;
#312 = EDGE_CURVE ( 'NONE', #285, #283, #200, .T. ) ;
#313 = PLANE ( 'NONE',  #358 ) ;
#314 = AXIS2_PLACEMENT_3D ( 'NONE', #235, #176, #319 ) ;
#315 = DIRECTION ( 'NONE',  ( 0.000000000000000000, 0.000000000000000000, -1.000000000000000000 ) ) ;
#316 = DIRECTION ( 'NONE',  ( -1.000000000000000000, 1.224646799147351482E-16, 0.000000000000000000 ) ) ;
#317 = PRODUCT_RELATED_PRODUCT_CATEGORY ( 'detail', '', ( #378 ) ) ;
#318 = LINE ( 'NONE', #203, #293 ) ;
#319 = DIRECTION ( 'NONE',  ( 1.000000000000000000, 0.000000000000000000, 0.000000000000000000 ) ) ;
#320 = EDGE_CURVE ( 'NONE', #308, #253, #60, .T. ) ;
#321 = DIRECTION ( 'NONE',  ( -1.000000000000000000, 0.000000000000000000, 0.000000000000000000 ) ) ;
#322 = ADVANCED_FACE ( 'NONE', ( #96, #268 ), #213, .T. ) ;
#323 = AXIS2_PLACEMENT_3D ( 'NONE', #114, #305, #82 ) ;
#324 = CARTESIAN_POINT ( 'NONE',  ( 10.00000000000000000, 1.224646799147353256E-15, 7.000000000000000000 ) ) ;
#325 = PRODUCT_DEFINITION_FORMATION_WITH_SPECIFIED_SOURCE ( 'LIBOVOLNÝ', '', #378, .NOT_KNOWN. ) ;
#326 = ORIENTED_EDGE ( 'NONE', *, *, #27, .F. ) ;
#327 = EDGE_CURVE ( 'NONE', #283, #285, #158, .T. ) ;
#328 = DIRECTION ( 'NONE',  ( -0.000000000000000000, -0.000000000000000000, -1.000000000000000000 ) ) ;
#329 = DIRECTION ( 'NONE',  ( 0.000000000000000000, 0.000000000000000000, 1.000000000000000000 ) ) ;
#330 = EDGE_LOOP ( 'NONE', ( #214, #132 ) ) ;
#331 = MANIFOLD_SOLID_BREP ( 'Odebrat vysunutím3', #57 ) ;
#332 = CIRCLE ( 'NONE', #46, 6.500000000000000888 ) ;
#333 = DATE_TIME_ROLE ( 'classification_date' ) ;
#334 = ADVANCED_FACE ( 'NONE', ( #209 ), #152, .T. ) ;
#335 = CARTESIAN_POINT ( 'NONE',  ( 0.000000000000000000, 0.000000000000000000, 7.000000000000000000 ) ) ;
#336 = EDGE_LOOP ( 'NONE', ( #45, #225, #194, #76 ) ) ;
#337 = CARTESIAN_POINT ( 'NONE',  ( 0.000000000000000000, 0.000000000000000000, 0.000000000000000000 ) ) ;
#338 = VERTEX_POINT ( 'NONE', #4 ) ;
#339 = PRODUCT_DEFINITION_SHAPE ( 'NONE', 'NONE',  #105 ) ;
#340 = CIRCLE ( 'NONE', #116, 10.00000000000000000 ) ;
#341 = PERSON_AND_ORGANIZATION_ROLE ( 'classification_officer' ) ;
#342 = CARTESIAN_POINT ( 'NONE',  ( -10.00000000000000000, 0.000000000000000000, 7.000000000000000000 ) ) ;
#343 = ORIENTED_EDGE ( 'NONE', *, *, #352, .T. ) ;
#344 = APPROVAL_STATUS ( 'not_yet_approved' ) ;
#345 = VECTOR ( 'NONE', #355, 1000.000000000000000 ) ;
#346 = SECURITY_CLASSIFICATION_LEVEL ( 'unclassified' ) ;
#347 = APPLICATION_CONTEXT ( 'configuration controlled 3d designs of mechanical parts and assemblies' ) ;
#348 = DIRECTION ( 'NONE',  ( -0.000000000000000000, -0.000000000000000000, -1.000000000000000000 ) ) ;
#349 = DIRECTION ( 'NONE',  ( -1.000000000000000000, 0.000000000000000000, 0.000000000000000000 ) ) ;
#350 = DIRECTION ( 'NONE',  ( -0.000000000000000000, -0.000000000000000000, -1.000000000000000000 ) ) ;
#351 = CARTESIAN_POINT ( 'NONE',  ( -6.000000000000000888, 0.000000000000000000, 107.0000000000000142 ) ) ;
#352 = EDGE_CURVE ( 'NONE', #37, #156, #212, .T. ) ;
#353 = DIRECTION ( 'NONE',  ( -0.000000000000000000, -0.000000000000000000, -1.000000000000000000 ) ) ;
#354 = CIRCLE ( 'NONE', #295, 10.00000000000000000 ) ;
#355 = DIRECTION ( 'NONE',  ( -0.000000000000000000, -0.000000000000000000, -1.000000000000000000 ) ) ;
#356 = DIRECTION ( 'NONE',  ( 1.000000000000000000, 0.000000000000000000, -0.000000000000000000 ) ) ;
#357 = CARTESIAN_POINT ( 'NONE',  ( -6.000000000000000888, 0.000000000000000000, 107.0000000000000142 ) ) ;
#358 = AXIS2_PLACEMENT_3D ( 'NONE', #207, #58, #229 ) ;
#359 = CARTESIAN_POINT ( 'NONE',  ( 2.500000000000000000, 3.061616997868382648E-16, 107.0000000000000142 ) ) ;
#360 = CC_DESIGN_PERSON_AND_ORGANIZATION_ASSIGNMENT ( #227, #341, ( #2 ) ) ;
#361 = CARTESIAN_POINT ( 'NONE',  ( -2.500000000000000000, 0.000000000000000000, 107.0000000000000142 ) ) ;
#362 = ORIENTED_EDGE ( 'NONE', *, *, #97, .F. ) ;
#363 = PERSON_AND_ORGANIZATION_ROLE ( 'design_owner' ) ;
#364 = ORIENTED_EDGE ( 'NONE', *, *, #188, .T. ) ;
#365 = APPROVAL_ROLE ( '' ) ;
#366 = LOCAL_TIME ( 17, 13, 46.00000000000000000, #84 ) ;
#367 = ORIENTED_EDGE ( 'NONE', *, *, #154, .F. ) ;
#368 = COORDINATED_UNIVERSAL_TIME_OFFSET ( 1, 0, .AHEAD. ) ;
#369 = ORIENTED_EDGE ( 'NONE', *, *, #246, .T. ) ;
#370 = CALENDAR_DATE ( 2022, 8, 7 ) ;
#371 = ORIENTED_EDGE ( 'NONE', *, *, #320, .F. ) ;
#372 = COORDINATED_UNIVERSAL_TIME_OFFSET ( 1, 0, .AHEAD. ) ;
#373 = DIRECTION ( 'NONE',  ( 0.000000000000000000, 0.000000000000000000, -1.000000000000000000 ) ) ;
#374 = DIRECTION ( 'NONE',  ( 1.000000000000000000, 0.000000000000000000, 0.000000000000000000 ) ) ;
#375 = CARTESIAN_POINT ( 'NONE',  ( 0.000000000000000000, 0.000000000000000000, 7.500000000000007105 ) ) ;
#376 = DIRECTION ( 'NONE',  ( -0.000000000000000000, -0.000000000000000000, -1.000000000000000000 ) ) ;
#377 = AXIS2_PLACEMENT_3D ( 'NONE', #300, #93, #270 ) ;
#378 = PRODUCT ( 'a2ac', 'a2ac', '', ( #195 ) ) ;
#379 = DIRECTION ( 'NONE',  ( 0.000000000000000000, 0.000000000000000000, 1.000000000000000000 ) ) ;
#380 = EDGE_CURVE ( 'NONE', #156, #308, #241, .T. ) ;
#381 = CARTESIAN_POINT ( 'NONE',  ( 0.000000000000000000, 0.000000000000000000, 0.000000000000000000 ) ) ;
ENDSEC;
END-ISO-10303-21;
