ISO-10303-21;
HEADER;
FILE_DESCRIPTION (( 'STEP AP203' ),
    '1' );
FILE_NAME ('25f8.STEP',
    '2022-07-08T15:54:20',
    ( '' ),
    ( '' ),
    'SwSTEP 2.0',
    'SolidWorks 2019',
    '' );
FILE_SCHEMA (( 'CONFIG_CONTROL_DESIGN' ));
ENDSEC;

DATA;
#1 = VERTEX_POINT ( 'NONE', #73 ) ;
#2 = EDGE_LOOP ( 'NONE', ( #145, #7, #220, #257 ) ) ;
#3 = DIRECTION ( 'NONE',  ( 0.000000000000000000, -1.000000000000000000, 0.000000000000000000 ) ) ;
#4 = VERTEX_POINT ( 'NONE', #13 ) ;
#5 = CC_DESIGN_APPROVAL ( #214, ( #120 ) ) ;
#6 = FACE_OUTER_BOUND ( 'NONE', #219, .T. ) ;
#7 = ORIENTED_EDGE ( 'NONE', *, *, #185, .T. ) ;
#8 = MANIFOLD_SOLID_BREP ( 'Odebrat vysunutím3', #10 ) ;
#9 = ORIENTED_EDGE ( 'NONE', *, *, #112, .T. ) ;
#10 = CLOSED_SHELL ( 'NONE', ( #190, #242, #36, #264, #200, #308, #92, #123, #85, #366, #206 ) ) ;
#11 = EDGE_LOOP ( 'NONE', ( #343, #250 ) ) ;
#12 = AXIS2_PLACEMENT_3D ( 'NONE', #283, #193, #164 ) ;
#13 = CARTESIAN_POINT ( 'NONE',  ( -1.000000000000000000, 0.000000000000000000, 253.0000000000000000 ) ) ;
#14 = DIRECTION ( 'NONE',  ( 1.000000000000000000, 0.000000000000000000, 0.000000000000000000 ) ) ;
#15 = DIRECTION ( 'NONE',  ( -0.000000000000000000, -0.000000000000000000, -1.000000000000000000 ) ) ;
#16 = DIRECTION ( 'NONE',  ( -0.000000000000000000, -0.000000000000000000, -1.000000000000000000 ) ) ;
#17 = DIRECTION ( 'NONE',  ( -1.000000000000000000, 0.000000000000000000, 0.000000000000000000 ) ) ;
#18 = APPROVAL_DATE_TIME ( #372, #350 ) ;
#19 = EDGE_CURVE ( 'NONE', #28, #280, #125, .T. ) ;
#20 = DATE_AND_TIME ( #296, #45 ) ;
#21 = CARTESIAN_POINT ( 'NONE',  ( -4.000000000000000000, 0.000000000000000000, 3.000000000000000000 ) ) ;
#22 = AXIS2_PLACEMENT_3D ( 'NONE', #210, #360, #179 ) ;
#23 = CARTESIAN_POINT ( 'NONE',  ( 0.000000000000000000, 0.000000000000000000, 253.0000000000000000 ) ) ;
#24 = CARTESIAN_POINT ( 'NONE',  ( -2.000000000000000000, 0.000000000000000000, 253.0000000000000000 ) ) ;
#25 = AXIS2_PLACEMENT_3D ( 'NONE', #349, #99, #161 ) ;
#26 = EDGE_CURVE ( 'NONE', #64, #132, #140, .T. ) ;
#27 = TOROIDAL_SURFACE ( 'NONE', #12, 2.299999999999999822, 0.2999999999999999889 ) ;
#28 = VERTEX_POINT ( 'NONE', #368 ) ;
#29 = PRODUCT ( '25f8', '25f8', '', ( #315 ) ) ;
#30 = CARTESIAN_POINT ( 'NONE',  ( 0.000000000000000000, 0.000000000000000000, 0.000000000000000000 ) ) ;
#31 = AXIS2_PLACEMENT_3D ( 'NONE', #346, #42, #127 ) ;
#32 = DIRECTION ( 'NONE',  ( -0.000000000000000000, -0.000000000000000000, -1.000000000000000000 ) ) ;
#33 = ORIENTED_EDGE ( 'NONE', *, *, #287, .T. ) ;
#34 = DIRECTION ( 'NONE',  ( -0.000000000000000000, -0.000000000000000000, -1.000000000000000000 ) ) ;
#35 = EDGE_LOOP ( 'NONE', ( #182, #90, #151, #87 ) ) ;
#36 = ADVANCED_FACE ( 'NONE', ( #255 ), #224, .T. ) ;
#37 = ORIENTED_EDGE ( 'NONE', *, *, #252, .T. ) ;
#38 = DATE_AND_TIME ( #191, #381 ) ;
#39 = DIRECTION ( 'NONE',  ( 1.000000000000000000, 0.000000000000000000, 0.000000000000000000 ) ) ;
#40 = AXIS2_PLACEMENT_3D ( 'NONE', #303, #148, #150 ) ;
#41 = EDGE_LOOP ( 'NONE', ( #155, #181 ) ) ;
#42 = DIRECTION ( 'NONE',  ( 0.000000000000000000, 0.000000000000000000, 1.000000000000000000 ) ) ;
#43 = CIRCLE ( 'NONE', #25, 2.000000000000000000 ) ;
#44 = DIRECTION ( 'NONE',  ( 0.000000000000000000, 0.000000000000000000, -1.000000000000000000 ) ) ;
#45 = LOCAL_TIME ( 17, 54, 20.00000000000000000, #172 ) ;
#46 = DIRECTION ( 'NONE',  ( 0.000000000000000000, 0.000000000000000000, 1.000000000000000000 ) ) ;
#47 = APPLICATION_CONTEXT ( 'configuration controlled 3d designs of mechanical parts and assemblies' ) ;
#48 = COORDINATED_UNIVERSAL_TIME_OFFSET ( 1, 0, .AHEAD. ) ;
#49 = LINE ( 'NONE', #105, #195 ) ;
#50 = DIRECTION ( 'NONE',  ( -1.000000000000000000, 0.000000000000000000, 0.000000000000000000 ) ) ;
#51 = PERSON_AND_ORGANIZATION ( #175, #88 ) ;
#52 = DIRECTION ( 'NONE',  ( 0.000000000000000000, 0.000000000000000000, -1.000000000000000000 ) ) ;
#53 = EDGE_CURVE ( 'NONE', #154, #119, #109, .T. ) ;
#54 = DIRECTION ( 'NONE',  ( -0.000000000000000000, -0.000000000000000000, -1.000000000000000000 ) ) ;
#55 = AXIS2_PLACEMENT_3D ( 'NONE', #311, #16, #39 ) ;
#56 = EDGE_CURVE ( 'NONE', #216, #158, #258, .T. ) ;
#57 = CARTESIAN_POINT ( 'NONE',  ( 0.000000000000000000, 0.000000000000000000, 3.000000000000000000 ) ) ;
#58 = PRODUCT_DEFINITION_FORMATION_WITH_SPECIFIED_SOURCE ( 'LIBOVOLNÝ', '', #29, .NOT_KNOWN. ) ;
#59 = DIRECTION ( 'NONE',  ( 0.000000000000000000, 0.000000000000000000, 1.000000000000000000 ) ) ;
#60 = EDGE_LOOP ( 'NONE', ( #281, #244, #187, #33 ) ) ;
#61 = DIRECTION ( 'NONE',  ( 1.000000000000000000, 0.000000000000000000, 0.000000000000000000 ) ) ;
#62 = ORIENTED_EDGE ( 'NONE', *, *, #252, .F. ) ;
#63 = CARTESIAN_POINT ( 'NONE',  ( 0.000000000000000000, 0.000000000000000000, 3.000000000000000000 ) ) ;
#64 = VERTEX_POINT ( 'NONE', #130 ) ;
#65 = ORIENTED_EDGE ( 'NONE', *, *, #103, .T. ) ;
#66 = EDGE_CURVE ( 'NONE', #365, #194, #43, .T. ) ;
#67 = DIRECTION ( 'NONE',  ( -1.000000000000000000, 1.224646799147353207E-16, 0.000000000000000000 ) ) ;
#68 = ORIENTED_EDGE ( 'NONE', *, *, #245, .T. ) ;
#69 = CIRCLE ( 'NONE', #313, 1.000000000000000000 ) ;
#70 = CARTESIAN_POINT ( 'NONE',  ( 0.000000000000000000, 0.000000000000000000, 0.000000000000000000 ) ) ;
#71 = EDGE_CURVE ( 'NONE', #280, #233, #234, .T. ) ;
#72 = FACE_OUTER_BOUND ( 'NONE', #94, .T. ) ;
#73 = CARTESIAN_POINT ( 'NONE',  ( 2.299999999999999822, 0.000000000000000000, 2.999999999999998668 ) ) ;
#74 = PERSON_AND_ORGANIZATION_ROLE ( 'design_supplier' ) ;
#75 = ORIENTED_EDGE ( 'NONE', *, *, #95, .F. ) ;
#76 = APPROVAL_DATE_TIME ( #38, #149 ) ;
#77 = DIRECTION ( 'NONE',  ( -0.000000000000000000, -0.000000000000000000, -1.000000000000000000 ) ) ;
#78 = PRODUCT_RELATED_PRODUCT_CATEGORY ( 'detail', '', ( #29 ) ) ;
#79 = CARTESIAN_POINT ( 'NONE',  ( 0.000000000000000000, 0.000000000000000000, 253.0000000000000000 ) ) ;
#80 = APPROVAL_ROLE ( '' ) ;
#81 = LINE ( 'NONE', #238, #322 ) ;
#82 = EDGE_CURVE ( 'NONE', #28, #4, #282, .T. ) ;
#83 = FACE_OUTER_BOUND ( 'NONE', #309, .T. ) ;
#84 = DIRECTION ( 'NONE',  ( 0.000000000000000000, 0.000000000000000000, 1.000000000000000000 ) ) ;
#85 = ADVANCED_FACE ( 'NONE', ( #229, #72 ), #197, .T. ) ;
#86 = CARTESIAN_POINT ( 'NONE',  ( 0.000000000000000000, 0.000000000000000000, 3.000000000000000000 ) ) ;
#87 = ORIENTED_EDGE ( 'NONE', *, *, #332, .F. ) ;
#88 = ORGANIZATION ( 'NEURÈENÝ', 'NEURÈENÝ', '' ) ;
#89 = DIRECTION ( 'NONE',  ( -1.000000000000000000, 0.000000000000000000, 0.000000000000000000 ) ) ;
#90 = ORIENTED_EDGE ( 'NONE', *, *, #56, .T. ) ;
#91 = ORIENTED_EDGE ( 'NONE', *, *, #82, .T. ) ;
#92 = ADVANCED_FACE ( 'NONE', ( #288, #260 ), #321, .F. ) ;
#93 = CIRCLE ( 'NONE', #342, 2.299999999999999822 ) ;
#94 = EDGE_LOOP ( 'NONE', ( #278, #147 ) ) ;
#95 = EDGE_CURVE ( 'NONE', #194, #365, #211, .T. ) ;
#96 = ORIENTED_EDGE ( 'NONE', *, *, #56, .F. ) ;
#97 = AXIS2_PLACEMENT_3D ( 'NONE', #316, #163, #371 ) ;
#98 = LINE ( 'NONE', #367, #166 ) ;
#99 = DIRECTION ( 'NONE',  ( 0.000000000000000000, 0.000000000000000000, 1.000000000000000000 ) ) ;
#100 = AXIS2_PLACEMENT_3D ( 'NONE', #277, #3, #121 ) ;
#101 = CC_DESIGN_PERSON_AND_ORGANIZATION_ASSIGNMENT ( #51, #320, ( #156 ) ) ;
#102 = ORIENTED_EDGE ( 'NONE', *, *, #358, .F. ) ;
#103 = EDGE_CURVE ( 'NONE', #233, #280, #306, .T. ) ;
#104 = AXIS2_PLACEMENT_3D ( 'NONE', #326, #46, #170 ) ;
#105 = CARTESIAN_POINT ( 'NONE',  ( 4.000000000000000000, 4.898587196589412829E-16, 3.000000000000000000 ) ) ;
#106 = PERSON_AND_ORGANIZATION ( #175, #88 ) ;
#107 = AXIS2_PLACEMENT_3D ( 'NONE', #299, #237, #271 ) ;
#108 = CARTESIAN_POINT ( 'NONE',  ( -2.000000000000000000, 0.000000000000000000, 3.299999999999997158 ) ) ;
#109 = CIRCLE ( 'NONE', #31, 4.000000000000000000 ) ;
#110 = PERSON_AND_ORGANIZATION ( #175, #88 ) ;
#111 = CYLINDRICAL_SURFACE ( 'NONE', #114, 1.000000000000000000 ) ;
#112 = EDGE_CURVE ( 'NONE', #4, #233, #81, .T. ) ;
#113 = LINE ( 'NONE', #355, #144 ) ;
#114 = AXIS2_PLACEMENT_3D ( 'NONE', #79, #52, #50 ) ;
#115 = DIRECTION ( 'NONE',  ( 1.000000000000000000, 0.000000000000000000, 0.000000000000000000 ) ) ;
#116 = ORIENTED_EDGE ( 'NONE', *, *, #112, .F. ) ;
#117 = DIRECTION ( 'NONE',  ( 0.000000000000000000, 0.000000000000000000, 1.000000000000000000 ) ) ;
#118 = ORIENTED_EDGE ( 'NONE', *, *, #300, .T. ) ;
#119 = VERTEX_POINT ( 'NONE', #378 ) ;
#120 = SECURITY_CLASSIFICATION ( '', '', #135 ) ;
#121 = DIRECTION ( 'NONE',  ( 0.000000000000000000, 0.000000000000000000, -1.000000000000000000 ) ) ;
#122 = ORIENTED_EDGE ( 'NONE', *, *, #373, .T. ) ;
#123 = ADVANCED_FACE ( 'NONE', ( #204 ), #356, .T. ) ;
#124 = VERTEX_POINT ( 'NONE', #330 ) ;
#125 = LINE ( 'NONE', #199, #171 ) ;
#126 =( GEOMETRIC_REPRESENTATION_CONTEXT ( 3 ) GLOBAL_UNCERTAINTY_ASSIGNED_CONTEXT ( ( #160 ) ) GLOBAL_UNIT_ASSIGNED_CONTEXT ( ( #345, #225, #157 ) ) REPRESENTATION_CONTEXT ( 'NONE', 'WORKASPACE' ) );
#127 = DIRECTION ( 'NONE',  ( 1.000000000000000000, 0.000000000000000000, 0.000000000000000000 ) ) ;
#128 = FACE_OUTER_BOUND ( 'NONE', #336, .T. ) ;
#129 = CARTESIAN_POINT ( 'NONE',  ( 0.000000000000000000, 0.000000000000000000, 0.000000000000000000 ) ) ;
#130 = CARTESIAN_POINT ( 'NONE',  ( 4.000000000000000000, 4.898587196589412829E-16, 0.000000000000000000 ) ) ;
#131 = AXIS2_PLACEMENT_3D ( 'NONE', #357, #77, #139 ) ;
#132 = VERTEX_POINT ( 'NONE', #209 ) ;
#133 = CALENDAR_DATE ( 2022, 8, 7 ) ;
#134 = CARTESIAN_POINT ( 'NONE',  ( 0.000000000000000000, 0.000000000000000000, 3.299999999999997158 ) ) ;
#135 = SECURITY_CLASSIFICATION_LEVEL ( 'unclassified' ) ;
#136 = FACE_OUTER_BOUND ( 'NONE', #374, .T. ) ;
#137 = AXIS2_PLACEMENT_3D ( 'NONE', #86, #32, #274 ) ;
#138 = DIRECTION ( 'NONE',  ( -0.000000000000000000, -0.000000000000000000, -1.000000000000000000 ) ) ;
#139 = DIRECTION ( 'NONE',  ( 1.000000000000000000, 0.000000000000000000, 0.000000000000000000 ) ) ;
#140 = CIRCLE ( 'NONE', #227, 4.000000000000000000 ) ;
#141 = APPROVAL_STATUS ( 'not_yet_approved' ) ;
#142 = CARTESIAN_POINT ( 'NONE',  ( 0.000000000000000000, 0.000000000000000000, 3.000000000000000000 ) ) ;
#143 = CARTESIAN_POINT ( 'NONE',  ( 0.000000000000000000, 0.000000000000000000, 253.0000000000000000 ) ) ;
#144 = VECTOR ( 'NONE', #138, 1000.000000000000000 ) ;
#145 = ORIENTED_EDGE ( 'NONE', *, *, #300, .F. ) ;
#146 = DIRECTION ( 'NONE',  ( -0.000000000000000000, -0.000000000000000000, -1.000000000000000000 ) ) ;
#147 = ORIENTED_EDGE ( 'NONE', *, *, #66, .T. ) ;
#148 = DIRECTION ( 'NONE',  ( 0.000000000000000000, 0.000000000000000000, 1.000000000000000000 ) ) ;
#149 = APPROVAL ( #289, 'NEURÈENÝ' ) ;
#150 = DIRECTION ( 'NONE',  ( 1.000000000000000000, 0.000000000000000000, 0.000000000000000000 ) ) ;
#151 = ORIENTED_EDGE ( 'NONE', *, *, #293, .F. ) ;
#152 = APPROVAL_PERSON_ORGANIZATION ( #317, #149, #222 ) ;
#153 = FACE_OUTER_BOUND ( 'NONE', #35, .T. ) ;
#154 = VERTEX_POINT ( 'NONE', #21 ) ;
#155 = ORIENTED_EDGE ( 'NONE', *, *, #287, .F. ) ;
#156 = PRODUCT_DEFINITION ( 'NEZNÁMÝ', '', #58, #344 ) ;
#157 =( NAMED_UNIT ( * ) SI_UNIT ( $, .STERADIAN. ) SOLID_ANGLE_UNIT ( ) );
#158 = VERTEX_POINT ( 'NONE', #328 ) ;
#159 = CIRCLE ( 'NONE', #203, 4.000000000000000000 ) ;
#160 = UNCERTAINTY_MEASURE_WITH_UNIT (LENGTH_MEASURE( 1.000000000000000082E-05 ), #345, 'distance_accuracy_value', 'NONE');
#161 = DIRECTION ( 'NONE',  ( 1.000000000000000000, 0.000000000000000000, 0.000000000000000000 ) ) ;
#162 = PERSON_AND_ORGANIZATION ( #175, #88 ) ;
#163 = DIRECTION ( 'NONE',  ( 0.000000000000000000, 0.000000000000000000, 1.000000000000000000 ) ) ;
#164 = DIRECTION ( 'NONE',  ( 1.000000000000000000, 0.000000000000000000, 0.000000000000000000 ) ) ;
#165 = CARTESIAN_POINT ( 'NONE',  ( 0.000000000000000000, 0.000000000000000000, 253.0000000000000000 ) ) ;
#166 = VECTOR ( 'NONE', #15, 1000.000000000000000 ) ;
#167 = AXIS2_PLACEMENT_3D ( 'NONE', #63, #54, #89 ) ;
#168 = PERSON_AND_ORGANIZATION ( #175, #88 ) ;
#169 = CYLINDRICAL_SURFACE ( 'NONE', #335, 1.000000000000000000 ) ;
#170 = DIRECTION ( 'NONE',  ( 1.000000000000000000, 0.000000000000000000, -0.000000000000000000 ) ) ;
#171 = VECTOR ( 'NONE', #44, 1000.000000000000000 ) ;
#172 = COORDINATED_UNIVERSAL_TIME_OFFSET ( 1, 0, .AHEAD. ) ;
#173 = PERSON_AND_ORGANIZATION ( #175, #88 ) ;
#174 = APPROVAL_PERSON_ORGANIZATION ( #173, #214, #292 ) ;
#175 = PERSON ( 'NEURÈENÝ', 'NEURÈENÝ', 'NEURÈENÝ', ('NEURÈENÝ'), ('NEURÈENÝ'), ('NEURÈENÝ') ) ;
#176 = PERSON_AND_ORGANIZATION_ROLE ( 'creator' ) ;
#177 = CYLINDRICAL_SURFACE ( 'NONE', #180, 4.000000000000000000 ) ;
#178 = EDGE_CURVE ( 'NONE', #154, #132, #113, .T. ) ;
#179 = DIRECTION ( 'NONE',  ( 1.000000000000000000, 0.000000000000000000, 0.000000000000000000 ) ) ;
#180 = AXIS2_PLACEMENT_3D ( 'NONE', #142, #272, #380 ) ;
#181 = ORIENTED_EDGE ( 'NONE', *, *, #26, .F. ) ;
#182 = ORIENTED_EDGE ( 'NONE', *, *, #217, .F. ) ;
#183 = AXIS2_PLACEMENT_3D ( 'NONE', #256, #226, #14 ) ;
#184 = ORIENTED_EDGE ( 'NONE', *, *, #312, .T. ) ;
#185 = EDGE_CURVE ( 'NONE', #119, #64, #49, .T. ) ;
#186 = CARTESIAN_POINT ( 'NONE',  ( 1.000000000000000000, 1.224646799147353207E-16, 0.000000000000000000 ) ) ;
#187 = ORIENTED_EDGE ( 'NONE', *, *, #178, .T. ) ;
#188 = ORIENTED_EDGE ( 'NONE', *, *, #71, .T. ) ;
#189 = CC_DESIGN_DATE_AND_TIME_ASSIGNMENT ( #201, #236, ( #120 ) ) ;
#190 = ADVANCED_FACE ( 'NONE', ( #136 ), #111, .F. ) ;
#191 = CALENDAR_DATE ( 2022, 8, 7 ) ;
#192 = ORIENTED_EDGE ( 'NONE', *, *, #82, .F. ) ;
#193 = DIRECTION ( 'NONE',  ( 0.000000000000000000, 0.000000000000000000, 1.000000000000000000 ) ) ;
#194 = VERTEX_POINT ( 'NONE', #24 ) ;
#195 = VECTOR ( 'NONE', #270, 1000.000000000000000 ) ;
#196 = DIRECTION ( 'NONE',  ( 1.000000000000000000, 0.000000000000000000, 0.000000000000000000 ) ) ;
#197 = PLANE ( 'NONE',  #97 ) ;
#198 = APPLICATION_PROTOCOL_DEFINITION ( 'international standard', 'config_control_design', 1994, #47 ) ;
#199 = CARTESIAN_POINT ( 'NONE',  ( 1.000000000000000000, 1.224646799147353207E-16, 253.0000000000000000 ) ) ;
#200 = ADVANCED_FACE ( 'NONE', ( #240 ), #177, .T. ) ;
#201 = DATE_AND_TIME ( #376, #223 ) ;
#202 = EDGE_LOOP ( 'NONE', ( #363, #192 ) ) ;
#203 = AXIS2_PLACEMENT_3D ( 'NONE', #279, #117, #362 ) ;
#204 = FACE_OUTER_BOUND ( 'NONE', #275, .T. ) ;
#205 = PERSON_AND_ORGANIZATION ( #175, #88 ) ;
#206 = ADVANCED_FACE ( 'NONE', ( #83 ), #169, .F. ) ;
#207 = DIRECTION ( 'NONE',  ( 1.000000000000000000, 0.000000000000000000, 0.000000000000000000 ) ) ;
#208 = DATE_AND_TIME ( #265, #353 ) ;
#209 = CARTESIAN_POINT ( 'NONE',  ( -4.000000000000000000, 0.000000000000000000, 0.000000000000000000 ) ) ;
#210 = CARTESIAN_POINT ( 'NONE',  ( 0.000000000000000000, 0.000000000000000000, 3.299999999999997158 ) ) ;
#211 = CIRCLE ( 'NONE', #267, 2.000000000000000000 ) ;
#212 = DIRECTION ( 'NONE',  ( 1.000000000000000000, 0.000000000000000000, 0.000000000000000000 ) ) ;
#213 = ORIENTED_EDGE ( 'NONE', *, *, #19, .T. ) ;
#214 = APPROVAL ( #354, 'NEURÈENÝ' ) ;
#215 = AXIS2_PLACEMENT_3D ( 'NONE', #57, #59, #305 ) ;
#216 = VERTEX_POINT ( 'NONE', #108 ) ;
#217 = EDGE_CURVE ( 'NONE', #216, #124, #291, .T. ) ;
#218 = CYLINDRICAL_SURFACE ( 'NONE', #167, 4.000000000000000000 ) ;
#219 = EDGE_LOOP ( 'NONE', ( #369, #118 ) ) ;
#220 = ORIENTED_EDGE ( 'NONE', *, *, #26, .T. ) ;
#221 = APPLICATION_CONTEXT ( 'configuration controlled 3d designs of mechanical parts and assemblies' ) ;
#222 = APPROVAL_ROLE ( '' ) ;
#223 = LOCAL_TIME ( 17, 54, 20.00000000000000000, #48 ) ;
#224 = CYLINDRICAL_SURFACE ( 'NONE', #379, 2.000000000000000000 ) ;
#225 =( NAMED_UNIT ( * ) PLANE_ANGLE_UNIT ( ) SI_UNIT ( $, .RADIAN. ) );
#226 = DIRECTION ( 'NONE',  ( 0.000000000000000000, 0.000000000000000000, 1.000000000000000000 ) ) ;
#227 = AXIS2_PLACEMENT_3D ( 'NONE', #129, #351, #347 ) ;
#228 = CC_DESIGN_DATE_AND_TIME_ASSIGNMENT ( #208, #352, ( #156 ) ) ;
#229 = FACE_BOUND ( 'NONE', #202, .T. ) ;
#230 = CC_DESIGN_SECURITY_CLASSIFICATION ( #120, ( #58 ) ) ;
#231 = PERSON_AND_ORGANIZATION_ROLE ( 'design_owner' ) ;
#232 = ORIENTED_EDGE ( 'NONE', *, *, #332, .T. ) ;
#233 = VERTEX_POINT ( 'NONE', #246 ) ;
#234 = CIRCLE ( 'NONE', #55, 1.000000000000000000 ) ;
#235 = DIRECTION ( 'NONE',  ( 1.000000000000000000, 0.000000000000000000, 0.000000000000000000 ) ) ;
#236 = DATE_TIME_ROLE ( 'classification_date' ) ;
#237 = DIRECTION ( 'NONE',  ( -0.000000000000000000, -0.000000000000000000, -1.000000000000000000 ) ) ;
#238 = CARTESIAN_POINT ( 'NONE',  ( -1.000000000000000000, 0.000000000000000000, 253.0000000000000000 ) ) ;
#239 = APPROVAL_DATE_TIME ( #20, #214 ) ;
#240 = FACE_OUTER_BOUND ( 'NONE', #60, .T. ) ;
#241 = AXIS2_PLACEMENT_3D ( 'NONE', #70, #310, #196 ) ;
#242 = ADVANCED_FACE ( 'NONE', ( #153 ), #268, .F. ) ;
#243 = ORIENTED_EDGE ( 'NONE', *, *, #66, .F. ) ;
#244 = ORIENTED_EDGE ( 'NONE', *, *, #53, .F. ) ;
#245 = EDGE_CURVE ( 'NONE', #4, #28, #69, .T. ) ;
#246 = CARTESIAN_POINT ( 'NONE',  ( -1.000000000000000000, 0.000000000000000000, 0.000000000000000000 ) ) ;
#247 = LOCAL_TIME ( 17, 54, 20.00000000000000000, #327 ) ;
#248 = EDGE_LOOP ( 'NONE', ( #361, #37 ) ) ;
#249 = LINE ( 'NONE', #307, #339 ) ;
#250 = ORIENTED_EDGE ( 'NONE', *, *, #71, .F. ) ;
#251 = CC_DESIGN_PERSON_AND_ORGANIZATION_ASSIGNMENT ( #205, #298, ( #120 ) ) ;
#252 = EDGE_CURVE ( 'NONE', #158, #1, #261, .T. ) ;
#253 = EDGE_LOOP ( 'NONE', ( #243, #304, #184, #338 ) ) ;
#254 = CIRCLE ( 'NONE', #100, 0.2999999999999999334 ) ;
#255 = FACE_OUTER_BOUND ( 'NONE', #253, .T. ) ;
#256 = CARTESIAN_POINT ( 'NONE',  ( 0.000000000000000000, 0.000000000000000000, 253.0000000000000000 ) ) ;
#257 = ORIENTED_EDGE ( 'NONE', *, *, #178, .F. ) ;
#258 = CIRCLE ( 'NONE', #276, 0.2999999999999999334 ) ;
#259 = APPLICATION_PROTOCOL_DEFINITION ( 'international standard', 'config_control_design', 1994, #221 ) ;
#260 = FACE_OUTER_BOUND ( 'NONE', #41, .T. ) ;
#261 = CIRCLE ( 'NONE', #137, 2.299999999999999822 ) ;
#262 = CARTESIAN_POINT ( 'NONE',  ( 2.000000000000000000, 2.449293598294706414E-16, 253.0000000000000000 ) ) ;
#263 = ADVANCED_BREP_SHAPE_REPRESENTATION ( '25f8', ( #8, #241 ), #126 ) ;
#264 = ADVANCED_FACE ( 'NONE', ( #337 ), #218, .T. ) ;
#265 = CALENDAR_DATE ( 2022, 8, 7 ) ;
#266 = DIRECTION ( 'NONE',  ( 0.000000000000000000, 0.000000000000000000, -1.000000000000000000 ) ) ;
#267 = AXIS2_PLACEMENT_3D ( 'NONE', #23, #329, #207 ) ;
#268 = TOROIDAL_SURFACE ( 'NONE', #22, 2.299999999999999822, 0.2999999999999999889 ) ;
#269 = SHAPE_DEFINITION_REPRESENTATION ( #340, #263 ) ;
#270 = DIRECTION ( 'NONE',  ( -0.000000000000000000, -0.000000000000000000, -1.000000000000000000 ) ) ;
#271 = DIRECTION ( 'NONE',  ( -1.000000000000000000, 0.000000000000000000, 0.000000000000000000 ) ) ;
#272 = DIRECTION ( 'NONE',  ( -0.000000000000000000, -0.000000000000000000, -1.000000000000000000 ) ) ;
#273 = CIRCLE ( 'NONE', #364, 4.000000000000000000 ) ;
#274 = DIRECTION ( 'NONE',  ( 1.000000000000000000, 0.000000000000000000, 0.000000000000000000 ) ) ;
#275 = EDGE_LOOP ( 'NONE', ( #102, #75, #122, #334 ) ) ;
#276 = AXIS2_PLACEMENT_3D ( 'NONE', #290, #286, #67 ) ;
#277 = CARTESIAN_POINT ( 'NONE',  ( 2.299999999999999822, 0.000000000000000000, 3.299999999999997158 ) ) ;
#278 = ORIENTED_EDGE ( 'NONE', *, *, #95, .T. ) ;
#279 = CARTESIAN_POINT ( 'NONE',  ( 0.000000000000000000, 0.000000000000000000, 3.000000000000000000 ) ) ;
#280 = VERTEX_POINT ( 'NONE', #186 ) ;
#281 = ORIENTED_EDGE ( 'NONE', *, *, #185, .F. ) ;
#282 = CIRCLE ( 'NONE', #183, 1.000000000000000000 ) ;
#283 = CARTESIAN_POINT ( 'NONE',  ( 0.000000000000000000, 0.000000000000000000, 3.299999999999997158 ) ) ;
#284 = CC_DESIGN_PERSON_AND_ORGANIZATION_ASSIGNMENT ( #106, #74, ( #58 ) ) ;
#285 = DIRECTION ( 'NONE',  ( -1.000000000000000000, 0.000000000000000000, 0.000000000000000000 ) ) ;
#286 = DIRECTION ( 'NONE',  ( 1.224646799147353207E-16, 1.000000000000000000, -0.000000000000000000 ) ) ;
#287 = EDGE_CURVE ( 'NONE', #132, #64, #273, .T. ) ;
#288 = FACE_BOUND ( 'NONE', #11, .T. ) ;
#289 = APPROVAL_STATUS ( 'not_yet_approved' ) ;
#290 = CARTESIAN_POINT ( 'NONE',  ( -2.299999999999999822, 2.816687638038912056E-16, 3.299999999999997158 ) ) ;
#291 = CIRCLE ( 'NONE', #377, 2.000000000000000000 ) ;
#292 = APPROVAL_ROLE ( '' ) ;
#293 = EDGE_CURVE ( 'NONE', #1, #158, #93, .T. ) ;
#294 = CARTESIAN_POINT ( 'NONE',  ( 0.000000000000000000, 0.000000000000000000, 253.0000000000000000 ) ) ;
#295 = DIRECTION ( 'NONE',  ( 0.000000000000000000, 0.000000000000000000, -1.000000000000000000 ) ) ;
#296 = CALENDAR_DATE ( 2022, 8, 7 ) ;
#297 = CC_DESIGN_APPROVAL ( #350, ( #58 ) ) ;
#298 = PERSON_AND_ORGANIZATION_ROLE ( 'classification_officer' ) ;
#299 = CARTESIAN_POINT ( 'NONE',  ( 0.000000000000000000, 0.000000000000000000, 253.0000000000000000 ) ) ;
#300 = EDGE_CURVE ( 'NONE', #119, #154, #159, .T. ) ;
#301 = CARTESIAN_POINT ( 'NONE',  ( 0.000000000000000000, 0.000000000000000000, 3.000000000000000000 ) ) ;
#302 = ORIENTED_EDGE ( 'NONE', *, *, #312, .F. ) ;
#303 = CARTESIAN_POINT ( 'NONE',  ( 0.000000000000000000, 0.000000000000000000, 3.299999999999997158 ) ) ;
#304 = ORIENTED_EDGE ( 'NONE', *, *, #358, .T. ) ;
#305 = DIRECTION ( 'NONE',  ( 1.000000000000000000, 0.000000000000000000, -0.000000000000000000 ) ) ;
#306 = CIRCLE ( 'NONE', #131, 1.000000000000000000 ) ;
#307 = CARTESIAN_POINT ( 'NONE',  ( 2.000000000000000000, 2.449293598294706414E-16, 253.0000000000000000 ) ) ;
#308 = ADVANCED_FACE ( 'NONE', ( #333, #6 ), #359, .T. ) ;
#309 = EDGE_LOOP ( 'NONE', ( #318, #91, #9, #65 ) ) ;
#310 = DIRECTION ( 'NONE',  ( 0.000000000000000000, 0.000000000000000000, 1.000000000000000000 ) ) ;
#311 = CARTESIAN_POINT ( 'NONE',  ( 0.000000000000000000, 0.000000000000000000, 0.000000000000000000 ) ) ;
#312 = EDGE_CURVE ( 'NONE', #124, #216, #323, .T. ) ;
#313 = AXIS2_PLACEMENT_3D ( 'NONE', #143, #331, #115 ) ;
#314 = DIRECTION ( 'NONE',  ( -0.000000000000000000, -0.000000000000000000, -1.000000000000000000 ) ) ;
#315 = MECHANICAL_CONTEXT ( 'NONE', #221, 'mechanical' ) ;
#316 = CARTESIAN_POINT ( 'NONE',  ( 0.000000000000000000, 0.000000000000000000, 253.0000000000000000 ) ) ;
#317 = PERSON_AND_ORGANIZATION ( #175, #88 ) ;
#318 = ORIENTED_EDGE ( 'NONE', *, *, #19, .F. ) ;
#319 = CC_DESIGN_PERSON_AND_ORGANIZATION_ASSIGNMENT ( #168, #176, ( #58 ) ) ;
#320 = PERSON_AND_ORGANIZATION_ROLE ( 'creator' ) ;
#321 = PLANE ( 'NONE',  #104 ) ;
#322 = VECTOR ( 'NONE', #295, 1000.000000000000000 ) ;
#323 = CIRCLE ( 'NONE', #40, 2.000000000000000000 ) ;
#324 = CC_DESIGN_PERSON_AND_ORGANIZATION_ASSIGNMENT ( #162, #231, ( #29 ) ) ;
#325 = COORDINATED_UNIVERSAL_TIME_OFFSET ( 1, 0, .AHEAD. ) ;
#326 = CARTESIAN_POINT ( 'NONE',  ( 0.000000000000000000, 0.000000000000000000, 0.000000000000000000 ) ) ;
#327 = COORDINATED_UNIVERSAL_TIME_OFFSET ( 1, 0, .AHEAD. ) ;
#328 = CARTESIAN_POINT ( 'NONE',  ( -2.299999999999999822, 2.816687638038912056E-16, 2.999999999999998668 ) ) ;
#329 = DIRECTION ( 'NONE',  ( 0.000000000000000000, 0.000000000000000000, 1.000000000000000000 ) ) ;
#330 = CARTESIAN_POINT ( 'NONE',  ( 2.000000000000000000, 2.449293598294706414E-16, 3.299999999999997158 ) ) ;
#331 = DIRECTION ( 'NONE',  ( 0.000000000000000000, 0.000000000000000000, 1.000000000000000000 ) ) ;
#332 = EDGE_CURVE ( 'NONE', #124, #1, #254, .T. ) ;
#333 = FACE_BOUND ( 'NONE', #248, .T. ) ;
#334 = ORIENTED_EDGE ( 'NONE', *, *, #217, .T. ) ;
#335 = AXIS2_PLACEMENT_3D ( 'NONE', #294, #266, #17 ) ;
#336 = EDGE_LOOP ( 'NONE', ( #96, #302, #232, #62 ) ) ;
#337 = FACE_OUTER_BOUND ( 'NONE', #2, .T. ) ;
#338 = ORIENTED_EDGE ( 'NONE', *, *, #373, .F. ) ;
#339 = VECTOR ( 'NONE', #34, 1000.000000000000000 ) ;
#340 = PRODUCT_DEFINITION_SHAPE ( 'NONE', 'NONE',  #156 ) ;
#341 = COORDINATED_UNIVERSAL_TIME_OFFSET ( 1, 0, .AHEAD. ) ;
#342 = AXIS2_PLACEMENT_3D ( 'NONE', #301, #146, #61 ) ;
#343 = ORIENTED_EDGE ( 'NONE', *, *, #103, .F. ) ;
#344 = DESIGN_CONTEXT ( 'detailed design', #47, 'design' ) ;
#345 =( LENGTH_UNIT ( ) NAMED_UNIT ( * ) SI_UNIT ( .MILLI., .METRE. ) );
#346 = CARTESIAN_POINT ( 'NONE',  ( 0.000000000000000000, 0.000000000000000000, 3.000000000000000000 ) ) ;
#347 = DIRECTION ( 'NONE',  ( 1.000000000000000000, 0.000000000000000000, 0.000000000000000000 ) ) ;
#348 = CC_DESIGN_APPROVAL ( #149, ( #156 ) ) ;
#349 = CARTESIAN_POINT ( 'NONE',  ( 0.000000000000000000, 0.000000000000000000, 253.0000000000000000 ) ) ;
#350 = APPROVAL ( #141, 'NEURÈENÝ' ) ;
#351 = DIRECTION ( 'NONE',  ( 0.000000000000000000, 0.000000000000000000, 1.000000000000000000 ) ) ;
#352 = DATE_TIME_ROLE ( 'creation_date' ) ;
#353 = LOCAL_TIME ( 17, 54, 20.00000000000000000, #325 ) ;
#354 = APPROVAL_STATUS ( 'not_yet_approved' ) ;
#355 = CARTESIAN_POINT ( 'NONE',  ( -4.000000000000000000, 0.000000000000000000, 3.000000000000000000 ) ) ;
#356 = CYLINDRICAL_SURFACE ( 'NONE', #107, 2.000000000000000000 ) ;
#357 = CARTESIAN_POINT ( 'NONE',  ( 0.000000000000000000, 0.000000000000000000, 0.000000000000000000 ) ) ;
#358 = EDGE_CURVE ( 'NONE', #365, #124, #249, .T. ) ;
#359 = PLANE ( 'NONE',  #215 ) ;
#360 = DIRECTION ( 'NONE',  ( 0.000000000000000000, 0.000000000000000000, 1.000000000000000000 ) ) ;
#361 = ORIENTED_EDGE ( 'NONE', *, *, #293, .T. ) ;
#362 = DIRECTION ( 'NONE',  ( 1.000000000000000000, 0.000000000000000000, 0.000000000000000000 ) ) ;
#363 = ORIENTED_EDGE ( 'NONE', *, *, #245, .F. ) ;
#364 = AXIS2_PLACEMENT_3D ( 'NONE', #30, #84, #212 ) ;
#365 = VERTEX_POINT ( 'NONE', #262 ) ;
#366 = ADVANCED_FACE ( 'NONE', ( #128 ), #27, .F. ) ;
#367 = CARTESIAN_POINT ( 'NONE',  ( -2.000000000000000000, 0.000000000000000000, 253.0000000000000000 ) ) ;
#368 = CARTESIAN_POINT ( 'NONE',  ( 1.000000000000000000, 1.224646799147353207E-16, 253.0000000000000000 ) ) ;
#369 = ORIENTED_EDGE ( 'NONE', *, *, #53, .T. ) ;
#370 = APPROVAL_PERSON_ORGANIZATION ( #110, #350, #80 ) ;
#371 = DIRECTION ( 'NONE',  ( 1.000000000000000000, 0.000000000000000000, -0.000000000000000000 ) ) ;
#372 = DATE_AND_TIME ( #133, #247 ) ;
#373 = EDGE_CURVE ( 'NONE', #194, #216, #98, .T. ) ;
#374 = EDGE_LOOP ( 'NONE', ( #68, #213, #188, #116 ) ) ;
#375 = DIRECTION ( 'NONE',  ( 0.000000000000000000, 0.000000000000000000, 1.000000000000000000 ) ) ;
#376 = CALENDAR_DATE ( 2022, 8, 7 ) ;
#377 = AXIS2_PLACEMENT_3D ( 'NONE', #134, #375, #235 ) ;
#378 = CARTESIAN_POINT ( 'NONE',  ( 4.000000000000000000, 4.898587196589412829E-16, 3.000000000000000000 ) ) ;
#379 = AXIS2_PLACEMENT_3D ( 'NONE', #165, #314, #285 ) ;
#380 = DIRECTION ( 'NONE',  ( -1.000000000000000000, 0.000000000000000000, 0.000000000000000000 ) ) ;
#381 = LOCAL_TIME ( 17, 54, 20.00000000000000000, #341 ) ;
ENDSEC;
END-ISO-10303-21;
