ISO-10303-21;
HEADER;
FILE_DESCRIPTION (( 'STEP AP203' ),
    '1' );
FILE_NAME ('2a17.STEP',
    '2022-07-08T15:13:37',
    ( '' ),
    ( '' ),
    'SwSTEP 2.0',
    'SolidWorks 2019',
    '' );
FILE_SCHEMA (( 'CONFIG_CONTROL_DESIGN' ));
ENDSEC;

DATA;
#1 = CARTESIAN_POINT ( 'NONE',  ( 0.000000000000000000, 0.000000000000000000, 132.0000000000000000 ) ) ;
#2 = LOCAL_TIME ( 17, 13, 37.00000000000000000, #226 ) ;
#3 = DIRECTION ( 'NONE',  ( -1.000000000000000000, 0.000000000000000000, 0.000000000000000000 ) ) ;
#4 = DIRECTION ( 'NONE',  ( 1.000000000000000000, 0.000000000000000000, 0.000000000000000000 ) ) ;
#5 = CALENDAR_DATE ( 2022, 8, 7 ) ;
#6 = DIRECTION ( 'NONE',  ( 0.000000000000000000, 0.000000000000000000, 1.000000000000000000 ) ) ;
#7 = CIRCLE ( 'NONE', #233, 6.000000000000000888 ) ;
#8 = CARTESIAN_POINT ( 'NONE',  ( 0.000000000000000000, 0.000000000000000000, 0.000000000000000000 ) ) ;
#9 = CARTESIAN_POINT ( 'NONE',  ( 6.500000000000000888, 0.000000000000000000, 7.500000000000007105 ) ) ;
#10 = VERTEX_POINT ( 'NONE', #78 ) ;
#11 = EDGE_CURVE ( 'NONE', #350, #10, #299, .T. ) ;
#12 = ORIENTED_EDGE ( 'NONE', *, *, #145, .T. ) ;
#13 = AXIS2_PLACEMENT_3D ( 'NONE', #306, #359, #157 ) ;
#14 = ORIENTED_EDGE ( 'NONE', *, *, #260, .F. ) ;
#15 = EDGE_CURVE ( 'NONE', #307, #232, #152, .T. ) ;
#16 = ORIENTED_EDGE ( 'NONE', *, *, #111, .T. ) ;
#17 = ORIENTED_EDGE ( 'NONE', *, *, #169, .T. ) ;
#18 = ORIENTED_EDGE ( 'NONE', *, *, #229, .T. ) ;
#19 = ADVANCED_FACE ( 'NONE', ( #82 ), #379, .F. ) ;
#20 = DIRECTION ( 'NONE',  ( 1.000000000000000000, 0.000000000000000000, 0.000000000000000000 ) ) ;
#21 = EDGE_CURVE ( 'NONE', #208, #288, #310, .T. ) ;
#22 = CARTESIAN_POINT ( 'NONE',  ( 10.00000000000000000, 1.224646799147353256E-15, 7.000000000000000000 ) ) ;
#23 = LOCAL_TIME ( 17, 13, 37.00000000000000000, #199 ) ;
#24 = DIRECTION ( 'NONE',  ( -0.000000000000000000, -0.000000000000000000, -1.000000000000000000 ) ) ;
#25 = DIRECTION ( 'NONE',  ( -0.000000000000000000, -0.000000000000000000, -1.000000000000000000 ) ) ;
#26 = DIRECTION ( 'NONE',  ( 1.000000000000000000, 0.000000000000000000, 0.000000000000000000 ) ) ;
#27 = CARTESIAN_POINT ( 'NONE',  ( -6.500000000000000888, 7.960204194457796463E-16, 7.000000000000002665 ) ) ;
#28 = EDGE_CURVE ( 'NONE', #286, #37, #179, .T. ) ;
#29 = CARTESIAN_POINT ( 'NONE',  ( 0.000000000000000000, 0.000000000000000000, 132.0000000000000000 ) ) ;
#30 = DIRECTION ( 'NONE',  ( 0.000000000000000000, 0.000000000000000000, 1.000000000000000000 ) ) ;
#31 = ORIENTED_EDGE ( 'NONE', *, *, #43, .F. ) ;
#32 = SECURITY_CLASSIFICATION ( '', '', #230 ) ;
#33 = COORDINATED_UNIVERSAL_TIME_OFFSET ( 1, 0, .AHEAD. ) ;
#34 = DIRECTION ( 'NONE',  ( -1.000000000000000000, 1.224646799147351482E-16, 0.000000000000000000 ) ) ;
#35 = CALENDAR_DATE ( 2022, 8, 7 ) ;
#36 = ORIENTED_EDGE ( 'NONE', *, *, #11, .F. ) ;
#37 = VERTEX_POINT ( 'NONE', #178 ) ;
#38 = AXIS2_PLACEMENT_3D ( 'NONE', #170, #225, #101 ) ;
#39 = ORIENTED_EDGE ( 'NONE', *, *, #11, .T. ) ;
#40 = FACE_OUTER_BOUND ( 'NONE', #348, .T. ) ;
#41 = VERTEX_POINT ( 'NONE', #351 ) ;
#42 = DATE_TIME_ROLE ( 'classification_date' ) ;
#43 = EDGE_CURVE ( 'NONE', #209, #37, #352, .T. ) ;
#44 = ORIENTED_EDGE ( 'NONE', *, *, #264, .T. ) ;
#45 = CIRCLE ( 'NONE', #336, 0.5000000000000004441 ) ;
#46 = AXIS2_PLACEMENT_3D ( 'NONE', #216, #112, #265 ) ;
#47 = DIRECTION ( 'NONE',  ( -0.000000000000000000, -0.000000000000000000, -1.000000000000000000 ) ) ;
#48 = PRODUCT ( '2a17', '2a17', '', ( #287 ) ) ;
#49 = CARTESIAN_POINT ( 'NONE',  ( 0.000000000000000000, 0.000000000000000000, 0.000000000000000000 ) ) ;
#50 = CARTESIAN_POINT ( 'NONE',  ( 0.000000000000000000, 0.000000000000000000, 7.000000000000000000 ) ) ;
#51 = ADVANCED_FACE ( 'NONE', ( #268, #147 ), #56, .T. ) ;
#52 = VECTOR ( 'NONE', #183, 1000.000000000000000 ) ;
#53 = CARTESIAN_POINT ( 'NONE',  ( 6.000000000000000888, 7.347880794884120722E-16, 132.0000000000000000 ) ) ;
#54 = CIRCLE ( 'NONE', #13, 6.000000000000000888 ) ;
#55 = TOROIDAL_SURFACE ( 'NONE', #221, 6.500000000000000888, 0.5000000000000000000 ) ;
#56 = PLANE ( 'NONE',  #300 ) ;
#57 = CC_DESIGN_PERSON_AND_ORGANIZATION_ASSIGNMENT ( #77, #292, ( #32 ) ) ;
#58 = DIRECTION ( 'NONE',  ( 1.000000000000000000, 0.000000000000000000, 0.000000000000000000 ) ) ;
#59 = DIRECTION ( 'NONE',  ( -0.000000000000000000, -0.000000000000000000, -1.000000000000000000 ) ) ;
#60 = EDGE_CURVE ( 'NONE', #288, #208, #146, .T. ) ;
#61 = AXIS2_PLACEMENT_3D ( 'NONE', #8, #63, #120 ) ;
#62 = DIRECTION ( 'NONE',  ( 0.000000000000000000, 0.000000000000000000, 1.000000000000000000 ) ) ;
#63 = DIRECTION ( 'NONE',  ( 0.000000000000000000, 0.000000000000000000, 1.000000000000000000 ) ) ;
#64 = VECTOR ( 'NONE', #320, 1000.000000000000000 ) ;
#65 = CARTESIAN_POINT ( 'NONE',  ( 0.000000000000000000, 0.000000000000000000, 7.500000000000007105 ) ) ;
#66 = PERSON_AND_ORGANIZATION ( #98, #89 ) ;
#67 = APPROVAL_ROLE ( '' ) ;
#68 = EDGE_LOOP ( 'NONE', ( #366, #137, #280, #228 ) ) ;
#69 = APPLICATION_CONTEXT ( 'configuration controlled 3d designs of mechanical parts and assemblies' ) ;
#70 =( LENGTH_UNIT ( ) NAMED_UNIT ( * ) SI_UNIT ( .MILLI., .METRE. ) );
#71 = ORIENTED_EDGE ( 'NONE', *, *, #166, .T. ) ;
#72 = AXIS2_PLACEMENT_3D ( 'NONE', #87, #59, #4 ) ;
#73 = CC_DESIGN_APPROVAL ( #371, ( #311 ) ) ;
#74 = PERSON_AND_ORGANIZATION_ROLE ( 'creator' ) ;
#75 = EDGE_LOOP ( 'NONE', ( #159, #71, #377, #343 ) ) ;
#76 = ORIENTED_EDGE ( 'NONE', *, *, #188, .T. ) ;
#77 = PERSON_AND_ORGANIZATION ( #98, #89 ) ;
#78 = CARTESIAN_POINT ( 'NONE',  ( 6.000000000000000888, 7.347880794884120722E-16, 7.500000000000007105 ) ) ;
#79 = AXIS2_PLACEMENT_3D ( 'NONE', #50, #328, #26 ) ;
#80 = CYLINDRICAL_SURFACE ( 'NONE', #201, 10.00000000000000000 ) ;
#81 = DIRECTION ( 'NONE',  ( 0.000000000000000000, 0.000000000000000000, 1.000000000000000000 ) ) ;
#82 = FACE_OUTER_BOUND ( 'NONE', #75, .T. ) ;
#83 = CIRCLE ( 'NONE', #175, 2.500000000000000000 ) ;
#84 = DIRECTION ( 'NONE',  ( -0.000000000000000000, -0.000000000000000000, -1.000000000000000000 ) ) ;
#85 = FACE_OUTER_BOUND ( 'NONE', #68, .T. ) ;
#86 = ADVANCED_FACE ( 'NONE', ( #270 ), #80, .T. ) ;
#87 = CARTESIAN_POINT ( 'NONE',  ( 0.000000000000000000, 0.000000000000000000, 7.000000000000000000 ) ) ;
#88 = VECTOR ( 'NONE', #148, 1000.000000000000000 ) ;
#89 = ORGANIZATION ( 'NEURÈENÝ', 'NEURÈENÝ', '' ) ;
#90 = CARTESIAN_POINT ( 'NONE',  ( 0.000000000000000000, 0.000000000000000000, 132.0000000000000000 ) ) ;
#91 = CARTESIAN_POINT ( 'NONE',  ( -6.500000000000000888, 7.960204194457796463E-16, 7.500000000000007105 ) ) ;
#92 = CC_DESIGN_PERSON_AND_ORGANIZATION_ASSIGNMENT ( #365, #74, ( #318 ) ) ;
#93 = LINE ( 'NONE', #194, #205 ) ;
#94 = CIRCLE ( 'NONE', #321, 6.000000000000000888 ) ;
#95 = APPROVAL ( #134, 'NEURÈENÝ' ) ;
#96 = EDGE_CURVE ( 'NONE', #227, #165, #107, .T. ) ;
#97 = DIRECTION ( 'NONE',  ( 1.000000000000000000, 0.000000000000000000, -0.000000000000000000 ) ) ;
#98 = PERSON ( 'NEURÈENÝ', 'NEURÈENÝ', 'NEURÈENÝ', ('NEURÈENÝ'), ('NEURÈENÝ'), ('NEURÈENÝ') ) ;
#99 = ORIENTED_EDGE ( 'NONE', *, *, #96, .T. ) ;
#100 = ORIENTED_EDGE ( 'NONE', *, *, #60, .T. ) ;
#101 = DIRECTION ( 'NONE',  ( 1.000000000000000000, 0.000000000000000000, 0.000000000000000000 ) ) ;
#102 = ORIENTED_EDGE ( 'NONE', *, *, #28, .T. ) ;
#103 = APPROVAL_PERSON_ORGANIZATION ( #347, #95, #136 ) ;
#104 = ORIENTED_EDGE ( 'NONE', *, *, #15, .T. ) ;
#105 = ADVANCED_FACE ( 'NONE', ( #239 ), #294, .T. ) ;
#106 = ORIENTED_EDGE ( 'NONE', *, *, #243, .T. ) ;
#107 = CIRCLE ( 'NONE', #358, 10.00000000000000000 ) ;
#108 = CARTESIAN_POINT ( 'NONE',  ( 0.000000000000000000, 0.000000000000000000, 7.000000000000000000 ) ) ;
#109 = CC_DESIGN_PERSON_AND_ORGANIZATION_ASSIGNMENT ( #196, #281, ( #311 ) ) ;
#110 = PRODUCT_RELATED_PRODUCT_CATEGORY ( 'detail', '', ( #48 ) ) ;
#111 = EDGE_CURVE ( 'NONE', #165, #208, #237, .T. ) ;
#112 = DIRECTION ( 'NONE',  ( -0.000000000000000000, -0.000000000000000000, -1.000000000000000000 ) ) ;
#113 = DIRECTION ( 'NONE',  ( -1.000000000000000000, 0.000000000000000000, 0.000000000000000000 ) ) ;
#114 = ADVANCED_FACE ( 'NONE', ( #118 ), #176, .F. ) ;
#115 = DIRECTION ( 'NONE',  ( -1.000000000000000000, 0.000000000000000000, 0.000000000000000000 ) ) ;
#116 = ADVANCED_FACE ( 'NONE', ( #242 ), #181, .T. ) ;
#117 = CC_DESIGN_APPROVAL ( #95, ( #318 ) ) ;
#118 = FACE_OUTER_BOUND ( 'NONE', #309, .T. ) ;
#119 = CIRCLE ( 'NONE', #271, 6.000000000000000888 ) ;
#120 = DIRECTION ( 'NONE',  ( 1.000000000000000000, 0.000000000000000000, -0.000000000000000000 ) ) ;
#121 = APPLICATION_CONTEXT ( 'configuration controlled 3d designs of mechanical parts and assemblies' ) ;
#122 = ORIENTED_EDGE ( 'NONE', *, *, #60, .F. ) ;
#123 = CARTESIAN_POINT ( 'NONE',  ( 0.000000000000000000, 0.000000000000000000, 132.0000000000000000 ) ) ;
#124 = DESIGN_CONTEXT ( 'detailed design', #69, 'design' ) ;
#125 = LOCAL_TIME ( 17, 13, 37.00000000000000000, #33 ) ;
#126 = DIRECTION ( 'NONE',  ( 0.000000000000000000, 0.000000000000000000, 1.000000000000000000 ) ) ;
#127 = CARTESIAN_POINT ( 'NONE',  ( -2.500000000000000000, 0.000000000000000000, 132.0000000000000000 ) ) ;
#128 = DIRECTION ( 'NONE',  ( 0.000000000000000000, -1.000000000000000000, 0.000000000000000000 ) ) ;
#129 = AXIS2_PLACEMENT_3D ( 'NONE', #151, #81, #380 ) ;
#130 = AXIS2_PLACEMENT_3D ( 'NONE', #49, #24, #269 ) ;
#131 = PERSON_AND_ORGANIZATION_ROLE ( 'design_owner' ) ;
#132 = EDGE_LOOP ( 'NONE', ( #36, #263, #18, #174 ) ) ;
#133 = CIRCLE ( 'NONE', #46, 2.500000000000000000 ) ;
#134 = APPROVAL_STATUS ( 'not_yet_approved' ) ;
#135 = ORIENTED_EDGE ( 'NONE', *, *, #15, .F. ) ;
#136 = APPROVAL_ROLE ( '' ) ;
#137 = ORIENTED_EDGE ( 'NONE', *, *, #249, .T. ) ;
#138 = PERSON_AND_ORGANIZATION ( #98, #89 ) ;
#139 = CC_DESIGN_PERSON_AND_ORGANIZATION_ASSIGNMENT ( #161, #273, ( #311 ) ) ;
#140 = ORIENTED_EDGE ( 'NONE', *, *, #21, .T. ) ;
#141 =( GEOMETRIC_REPRESENTATION_CONTEXT ( 3 ) GLOBAL_UNCERTAINTY_ASSIGNED_CONTEXT ( ( #304 ) ) GLOBAL_UNIT_ASSIGNED_CONTEXT ( ( #70, #167, #207 ) ) REPRESENTATION_CONTEXT ( 'NONE', 'WORKASPACE' ) );
#142 = AXIS2_PLACEMENT_3D ( 'NONE', #298, #84, #211 ) ;
#143 = ORIENTED_EDGE ( 'NONE', *, *, #260, .T. ) ;
#144 = CARTESIAN_POINT ( 'NONE',  ( -2.500000000000000000, 0.000000000000000000, 132.0000000000000000 ) ) ;
#145 = EDGE_CURVE ( 'NONE', #227, #288, #210, .T. ) ;
#146 = CIRCLE ( 'NONE', #129, 10.00000000000000000 ) ;
#147 = FACE_OUTER_BOUND ( 'NONE', #349, .T. ) ;
#148 = DIRECTION ( 'NONE',  ( 0.000000000000000000, 0.000000000000000000, -1.000000000000000000 ) ) ;
#149 = CARTESIAN_POINT ( 'NONE',  ( 0.000000000000000000, 0.000000000000000000, 7.500000000000007105 ) ) ;
#150 = EDGE_CURVE ( 'NONE', #37, #286, #133, .T. ) ;
#151 = CARTESIAN_POINT ( 'NONE',  ( 0.000000000000000000, 0.000000000000000000, 0.000000000000000000 ) ) ;
#152 = CIRCLE ( 'NONE', #79, 6.500000000000000888 ) ;
#153 = CYLINDRICAL_SURFACE ( 'NONE', #267, 6.000000000000000888 ) ;
#154 = EDGE_LOOP ( 'NONE', ( #168, #14, #16, #140 ) ) ;
#155 = APPROVAL_ROLE ( '' ) ;
#156 = LINE ( 'NONE', #248, #52 ) ;
#157 = DIRECTION ( 'NONE',  ( 1.000000000000000000, 0.000000000000000000, 0.000000000000000000 ) ) ;
#158 = FACE_BOUND ( 'NONE', #314, .T. ) ;
#159 = ORIENTED_EDGE ( 'NONE', *, *, #243, .F. ) ;
#160 = CIRCLE ( 'NONE', #246, 0.5000000000000004441 ) ;
#161 = PERSON_AND_ORGANIZATION ( #98, #89 ) ;
#162 = DIRECTION ( 'NONE',  ( 1.000000000000000000, 0.000000000000000000, 0.000000000000000000 ) ) ;
#163 = ORIENTED_EDGE ( 'NONE', *, *, #96, .F. ) ;
#164 = FACE_BOUND ( 'NONE', #200, .T. ) ;
#165 = VERTEX_POINT ( 'NONE', #303 ) ;
#166 = EDGE_CURVE ( 'NONE', #172, #209, #195, .T. ) ;
#167 =( NAMED_UNIT ( * ) PLANE_ANGLE_UNIT ( ) SI_UNIT ( $, .RADIAN. ) );
#168 = ORIENTED_EDGE ( 'NONE', *, *, #145, .F. ) ;
#169 = EDGE_CURVE ( 'NONE', #41, #350, #7, .T. ) ;
#170 = CARTESIAN_POINT ( 'NONE',  ( 0.000000000000000000, 0.000000000000000000, 0.000000000000000000 ) ) ;
#171 = EDGE_LOOP ( 'NONE', ( #236, #104 ) ) ;
#172 = VERTEX_POINT ( 'NONE', #277 ) ;
#173 = CALENDAR_DATE ( 2022, 8, 7 ) ;
#174 = ORIENTED_EDGE ( 'NONE', *, *, #192, .T. ) ;
#175 = AXIS2_PLACEMENT_3D ( 'NONE', #274, #30, #162 ) ;
#176 = TOROIDAL_SURFACE ( 'NONE', #337, 6.500000000000000888, 0.5000000000000000000 ) ;
#177 = DIRECTION ( 'NONE',  ( 1.000000000000000000, 0.000000000000000000, -0.000000000000000000 ) ) ;
#178 = CARTESIAN_POINT ( 'NONE',  ( -2.500000000000000000, 0.000000000000000000, 0.000000000000000000 ) ) ;
#179 = CIRCLE ( 'NONE', #130, 2.500000000000000000 ) ;
#180 = DIRECTION ( 'NONE',  ( 0.000000000000000000, 0.000000000000000000, 1.000000000000000000 ) ) ;
#181 = CYLINDRICAL_SURFACE ( 'NONE', #142, 10.00000000000000000 ) ;
#182 = DIRECTION ( 'NONE',  ( -0.000000000000000000, -0.000000000000000000, -1.000000000000000000 ) ) ;
#183 = DIRECTION ( 'NONE',  ( 0.000000000000000000, 0.000000000000000000, -1.000000000000000000 ) ) ;
#184 = CARTESIAN_POINT ( 'NONE',  ( -6.000000000000000888, 0.000000000000000000, 7.500000000000007105 ) ) ;
#185 = AXIS2_PLACEMENT_3D ( 'NONE', #1, #25, #115 ) ;
#186 = CC_DESIGN_DATE_AND_TIME_ASSIGNMENT ( #315, #290, ( #318 ) ) ;
#187 = CC_DESIGN_DATE_AND_TIME_ASSIGNMENT ( #317, #42, ( #32 ) ) ;
#188 = EDGE_CURVE ( 'NONE', #10, #340, #119, .T. ) ;
#189 = CARTESIAN_POINT ( 'NONE',  ( 0.000000000000000000, 0.000000000000000000, 7.500000000000007105 ) ) ;
#190 = EDGE_CURVE ( 'NONE', #350, #41, #94, .T. ) ;
#191 = CARTESIAN_POINT ( 'NONE',  ( 6.500000000000000888, 0.000000000000000000, 7.000000000000002665 ) ) ;
#192 = EDGE_CURVE ( 'NONE', #340, #10, #54, .T. ) ;
#193 = APPROVAL_PERSON_ORGANIZATION ( #338, #283, #67 ) ;
#194 = CARTESIAN_POINT ( 'NONE',  ( -6.000000000000000888, 0.000000000000000000, 132.0000000000000000 ) ) ;
#195 = CIRCLE ( 'NONE', #313, 2.500000000000000000 ) ;
#196 = PERSON_AND_ORGANIZATION ( #98, #89 ) ;
#197 = ORIENTED_EDGE ( 'NONE', *, *, #166, .F. ) ;
#198 = COORDINATED_UNIVERSAL_TIME_OFFSET ( 1, 0, .AHEAD. ) ;
#199 = COORDINATED_UNIVERSAL_TIME_OFFSET ( 1, 0, .AHEAD. ) ;
#200 = EDGE_LOOP ( 'NONE', ( #259, #197 ) ) ;
#201 = AXIS2_PLACEMENT_3D ( 'NONE', #295, #182, #266 ) ;
#202 = PLANE ( 'NONE',  #206 ) ;
#203 = CIRCLE ( 'NONE', #72, 6.500000000000000888 ) ;
#204 = ORIENTED_EDGE ( 'NONE', *, *, #21, .F. ) ;
#205 = VECTOR ( 'NONE', #224, 1000.000000000000000 ) ;
#206 = AXIS2_PLACEMENT_3D ( 'NONE', #254, #285, #97 ) ;
#207 =( NAMED_UNIT ( * ) SI_UNIT ( $, .STERADIAN. ) SOLID_ANGLE_UNIT ( ) );
#208 = VERTEX_POINT ( 'NONE', #219 ) ;
#209 = VERTEX_POINT ( 'NONE', #127 ) ;
#210 = LINE ( 'NONE', #22, #261 ) ;
#211 = DIRECTION ( 'NONE',  ( -1.000000000000000000, 0.000000000000000000, 0.000000000000000000 ) ) ;
#212 = DIRECTION ( 'NONE',  ( 1.000000000000000000, 0.000000000000000000, 0.000000000000000000 ) ) ;
#213 = MANIFOLD_SOLID_BREP ( 'Odebrat vysunutím3', #344 ) ;
#214 = AXIS2_PLACEMENT_3D ( 'NONE', #323, #180, #212 ) ;
#215 = DIRECTION ( 'NONE',  ( -0.000000000000000000, -0.000000000000000000, -1.000000000000000000 ) ) ;
#216 = CARTESIAN_POINT ( 'NONE',  ( 0.000000000000000000, 0.000000000000000000, 0.000000000000000000 ) ) ;
#217 = ADVANCED_BREP_SHAPE_REPRESENTATION ( '2a17', ( #213, #38 ), #141 ) ;
#218 = CARTESIAN_POINT ( 'NONE',  ( 10.00000000000000000, 1.224646799147353256E-15, 0.000000000000000000 ) ) ;
#219 = CARTESIAN_POINT ( 'NONE',  ( -10.00000000000000000, 0.000000000000000000, 0.000000000000000000 ) ) ;
#220 = ADVANCED_FACE ( 'NONE', ( #158, #244 ), #250, .F. ) ;
#221 = AXIS2_PLACEMENT_3D ( 'NONE', #189, #329, #58 ) ;
#222 = DIRECTION ( 'NONE',  ( 0.000000000000000000, 0.000000000000000000, 1.000000000000000000 ) ) ;
#223 = DIRECTION ( 'NONE',  ( 1.000000000000000000, 0.000000000000000000, 0.000000000000000000 ) ) ;
#224 = DIRECTION ( 'NONE',  ( -0.000000000000000000, -0.000000000000000000, -1.000000000000000000 ) ) ;
#225 = DIRECTION ( 'NONE',  ( 0.000000000000000000, 0.000000000000000000, 1.000000000000000000 ) ) ;
#226 = COORDINATED_UNIVERSAL_TIME_OFFSET ( 1, 0, .AHEAD. ) ;
#227 = VERTEX_POINT ( 'NONE', #361 ) ;
#228 = ORIENTED_EDGE ( 'NONE', *, *, #264, .F. ) ;
#229 = EDGE_CURVE ( 'NONE', #41, #340, #93, .T. ) ;
#230 = SECURITY_CLASSIFICATION_LEVEL ( 'unclassified' ) ;
#231 = APPROVAL_DATE_TIME ( #256, #95 ) ;
#232 = VERTEX_POINT ( 'NONE', #191 ) ;
#233 = AXIS2_PLACEMENT_3D ( 'NONE', #90, #6, #330 ) ;
#234 = CC_DESIGN_SECURITY_CLASSIFICATION ( #32, ( #311 ) ) ;
#235 = ORIENTED_EDGE ( 'NONE', *, *, #253, .T. ) ;
#236 = ORIENTED_EDGE ( 'NONE', *, *, #332, .T. ) ;
#237 = LINE ( 'NONE', #353, #326 ) ;
#238 = DIRECTION ( 'NONE',  ( 0.000000000000000000, 0.000000000000000000, -1.000000000000000000 ) ) ;
#239 = FACE_OUTER_BOUND ( 'NONE', #252, .T. ) ;
#240 = AXIS2_PLACEMENT_3D ( 'NONE', #296, #238, #113 ) ;
#241 = DIRECTION ( 'NONE',  ( 0.000000000000000000, 0.000000000000000000, 1.000000000000000000 ) ) ;
#242 = FACE_OUTER_BOUND ( 'NONE', #154, .T. ) ;
#243 = EDGE_CURVE ( 'NONE', #172, #286, #156, .T. ) ;
#244 = FACE_OUTER_BOUND ( 'NONE', #374, .T. ) ;
#245 = CARTESIAN_POINT ( 'NONE',  ( 0.000000000000000000, 0.000000000000000000, 132.0000000000000000 ) ) ;
#246 = AXIS2_PLACEMENT_3D ( 'NONE', #91, #335, #34 ) ;
#247 = DATE_AND_TIME ( #5, #125 ) ;
#248 = CARTESIAN_POINT ( 'NONE',  ( 2.500000000000000000, 3.061616997868383141E-16, 132.0000000000000000 ) ) ;
#249 = EDGE_CURVE ( 'NONE', #340, #307, #160, .T. ) ;
#250 = PLANE ( 'NONE',  #61 ) ;
#251 = DIRECTION ( 'NONE',  ( 0.000000000000000000, 0.000000000000000000, -1.000000000000000000 ) ) ;
#252 = EDGE_LOOP ( 'NONE', ( #316, #39, #76, #257 ) ) ;
#253 = EDGE_CURVE ( 'NONE', #209, #172, #83, .T. ) ;
#254 = CARTESIAN_POINT ( 'NONE',  ( 0.000000000000000000, 0.000000000000000000, 132.0000000000000000 ) ) ;
#255 = ORIENTED_EDGE ( 'NONE', *, *, #190, .T. ) ;
#256 = DATE_AND_TIME ( #35, #23 ) ;
#257 = ORIENTED_EDGE ( 'NONE', *, *, #229, .F. ) ;
#258 = APPLICATION_PROTOCOL_DEFINITION ( 'international standard', 'config_control_design', 1994, #69 ) ;
#259 = ORIENTED_EDGE ( 'NONE', *, *, #253, .F. ) ;
#260 = EDGE_CURVE ( 'NONE', #165, #227, #276, .T. ) ;
#261 = VECTOR ( 'NONE', #47, 1000.000000000000000 ) ;
#262 = APPROVAL_STATUS ( 'not_yet_approved' ) ;
#263 = ORIENTED_EDGE ( 'NONE', *, *, #169, .F. ) ;
#264 = EDGE_CURVE ( 'NONE', #10, #232, #45, .T. ) ;
#265 = DIRECTION ( 'NONE',  ( 1.000000000000000000, 0.000000000000000000, 0.000000000000000000 ) ) ;
#266 = DIRECTION ( 'NONE',  ( -1.000000000000000000, 0.000000000000000000, 0.000000000000000000 ) ) ;
#267 = AXIS2_PLACEMENT_3D ( 'NONE', #29, #272, #3 ) ;
#268 = FACE_BOUND ( 'NONE', #171, .T. ) ;
#269 = DIRECTION ( 'NONE',  ( 1.000000000000000000, 0.000000000000000000, 0.000000000000000000 ) ) ;
#270 = FACE_OUTER_BOUND ( 'NONE', #282, .T. ) ;
#271 = AXIS2_PLACEMENT_3D ( 'NONE', #65, #334, #223 ) ;
#272 = DIRECTION ( 'NONE',  ( -0.000000000000000000, -0.000000000000000000, -1.000000000000000000 ) ) ;
#273 = PERSON_AND_ORGANIZATION_ROLE ( 'creator' ) ;
#274 = CARTESIAN_POINT ( 'NONE',  ( 0.000000000000000000, 0.000000000000000000, 132.0000000000000000 ) ) ;
#275 = CARTESIAN_POINT ( 'NONE',  ( 6.000000000000000888, 7.347880794884120722E-16, 132.0000000000000000 ) ) ;
#276 = CIRCLE ( 'NONE', #375, 10.00000000000000000 ) ;
#277 = CARTESIAN_POINT ( 'NONE',  ( 2.500000000000000000, 3.061616997868383141E-16, 132.0000000000000000 ) ) ;
#278 = AXIS2_PLACEMENT_3D ( 'NONE', #364, #251, #342 ) ;
#279 = DIRECTION ( 'NONE',  ( 1.000000000000000000, 0.000000000000000000, 0.000000000000000000 ) ) ;
#280 = ORIENTED_EDGE ( 'NONE', *, *, #332, .F. ) ;
#281 = PERSON_AND_ORGANIZATION_ROLE ( 'design_supplier' ) ;
#282 = EDGE_LOOP ( 'NONE', ( #163, #12, #100, #293 ) ) ;
#283 = APPROVAL ( #262, 'NEURÈENÝ' ) ;
#284 = ADVANCED_FACE ( 'NONE', ( #85 ), #55, .F. ) ;
#285 = DIRECTION ( 'NONE',  ( 0.000000000000000000, 0.000000000000000000, 1.000000000000000000 ) ) ;
#286 = VERTEX_POINT ( 'NONE', #357 ) ;
#287 = MECHANICAL_CONTEXT ( 'NONE', #121, 'mechanical' ) ;
#288 = VERTEX_POINT ( 'NONE', #218 ) ;
#289 = CALENDAR_DATE ( 2022, 8, 7 ) ;
#290 = DATE_TIME_ROLE ( 'creation_date' ) ;
#291 = EDGE_LOOP ( 'NONE', ( #235, #106, #102, #31 ) ) ;
#292 = PERSON_AND_ORGANIZATION_ROLE ( 'classification_officer' ) ;
#293 = ORIENTED_EDGE ( 'NONE', *, *, #111, .F. ) ;
#294 = CYLINDRICAL_SURFACE ( 'NONE', #185, 6.000000000000000888 ) ;
#295 = CARTESIAN_POINT ( 'NONE',  ( 0.000000000000000000, 0.000000000000000000, 7.000000000000000000 ) ) ;
#296 = CARTESIAN_POINT ( 'NONE',  ( 0.000000000000000000, 0.000000000000000000, 132.0000000000000000 ) ) ;
#297 = APPROVAL_PERSON_ORGANIZATION ( #138, #371, #155 ) ;
#298 = CARTESIAN_POINT ( 'NONE',  ( 0.000000000000000000, 0.000000000000000000, 7.000000000000000000 ) ) ;
#299 = LINE ( 'NONE', #53, #64 ) ;
#300 = AXIS2_PLACEMENT_3D ( 'NONE', #378, #324, #177 ) ;
#301 = FACE_OUTER_BOUND ( 'NONE', #132, .T. ) ;
#302 = ORIENTED_EDGE ( 'NONE', *, *, #249, .F. ) ;
#303 = CARTESIAN_POINT ( 'NONE',  ( -10.00000000000000000, 0.000000000000000000, 7.000000000000000000 ) ) ;
#304 = UNCERTAINTY_MEASURE_WITH_UNIT (LENGTH_MEASURE( 1.000000000000000082E-05 ), #70, 'distance_accuracy_value', 'NONE');
#305 = DIRECTION ( 'NONE',  ( 1.000000000000000000, 0.000000000000000000, 0.000000000000000000 ) ) ;
#306 = CARTESIAN_POINT ( 'NONE',  ( 0.000000000000000000, 0.000000000000000000, 7.500000000000007105 ) ) ;
#307 = VERTEX_POINT ( 'NONE', #27 ) ;
#308 = COORDINATED_UNIVERSAL_TIME_OFFSET ( 1, 0, .AHEAD. ) ;
#309 = EDGE_LOOP ( 'NONE', ( #302, #369, #44, #135 ) ) ;
#310 = CIRCLE ( 'NONE', #214, 10.00000000000000000 ) ;
#311 = PRODUCT_DEFINITION_FORMATION_WITH_SPECIFIED_SOURCE ( 'LIBOVOLNÝ', '', #48, .NOT_KNOWN. ) ;
#312 = APPLICATION_PROTOCOL_DEFINITION ( 'international standard', 'config_control_design', 1994, #121 ) ;
#313 = AXIS2_PLACEMENT_3D ( 'NONE', #123, #222, #363 ) ;
#314 = EDGE_LOOP ( 'NONE', ( #319, #372 ) ) ;
#315 = DATE_AND_TIME ( #339, #2 ) ;
#316 = ORIENTED_EDGE ( 'NONE', *, *, #190, .F. ) ;
#317 = DATE_AND_TIME ( #289, #360 ) ;
#318 = PRODUCT_DEFINITION ( 'NEZNÁMÝ', '', #311, #124 ) ;
#319 = ORIENTED_EDGE ( 'NONE', *, *, #150, .F. ) ;
#320 = DIRECTION ( 'NONE',  ( -0.000000000000000000, -0.000000000000000000, -1.000000000000000000 ) ) ;
#321 = AXIS2_PLACEMENT_3D ( 'NONE', #245, #126, #305 ) ;
#322 = PRODUCT_DEFINITION_SHAPE ( 'NONE', 'NONE',  #318 ) ;
#323 = CARTESIAN_POINT ( 'NONE',  ( 0.000000000000000000, 0.000000000000000000, 0.000000000000000000 ) ) ;
#324 = DIRECTION ( 'NONE',  ( 0.000000000000000000, 0.000000000000000000, 1.000000000000000000 ) ) ;
#325 = ADVANCED_FACE ( 'NONE', ( #301 ), #153, .T. ) ;
#326 = VECTOR ( 'NONE', #215, 1000.000000000000000 ) ;
#327 = LOCAL_TIME ( 17, 13, 37.00000000000000000, #308 ) ;
#328 = DIRECTION ( 'NONE',  ( -0.000000000000000000, -0.000000000000000000, -1.000000000000000000 ) ) ;
#329 = DIRECTION ( 'NONE',  ( 0.000000000000000000, 0.000000000000000000, 1.000000000000000000 ) ) ;
#330 = DIRECTION ( 'NONE',  ( 1.000000000000000000, 0.000000000000000000, 0.000000000000000000 ) ) ;
#331 = CARTESIAN_POINT ( 'NONE',  ( 0.000000000000000000, 0.000000000000000000, 7.000000000000000000 ) ) ;
#332 = EDGE_CURVE ( 'NONE', #232, #307, #203, .T. ) ;
#333 = APPROVAL_DATE_TIME ( #247, #371 ) ;
#334 = DIRECTION ( 'NONE',  ( 0.000000000000000000, 0.000000000000000000, 1.000000000000000000 ) ) ;
#335 = DIRECTION ( 'NONE',  ( 1.224646799147353207E-16, 1.000000000000000000, -0.000000000000000000 ) ) ;
#336 = AXIS2_PLACEMENT_3D ( 'NONE', #9, #128, #356 ) ;
#337 = AXIS2_PLACEMENT_3D ( 'NONE', #149, #241, #354 ) ;
#338 = PERSON_AND_ORGANIZATION ( #98, #89 ) ;
#339 = CALENDAR_DATE ( 2022, 8, 7 ) ;
#340 = VERTEX_POINT ( 'NONE', #184 ) ;
#341 = DATE_AND_TIME ( #173, #327 ) ;
#342 = DIRECTION ( 'NONE',  ( -1.000000000000000000, 0.000000000000000000, 0.000000000000000000 ) ) ;
#343 = ORIENTED_EDGE ( 'NONE', *, *, #150, .T. ) ;
#344 = CLOSED_SHELL ( 'NONE', ( #362, #284, #105, #86, #116, #51, #220, #325, #355, #114, #19 ) ) ;
#345 = APPROVAL_DATE_TIME ( #341, #283 ) ;
#346 = CC_DESIGN_APPROVAL ( #283, ( #32 ) ) ;
#347 = PERSON_AND_ORGANIZATION ( #98, #89 ) ;
#348 = EDGE_LOOP ( 'NONE', ( #17, #255 ) ) ;
#349 = EDGE_LOOP ( 'NONE', ( #143, #99 ) ) ;
#350 = VERTEX_POINT ( 'NONE', #275 ) ;
#351 = CARTESIAN_POINT ( 'NONE',  ( -6.000000000000000888, 0.000000000000000000, 132.0000000000000000 ) ) ;
#352 = LINE ( 'NONE', #144, #88 ) ;
#353 = CARTESIAN_POINT ( 'NONE',  ( -10.00000000000000000, 0.000000000000000000, 7.000000000000000000 ) ) ;
#354 = DIRECTION ( 'NONE',  ( 1.000000000000000000, 0.000000000000000000, 0.000000000000000000 ) ) ;
#355 = ADVANCED_FACE ( 'NONE', ( #164, #40 ), #202, .T. ) ;
#356 = DIRECTION ( 'NONE',  ( 0.000000000000000000, 0.000000000000000000, -1.000000000000000000 ) ) ;
#357 = CARTESIAN_POINT ( 'NONE',  ( 2.500000000000000000, 3.061616997868383141E-16, 0.000000000000000000 ) ) ;
#358 = AXIS2_PLACEMENT_3D ( 'NONE', #108, #381, #20 ) ;
#359 = DIRECTION ( 'NONE',  ( 0.000000000000000000, 0.000000000000000000, 1.000000000000000000 ) ) ;
#360 = LOCAL_TIME ( 17, 13, 37.00000000000000000, #198 ) ;
#361 = CARTESIAN_POINT ( 'NONE',  ( 10.00000000000000000, 1.224646799147353256E-15, 7.000000000000000000 ) ) ;
#362 = ADVANCED_FACE ( 'NONE', ( #368 ), #370, .F. ) ;
#363 = DIRECTION ( 'NONE',  ( 1.000000000000000000, 0.000000000000000000, 0.000000000000000000 ) ) ;
#364 = CARTESIAN_POINT ( 'NONE',  ( 0.000000000000000000, 0.000000000000000000, 132.0000000000000000 ) ) ;
#365 = PERSON_AND_ORGANIZATION ( #98, #89 ) ;
#366 = ORIENTED_EDGE ( 'NONE', *, *, #192, .F. ) ;
#367 = CC_DESIGN_PERSON_AND_ORGANIZATION_ASSIGNMENT ( #66, #131, ( #48 ) ) ;
#368 = FACE_OUTER_BOUND ( 'NONE', #291, .T. ) ;
#369 = ORIENTED_EDGE ( 'NONE', *, *, #188, .F. ) ;
#370 = CYLINDRICAL_SURFACE ( 'NONE', #278, 2.500000000000000000 ) ;
#371 = APPROVAL ( #373, 'NEURÈENÝ' ) ;
#372 = ORIENTED_EDGE ( 'NONE', *, *, #28, .F. ) ;
#373 = APPROVAL_STATUS ( 'not_yet_approved' ) ;
#374 = EDGE_LOOP ( 'NONE', ( #204, #122 ) ) ;
#375 = AXIS2_PLACEMENT_3D ( 'NONE', #331, #62, #279 ) ;
#376 = SHAPE_DEFINITION_REPRESENTATION ( #322, #217 ) ;
#377 = ORIENTED_EDGE ( 'NONE', *, *, #43, .T. ) ;
#378 = CARTESIAN_POINT ( 'NONE',  ( 0.000000000000000000, 0.000000000000000000, 7.000000000000000000 ) ) ;
#379 = CYLINDRICAL_SURFACE ( 'NONE', #240, 2.500000000000000000 ) ;
#380 = DIRECTION ( 'NONE',  ( 1.000000000000000000, 0.000000000000000000, 0.000000000000000000 ) ) ;
#381 = DIRECTION ( 'NONE',  ( 0.000000000000000000, 0.000000000000000000, 1.000000000000000000 ) ) ;
ENDSEC;
END-ISO-10303-21;
