ISO-10303-21;
HEADER;
FILE_DESCRIPTION (( 'STEP AP203' ),
    '1' );
FILE_NAME ('eebb.STEP',
    '2022-07-08T14:20:07',
    ( '' ),
    ( '' ),
    'SwSTEP 2.0',
    'SolidWorks 2019',
    '' );
FILE_SCHEMA (( 'CONFIG_CONTROL_DESIGN' ));
ENDSEC;

DATA;
#1 = MECHANICAL_CONTEXT ( 'NONE', #351, 'mechanical' ) ;
#2 = DIRECTION ( 'NONE',  ( 0.000000000000000000, 0.000000000000000000, 1.000000000000000000 ) ) ;
#3 = CC_DESIGN_APPROVAL ( #281, ( #99 ) ) ;
#4 = DATE_TIME_ROLE ( 'creation_date' ) ;
#5 = COORDINATED_UNIVERSAL_TIME_OFFSET ( 1, 0, .AHEAD. ) ;
#6 = CIRCLE ( 'NONE', #219, 11.00000000000000000 ) ;
#7 = APPROVAL_PERSON_ORGANIZATION ( #256, #163, #144 ) ;
#8 = ADVANCED_FACE ( 'NONE', ( #305 ), #19, .T. ) ;
#9 = PRODUCT ( 'eebb', 'eebb', '', ( #1 ) ) ;
#10 = CC_DESIGN_PERSON_AND_ORGANIZATION_ASSIGNMENT ( #178, #151, ( #99 ) ) ;
#11 = AXIS2_PLACEMENT_3D ( 'NONE', #83, #116, #25 ) ;
#12 = CIRCLE ( 'NONE', #155, 8.000000000000000000 ) ;
#13 = FACE_BOUND ( 'NONE', #377, .T. ) ;
#14 = EDGE_LOOP ( 'NONE', ( #16, #109 ) ) ;
#15 = CARTESIAN_POINT ( 'NONE',  ( 0.000000000000000000, 0.000000000000000000, 0.000000000000000000 ) ) ;
#16 = ORIENTED_EDGE ( 'NONE', *, *, #157, .F. ) ;
#17 = AXIS2_PLACEMENT_3D ( 'NONE', #15, #188, #135 ) ;
#18 = PLANE ( 'NONE',  #311 ) ;
#19 = CYLINDRICAL_SURFACE ( 'NONE', #287, 11.00000000000000000 ) ;
#20 = CYLINDRICAL_SURFACE ( 'NONE', #119, 6.000000000000000888 ) ;
#21 = VERTEX_POINT ( 'NONE', #51 ) ;
#22 = ORIENTED_EDGE ( 'NONE', *, *, #29, .T. ) ;
#23 = CARTESIAN_POINT ( 'NONE',  ( 0.000000000000000000, 0.000000000000000000, 167.0000000000000000 ) ) ;
#24 = FACE_OUTER_BOUND ( 'NONE', #187, .T. ) ;
#25 = DIRECTION ( 'NONE',  ( 1.000000000000000000, 0.000000000000000000, 0.000000000000000000 ) ) ;
#26 = ORGANIZATION ( 'NEURÈENÝ', 'NEURÈENÝ', '' ) ;
#27 =( NAMED_UNIT ( * ) SI_UNIT ( $, .STERADIAN. ) SOLID_ANGLE_UNIT ( ) );
#28 = LINE ( 'NONE', #118, #319 ) ;
#29 = EDGE_CURVE ( 'NONE', #137, #227, #208, .T. ) ;
#30 = ADVANCED_FACE ( 'NONE', ( #145 ), #347, .T. ) ;
#31 = VERTEX_POINT ( 'NONE', #90 ) ;
#32 = DIRECTION ( 'NONE',  ( 0.000000000000000000, 0.000000000000000000, 1.000000000000000000 ) ) ;
#33 = CARTESIAN_POINT ( 'NONE',  ( 11.00000000000000000, 1.347111479062088405E-15, 7.000000000000000000 ) ) ;
#34 = APPROVAL_DATE_TIME ( #298, #108 ) ;
#35 = CALENDAR_DATE ( 2022, 8, 7 ) ;
#36 = CC_DESIGN_PERSON_AND_ORGANIZATION_ASSIGNMENT ( #207, #58, ( #9 ) ) ;
#37 = SHAPE_DEFINITION_REPRESENTATION ( #95, #97 ) ;
#38 = AXIS2_PLACEMENT_3D ( 'NONE', #372, #113, #263 ) ;
#39 = CYLINDRICAL_SURFACE ( 'NONE', #258, 6.000000000000000888 ) ;
#40 = ORIENTED_EDGE ( 'NONE', *, *, #230, .T. ) ;
#41 = DIRECTION ( 'NONE',  ( -0.000000000000000000, -0.000000000000000000, -1.000000000000000000 ) ) ;
#42 = ORIENTED_EDGE ( 'NONE', *, *, #295, .T. ) ;
#43 = FACE_OUTER_BOUND ( 'NONE', #273, .T. ) ;
#44 = ORIENTED_EDGE ( 'NONE', *, *, #217, .T. ) ;
#45 = AXIS2_PLACEMENT_3D ( 'NONE', #257, #343, #264 ) ;
#46 = CARTESIAN_POINT ( 'NONE',  ( -11.00000000000000000, 0.000000000000000000, 7.000000000000000000 ) ) ;
#47 = VERTEX_POINT ( 'NONE', #376 ) ;
#48 = CARTESIAN_POINT ( 'NONE',  ( 0.000000000000000000, 0.000000000000000000, 167.0000000000000000 ) ) ;
#49 = CC_DESIGN_DATE_AND_TIME_ASSIGNMENT ( #64, #4, ( #324 ) ) ;
#50 = APPROVAL_DATE_TIME ( #315, #163 ) ;
#51 = CARTESIAN_POINT ( 'NONE',  ( -6.000000000000000888, 0.000000000000000000, 167.0000000000000000 ) ) ;
#52 = DIRECTION ( 'NONE',  ( 0.000000000000000000, 0.000000000000000000, 1.000000000000000000 ) ) ;
#53 = CIRCLE ( 'NONE', #63, 6.000000000000000888 ) ;
#54 = DIRECTION ( 'NONE',  ( -0.000000000000000000, -0.000000000000000000, -1.000000000000000000 ) ) ;
#55 = PRODUCT_DEFINITION_FORMATION_WITH_SPECIFIED_SOURCE ( 'LIBOVOLNÝ', '', #9, .NOT_KNOWN. ) ;
#56 = ORIENTED_EDGE ( 'NONE', *, *, #370, .F. ) ;
#57 = DIRECTION ( 'NONE',  ( 0.000000000000000000, 0.000000000000000000, 1.000000000000000000 ) ) ;
#58 = PERSON_AND_ORGANIZATION_ROLE ( 'design_owner' ) ;
#59 = DIRECTION ( 'NONE',  ( 1.000000000000000000, 0.000000000000000000, 0.000000000000000000 ) ) ;
#60 = MANIFOLD_SOLID_BREP ( 'Odebrat vysunutím3', #194 ) ;
#61 = ADVANCED_FACE ( 'NONE', ( #24 ), #236, .T. ) ;
#62 = COORDINATED_UNIVERSAL_TIME_OFFSET ( 1, 0, .AHEAD. ) ;
#63 = AXIS2_PLACEMENT_3D ( 'NONE', #259, #32, #150 ) ;
#64 = DATE_AND_TIME ( #93, #179 ) ;
#65 = AXIS2_PLACEMENT_3D ( 'NONE', #100, #130, #222 ) ;
#66 = LOCAL_TIME ( 16, 20, 7.000000000000000000, #5 ) ;
#67 = DIRECTION ( 'NONE',  ( 0.000000000000000000, 0.000000000000000000, -1.000000000000000000 ) ) ;
#68 = EDGE_LOOP ( 'NONE', ( #165, #101, #42, #335 ) ) ;
#69 = CIRCLE ( 'NONE', #244, 8.699999999999999289 ) ;
#70 = LINE ( 'NONE', #192, #234 ) ;
#71 = ORIENTED_EDGE ( 'NONE', *, *, #205, .F. ) ;
#72 = CARTESIAN_POINT ( 'NONE',  ( 0.000000000000000000, 0.000000000000000000, 7.700000000000012612 ) ) ;
#73 = ORIENTED_EDGE ( 'NONE', *, *, #209, .T. ) ;
#74 = DIRECTION ( 'NONE',  ( 0.000000000000000000, 0.000000000000000000, 1.000000000000000000 ) ) ;
#75 = ORIENTED_EDGE ( 'NONE', *, *, #242, .T. ) ;
#76 = CC_DESIGN_PERSON_AND_ORGANIZATION_ASSIGNMENT ( #237, #96, ( #55 ) ) ;
#77 = VECTOR ( 'NONE', #228, 1000.000000000000000 ) ;
#78 = ORIENTED_EDGE ( 'NONE', *, *, #203, .F. ) ;
#79 = APPROVAL_PERSON_ORGANIZATION ( #127, #108, #349 ) ;
#80 = CARTESIAN_POINT ( 'NONE',  ( 0.000000000000000000, 0.000000000000000000, 167.0000000000000000 ) ) ;
#81 = ORIENTED_EDGE ( 'NONE', *, *, #94, .F. ) ;
#82 = APPLICATION_PROTOCOL_DEFINITION ( 'international standard', 'config_control_design', 1994, #171 ) ;
#83 = CARTESIAN_POINT ( 'NONE',  ( 0.000000000000000000, 0.000000000000000000, 0.000000000000000000 ) ) ;
#84 = CARTESIAN_POINT ( 'NONE',  ( 6.000000000000000888, 7.347880794884119736E-16, 0.000000000000000000 ) ) ;
#85 = DIRECTION ( 'NONE',  ( 1.000000000000000000, 0.000000000000000000, 0.000000000000000000 ) ) ;
#86 = DIRECTION ( 'NONE',  ( 1.000000000000000000, 0.000000000000000000, -0.000000000000000000 ) ) ;
#87 = CIRCLE ( 'NONE', #98, 8.699999999999999289 ) ;
#88 = CARTESIAN_POINT ( 'NONE',  ( 0.000000000000000000, 0.000000000000000000, 167.0000000000000000 ) ) ;
#89 = APPLICATION_PROTOCOL_DEFINITION ( 'international standard', 'config_control_design', 1994, #351 ) ;
#90 = CARTESIAN_POINT ( 'NONE',  ( -11.00000000000000000, 0.000000000000000000, 7.000000000000000000 ) ) ;
#91 = APPROVAL_DATE_TIME ( #326, #281 ) ;
#92 =( GEOMETRIC_REPRESENTATION_CONTEXT ( 3 ) GLOBAL_UNCERTAINTY_ASSIGNED_CONTEXT ( ( #126 ) ) GLOBAL_UNIT_ASSIGNED_CONTEXT ( ( #231, #344, #27 ) ) REPRESENTATION_CONTEXT ( 'NONE', 'WORKASPACE' ) );
#93 = CALENDAR_DATE ( 2022, 8, 7 ) ;
#94 = EDGE_CURVE ( 'NONE', #308, #314, #182, .T. ) ;
#95 = PRODUCT_DEFINITION_SHAPE ( 'NONE', 'NONE',  #324 ) ;
#96 = PERSON_AND_ORGANIZATION_ROLE ( 'creator' ) ;
#97 = ADVANCED_BREP_SHAPE_REPRESENTATION ( 'eebb', ( #60, #38 ), #92 ) ;
#98 = AXIS2_PLACEMENT_3D ( 'NONE', #304, #169, #110 ) ;
#99 = SECURITY_CLASSIFICATION ( '', '', #355 ) ;
#100 = CARTESIAN_POINT ( 'NONE',  ( 0.000000000000000000, 0.000000000000000000, 7.700000000000012612 ) ) ;
#101 = ORIENTED_EDGE ( 'NONE', *, *, #309, .F. ) ;
#102 = ORIENTED_EDGE ( 'NONE', *, *, #217, .F. ) ;
#103 = AXIS2_PLACEMENT_3D ( 'NONE', #262, #114, #85 ) ;
#104 = CIRCLE ( 'NONE', #166, 11.00000000000000000 ) ;
#105 = DIRECTION ( 'NONE',  ( 0.000000000000000000, 0.000000000000000000, -1.000000000000000000 ) ) ;
#106 = ORIENTED_EDGE ( 'NONE', *, *, #29, .F. ) ;
#107 = CARTESIAN_POINT ( 'NONE',  ( 0.000000000000000000, 0.000000000000000000, 167.0000000000000000 ) ) ;
#108 = APPROVAL ( #213, 'NEURÈENÝ' ) ;
#109 = ORIENTED_EDGE ( 'NONE', *, *, #307, .F. ) ;
#110 = DIRECTION ( 'NONE',  ( 1.000000000000000000, 0.000000000000000000, 0.000000000000000000 ) ) ;
#111 = ORIENTED_EDGE ( 'NONE', *, *, #296, .T. ) ;
#112 = ORIENTED_EDGE ( 'NONE', *, *, #161, .F. ) ;
#113 = DIRECTION ( 'NONE',  ( 0.000000000000000000, 0.000000000000000000, 1.000000000000000000 ) ) ;
#114 = DIRECTION ( 'NONE',  ( 0.000000000000000000, 0.000000000000000000, 1.000000000000000000 ) ) ;
#115 = FACE_OUTER_BOUND ( 'NONE', #252, .T. ) ;
#116 = DIRECTION ( 'NONE',  ( -0.000000000000000000, -0.000000000000000000, -1.000000000000000000 ) ) ;
#117 = CARTESIAN_POINT ( 'NONE',  ( 0.000000000000000000, 0.000000000000000000, 0.000000000000000000 ) ) ;
#118 = CARTESIAN_POINT ( 'NONE',  ( -6.000000000000000888, 0.000000000000000000, 167.0000000000000000 ) ) ;
#119 = AXIS2_PLACEMENT_3D ( 'NONE', #80, #245, #274 ) ;
#120 = CARTESIAN_POINT ( 'NONE',  ( 0.000000000000000000, 0.000000000000000000, 167.0000000000000000 ) ) ;
#121 = DATE_AND_TIME ( #210, #172 ) ;
#122 = ADVANCED_FACE ( 'NONE', ( #286 ), #176, .T. ) ;
#123 = CALENDAR_DATE ( 2022, 8, 7 ) ;
#124 = AXIS2_PLACEMENT_3D ( 'NONE', #88, #170, #373 ) ;
#125 = TOROIDAL_SURFACE ( 'NONE', #212, 8.699999999999999289, 0.6999999999999999556 ) ;
#126 = UNCERTAINTY_MEASURE_WITH_UNIT (LENGTH_MEASURE( 1.000000000000000082E-05 ), #231, 'distance_accuracy_value', 'NONE');
#127 = PERSON_AND_ORGANIZATION ( #183, #26 ) ;
#128 = CARTESIAN_POINT ( 'NONE',  ( 8.699999999999999289, 0.000000000000000000, 7.700000000000012612 ) ) ;
#129 = ORIENTED_EDGE ( 'NONE', *, *, #232, .F. ) ;
#130 = DIRECTION ( 'NONE',  ( 0.000000000000000000, 0.000000000000000000, 1.000000000000000000 ) ) ;
#131 = ORIENTED_EDGE ( 'NONE', *, *, #149, .F. ) ;
#132 = CIRCLE ( 'NONE', #17, 6.000000000000000888 ) ;
#133 = FACE_OUTER_BOUND ( 'NONE', #193, .T. ) ;
#134 = CARTESIAN_POINT ( 'NONE',  ( 0.000000000000000000, 0.000000000000000000, 7.000000000000000000 ) ) ;
#135 = DIRECTION ( 'NONE',  ( 1.000000000000000000, 0.000000000000000000, 0.000000000000000000 ) ) ;
#136 = ORIENTED_EDGE ( 'NONE', *, *, #241, .T. ) ;
#137 = VERTEX_POINT ( 'NONE', #33 ) ;
#138 = DIRECTION ( 'NONE',  ( 1.000000000000000000, 0.000000000000000000, 0.000000000000000000 ) ) ;
#139 = LINE ( 'NONE', #318, #238 ) ;
#140 = TOROIDAL_SURFACE ( 'NONE', #154, 8.699999999999999289, 0.6999999999999999556 ) ;
#141 = DIRECTION ( 'NONE',  ( 0.000000000000000000, 0.000000000000000000, 1.000000000000000000 ) ) ;
#142 = CARTESIAN_POINT ( 'NONE',  ( 0.000000000000000000, 0.000000000000000000, 7.000000000000000000 ) ) ;
#143 = ORIENTED_EDGE ( 'NONE', *, *, #240, .T. ) ;
#144 = APPROVAL_ROLE ( '' ) ;
#145 = FACE_OUTER_BOUND ( 'NONE', #206, .T. ) ;
#146 = ORIENTED_EDGE ( 'NONE', *, *, #157, .T. ) ;
#147 = DIRECTION ( 'NONE',  ( 0.000000000000000000, 0.000000000000000000, 1.000000000000000000 ) ) ;
#148 = CIRCLE ( 'NONE', #11, 6.000000000000000888 ) ;
#149 = EDGE_CURVE ( 'NONE', #339, #366, #148, .T. ) ;
#150 = DIRECTION ( 'NONE',  ( 1.000000000000000000, 0.000000000000000000, 0.000000000000000000 ) ) ;
#151 = PERSON_AND_ORGANIZATION_ROLE ( 'classification_officer' ) ;
#152 = APPROVAL_STATUS ( 'not_yet_approved' ) ;
#153 = CIRCLE ( 'NONE', #356, 11.00000000000000000 ) ;
#154 = AXIS2_PLACEMENT_3D ( 'NONE', #72, #251, #369 ) ;
#155 = AXIS2_PLACEMENT_3D ( 'NONE', #107, #364, #190 ) ;
#156 = CARTESIAN_POINT ( 'NONE',  ( 0.000000000000000000, 0.000000000000000000, 0.000000000000000000 ) ) ;
#157 = EDGE_CURVE ( 'NONE', #21, #289, #53, .T. ) ;
#158 = EDGE_LOOP ( 'NONE', ( #131, #340 ) ) ;
#159 = CARTESIAN_POINT ( 'NONE',  ( 0.000000000000000000, 0.000000000000000000, 167.0000000000000000 ) ) ;
#160 = EDGE_CURVE ( 'NONE', #308, #191, #265, .T. ) ;
#161 = EDGE_CURVE ( 'NONE', #47, #225, #330, .T. ) ;
#162 = ORIENTED_EDGE ( 'NONE', *, *, #370, .T. ) ;
#163 = APPROVAL ( #341, 'NEURÈENÝ' ) ;
#164 = PLANE ( 'NONE',  #354 ) ;
#165 = ORIENTED_EDGE ( 'NONE', *, *, #243, .F. ) ;
#166 = AXIS2_PLACEMENT_3D ( 'NONE', #378, #141, #285 ) ;
#167 = FACE_BOUND ( 'NONE', #14, .T. ) ;
#168 = EDGE_LOOP ( 'NONE', ( #146, #189, #75, #102 ) ) ;
#169 = DIRECTION ( 'NONE',  ( -0.000000000000000000, -0.000000000000000000, -1.000000000000000000 ) ) ;
#170 = DIRECTION ( 'NONE',  ( -0.000000000000000000, -0.000000000000000000, -1.000000000000000000 ) ) ;
#171 = APPLICATION_CONTEXT ( 'configuration controlled 3d designs of mechanical parts and assemblies' ) ;
#172 = LOCAL_TIME ( 16, 20, 7.000000000000000000, #62 ) ;
#173 = DIRECTION ( 'NONE',  ( 1.000000000000000000, 0.000000000000000000, 0.000000000000000000 ) ) ;
#174 = CARTESIAN_POINT ( 'NONE',  ( 0.000000000000000000, 0.000000000000000000, 7.700000000000012612 ) ) ;
#175 = CC_DESIGN_PERSON_AND_ORGANIZATION_ASSIGNMENT ( #181, #211, ( #324 ) ) ;
#176 = CYLINDRICAL_SURFACE ( 'NONE', #177, 8.000000000000000000 ) ;
#177 = AXIS2_PLACEMENT_3D ( 'NONE', #120, #293, #284 ) ;
#178 = PERSON_AND_ORGANIZATION ( #183, #26 ) ;
#179 = LOCAL_TIME ( 16, 20, 7.000000000000000000, #214 ) ;
#180 = PERSON_AND_ORGANIZATION ( #183, #26 ) ;
#181 = PERSON_AND_ORGANIZATION ( #183, #26 ) ;
#182 = CIRCLE ( 'NONE', #353, 8.000000000000000000 ) ;
#183 = PERSON ( 'NEURÈENÝ', 'NEURÈENÝ', 'NEURÈENÝ', ('NEURÈENÝ'), ('NEURÈENÝ'), ('NEURÈENÝ') ) ;
#184 = CC_DESIGN_DATE_AND_TIME_ASSIGNMENT ( #121, #269, ( #99 ) ) ;
#185 = DESIGN_CONTEXT ( 'detailed design', #171, 'design' ) ;
#186 = DIRECTION ( 'NONE',  ( -1.000000000000000000, 0.000000000000000000, 0.000000000000000000 ) ) ;
#187 = EDGE_LOOP ( 'NONE', ( #112, #282, #312, #223 ) ) ;
#188 = DIRECTION ( 'NONE',  ( -0.000000000000000000, -0.000000000000000000, -1.000000000000000000 ) ) ;
#189 = ORIENTED_EDGE ( 'NONE', *, *, #203, .T. ) ;
#190 = DIRECTION ( 'NONE',  ( 1.000000000000000000, 0.000000000000000000, 0.000000000000000000 ) ) ;
#191 = VERTEX_POINT ( 'NONE', #267 ) ;
#192 = CARTESIAN_POINT ( 'NONE',  ( 8.000000000000000000, 9.797174393178825657E-16, 167.0000000000000000 ) ) ;
#193 = EDGE_LOOP ( 'NONE', ( #81, #260, #255, #362 ) ) ;
#194 = CLOSED_SHELL ( 'NONE', ( #270, #300, #61, #8, #30, #254, #359, #122, #325, #380, #352 ) ) ;
#195 = CARTESIAN_POINT ( 'NONE',  ( 8.699999999999999289, 0.000000000000000000, 7.000000000000006217 ) ) ;
#196 = EDGE_LOOP ( 'NONE', ( #279, #22, #136, #221 ) ) ;
#197 = COORDINATED_UNIVERSAL_TIME_OFFSET ( 1, 0, .AHEAD. ) ;
#198 = DIRECTION ( 'NONE',  ( -1.000000000000000000, 1.224646799147353207E-16, 0.000000000000000000 ) ) ;
#199 = CARTESIAN_POINT ( 'NONE',  ( 11.00000000000000000, 1.347111479062088405E-15, 7.000000000000000000 ) ) ;
#200 = CIRCLE ( 'NONE', #297, 11.00000000000000000 ) ;
#201 = ORIENTED_EDGE ( 'NONE', *, *, #309, .T. ) ;
#202 = VECTOR ( 'NONE', #248, 1000.000000000000000 ) ;
#203 = EDGE_CURVE ( 'NONE', #289, #366, #139, .T. ) ;
#204 = CARTESIAN_POINT ( 'NONE',  ( 0.000000000000000000, 0.000000000000000000, 7.000000000000000000 ) ) ;
#205 = EDGE_CURVE ( 'NONE', #31, #137, #6, .T. ) ;
#206 = EDGE_LOOP ( 'NONE', ( #106, #71, #111, #162 ) ) ;
#207 = PERSON_AND_ORGANIZATION ( #183, #26 ) ;
#208 = LINE ( 'NONE', #199, #77 ) ;
#209 = EDGE_CURVE ( 'NONE', #191, #329, #69, .T. ) ;
#210 = CALENDAR_DATE ( 2022, 8, 7 ) ;
#211 = PERSON_AND_ORGANIZATION_ROLE ( 'creator' ) ;
#212 = AXIS2_PLACEMENT_3D ( 'NONE', #322, #52, #138 ) ;
#213 = APPROVAL_STATUS ( 'not_yet_approved' ) ;
#214 = COORDINATED_UNIVERSAL_TIME_OFFSET ( 1, 0, .AHEAD. ) ;
#215 = DIRECTION ( 'NONE',  ( 1.000000000000000000, 0.000000000000000000, -0.000000000000000000 ) ) ;
#216 = ORIENTED_EDGE ( 'NONE', *, *, #209, .F. ) ;
#217 = EDGE_CURVE ( 'NONE', #21, #339, #28, .T. ) ;
#218 = DIRECTION ( 'NONE',  ( -0.000000000000000000, -0.000000000000000000, -1.000000000000000000 ) ) ;
#219 = AXIS2_PLACEMENT_3D ( 'NONE', #379, #147, #316 ) ;
#220 = AXIS2_PLACEMENT_3D ( 'NONE', #117, #346, #86 ) ;
#221 = ORIENTED_EDGE ( 'NONE', *, *, #296, .F. ) ;
#222 = DIRECTION ( 'NONE',  ( 1.000000000000000000, 0.000000000000000000, 0.000000000000000000 ) ) ;
#223 = ORIENTED_EDGE ( 'NONE', *, *, #295, .F. ) ;
#224 = DIRECTION ( 'NONE',  ( 0.000000000000000000, 0.000000000000000000, 1.000000000000000000 ) ) ;
#225 = VERTEX_POINT ( 'NONE', #345 ) ;
#226 = DIRECTION ( 'NONE',  ( 1.000000000000000000, 0.000000000000000000, 0.000000000000000000 ) ) ;
#227 = VERTEX_POINT ( 'NONE', #321 ) ;
#228 = DIRECTION ( 'NONE',  ( -0.000000000000000000, -0.000000000000000000, -1.000000000000000000 ) ) ;
#229 = DIRECTION ( 'NONE',  ( 1.224646799147353207E-16, 1.000000000000000000, -0.000000000000000000 ) ) ;
#230 = EDGE_CURVE ( 'NONE', #137, #31, #153, .T. ) ;
#231 =( LENGTH_UNIT ( ) NAMED_UNIT ( * ) SI_UNIT ( .MILLI., .METRE. ) );
#232 = EDGE_CURVE ( 'NONE', #314, #308, #363, .T. ) ;
#233 = DIRECTION ( 'NONE',  ( 0.000000000000000000, 0.000000000000000000, -1.000000000000000000 ) ) ;
#234 = VECTOR ( 'NONE', #41, 1000.000000000000000 ) ;
#235 = APPROVAL_PERSON_ORGANIZATION ( #180, #281, #294 ) ;
#236 = CYLINDRICAL_SURFACE ( 'NONE', #124, 8.000000000000000000 ) ;
#237 = PERSON_AND_ORGANIZATION ( #183, #26 ) ;
#238 = VECTOR ( 'NONE', #342, 1000.000000000000000 ) ;
#239 = LOCAL_TIME ( 16, 20, 7.000000000000000000, #350 ) ;
#240 = EDGE_CURVE ( 'NONE', #329, #191, #87, .T. ) ;
#241 = EDGE_CURVE ( 'NONE', #227, #320, #200, .T. ) ;
#242 = EDGE_CURVE ( 'NONE', #366, #339, #132, .T. ) ;
#243 = EDGE_CURVE ( 'NONE', #47, #314, #70, .T. ) ;
#244 = AXIS2_PLACEMENT_3D ( 'NONE', #142, #54, #173 ) ;
#245 = DIRECTION ( 'NONE',  ( 0.000000000000000000, 0.000000000000000000, -1.000000000000000000 ) ) ;
#246 = LINE ( 'NONE', #46, #374 ) ;
#247 = EDGE_LOOP ( 'NONE', ( #56, #333 ) ) ;
#248 = DIRECTION ( 'NONE',  ( -0.000000000000000000, -0.000000000000000000, -1.000000000000000000 ) ) ;
#249 = AXIS2_PLACEMENT_3D ( 'NONE', #290, #229, #198 ) ;
#250 = EDGE_LOOP ( 'NONE', ( #275, #40 ) ) ;
#251 = DIRECTION ( 'NONE',  ( 0.000000000000000000, 0.000000000000000000, 1.000000000000000000 ) ) ;
#252 = EDGE_LOOP ( 'NONE', ( #368, #129, #303, #216 ) ) ;
#253 = CARTESIAN_POINT ( 'NONE',  ( 0.000000000000000000, 0.000000000000000000, 7.000000000000000000 ) ) ;
#254 = ADVANCED_FACE ( 'NONE', ( #13, #336 ), #18, .T. ) ;
#255 = ORIENTED_EDGE ( 'NONE', *, *, #240, .F. ) ;
#256 = PERSON_AND_ORGANIZATION ( #183, #26 ) ;
#257 = CARTESIAN_POINT ( 'NONE',  ( 0.000000000000000000, 0.000000000000000000, 7.000000000000000000 ) ) ;
#258 = AXIS2_PLACEMENT_3D ( 'NONE', #23, #67, #186 ) ;
#259 = CARTESIAN_POINT ( 'NONE',  ( 0.000000000000000000, 0.000000000000000000, 167.0000000000000000 ) ) ;
#260 = ORIENTED_EDGE ( 'NONE', *, *, #160, .T. ) ;
#261 = CALENDAR_DATE ( 2022, 8, 7 ) ;
#262 = CARTESIAN_POINT ( 'NONE',  ( 0.000000000000000000, 0.000000000000000000, 167.0000000000000000 ) ) ;
#263 = DIRECTION ( 'NONE',  ( 1.000000000000000000, 0.000000000000000000, 0.000000000000000000 ) ) ;
#264 = DIRECTION ( 'NONE',  ( -1.000000000000000000, 0.000000000000000000, 0.000000000000000000 ) ) ;
#265 = CIRCLE ( 'NONE', #249, 0.6999999999999992895 ) ;
#266 = PERSON_AND_ORGANIZATION_ROLE ( 'design_supplier' ) ;
#267 = CARTESIAN_POINT ( 'NONE',  ( -8.699999999999999289, 1.065442715258197248E-15, 7.000000000000006217 ) ) ;
#268 = PERSON_AND_ORGANIZATION ( #183, #26 ) ;
#269 = DATE_TIME_ROLE ( 'classification_date' ) ;
#270 = ADVANCED_FACE ( 'NONE', ( #301 ), #20, .F. ) ;
#271 = EDGE_CURVE ( 'NONE', #314, #329, #277, .T. ) ;
#272 = CARTESIAN_POINT ( 'NONE',  ( -11.00000000000000000, 0.000000000000000000, 0.000000000000000000 ) ) ;
#273 = EDGE_LOOP ( 'NONE', ( #201, #371 ) ) ;
#274 = DIRECTION ( 'NONE',  ( -1.000000000000000000, 0.000000000000000000, 0.000000000000000000 ) ) ;
#275 = ORIENTED_EDGE ( 'NONE', *, *, #205, .T. ) ;
#276 = FACE_OUTER_BOUND ( 'NONE', #360, .T. ) ;
#277 = CIRCLE ( 'NONE', #302, 0.7000000000000000666 ) ;
#278 = LOCAL_TIME ( 16, 20, 7.000000000000000000, #197 ) ;
#279 = ORIENTED_EDGE ( 'NONE', *, *, #230, .F. ) ;
#280 = DIRECTION ( 'NONE',  ( 1.000000000000000000, 0.000000000000000000, -0.000000000000000000 ) ) ;
#281 = APPROVAL ( #152, 'NEURÈENÝ' ) ;
#282 = ORIENTED_EDGE ( 'NONE', *, *, #243, .T. ) ;
#283 = CARTESIAN_POINT ( 'NONE',  ( 6.000000000000000888, 7.347880794884119736E-16, 167.0000000000000000 ) ) ;
#284 = DIRECTION ( 'NONE',  ( -1.000000000000000000, 0.000000000000000000, 0.000000000000000000 ) ) ;
#285 = DIRECTION ( 'NONE',  ( 1.000000000000000000, 0.000000000000000000, 0.000000000000000000 ) ) ;
#286 = FACE_OUTER_BOUND ( 'NONE', #68, .T. ) ;
#287 = AXIS2_PLACEMENT_3D ( 'NONE', #134, #292, #323 ) ;
#288 = CC_DESIGN_APPROVAL ( #163, ( #324 ) ) ;
#289 = VERTEX_POINT ( 'NONE', #283 ) ;
#290 = CARTESIAN_POINT ( 'NONE',  ( -8.699999999999999289, 1.065442715258197248E-15, 7.700000000000012612 ) ) ;
#291 = PLANE ( 'NONE',  #220 ) ;
#292 = DIRECTION ( 'NONE',  ( -0.000000000000000000, -0.000000000000000000, -1.000000000000000000 ) ) ;
#293 = DIRECTION ( 'NONE',  ( -0.000000000000000000, -0.000000000000000000, -1.000000000000000000 ) ) ;
#294 = APPROVAL_ROLE ( '' ) ;
#295 = EDGE_CURVE ( 'NONE', #225, #308, #334, .T. ) ;
#296 = EDGE_CURVE ( 'NONE', #31, #320, #246, .T. ) ;
#297 = AXIS2_PLACEMENT_3D ( 'NONE', #156, #361, #226 ) ;
#298 = DATE_AND_TIME ( #35, #239 ) ;
#299 = CC_DESIGN_SECURITY_CLASSIFICATION ( #99, ( #55 ) ) ;
#300 = ADVANCED_FACE ( 'NONE', ( #133 ), #140, .F. ) ;
#301 = FACE_OUTER_BOUND ( 'NONE', #168, .T. ) ;
#302 = AXIS2_PLACEMENT_3D ( 'NONE', #128, #331, #105 ) ;
#303 = ORIENTED_EDGE ( 'NONE', *, *, #271, .T. ) ;
#304 = CARTESIAN_POINT ( 'NONE',  ( 0.000000000000000000, 0.000000000000000000, 7.000000000000000000 ) ) ;
#305 = FACE_OUTER_BOUND ( 'NONE', #196, .T. ) ;
#306 = CARTESIAN_POINT ( 'NONE',  ( 8.000000000000000000, 9.797174393178825657E-16, 7.700000000000012612 ) ) ;
#307 = EDGE_CURVE ( 'NONE', #289, #21, #327, .T. ) ;
#308 = VERTEX_POINT ( 'NONE', #338 ) ;
#309 = EDGE_CURVE ( 'NONE', #225, #47, #12, .T. ) ;
#310 = CARTESIAN_POINT ( 'NONE',  ( -8.000000000000000000, 0.000000000000000000, 167.0000000000000000 ) ) ;
#311 = AXIS2_PLACEMENT_3D ( 'NONE', #253, #74, #280 ) ;
#312 = ORIENTED_EDGE ( 'NONE', *, *, #232, .T. ) ;
#313 = DIRECTION ( 'NONE',  ( 0.000000000000000000, 0.000000000000000000, 1.000000000000000000 ) ) ;
#314 = VERTEX_POINT ( 'NONE', #306 ) ;
#315 = DATE_AND_TIME ( #261, #278 ) ;
#316 = DIRECTION ( 'NONE',  ( 1.000000000000000000, 0.000000000000000000, 0.000000000000000000 ) ) ;
#317 = FACE_OUTER_BOUND ( 'NONE', #247, .T. ) ;
#318 = CARTESIAN_POINT ( 'NONE',  ( 6.000000000000000888, 7.347880794884119736E-16, 167.0000000000000000 ) ) ;
#319 = VECTOR ( 'NONE', #233, 1000.000000000000000 ) ;
#320 = VERTEX_POINT ( 'NONE', #272 ) ;
#321 = CARTESIAN_POINT ( 'NONE',  ( 11.00000000000000000, 1.347111479062088405E-15, 0.000000000000000000 ) ) ;
#322 = CARTESIAN_POINT ( 'NONE',  ( 0.000000000000000000, 0.000000000000000000, 7.700000000000012612 ) ) ;
#323 = DIRECTION ( 'NONE',  ( -1.000000000000000000, 0.000000000000000000, 0.000000000000000000 ) ) ;
#324 = PRODUCT_DEFINITION ( 'NEZNÁMÝ', '', #55, #185 ) ;
#325 = ADVANCED_FACE ( 'NONE', ( #167, #43 ), #164, .T. ) ;
#326 = DATE_AND_TIME ( #123, #66 ) ;
#327 = CIRCLE ( 'NONE', #365, 6.000000000000000888 ) ;
#328 = CARTESIAN_POINT ( 'NONE',  ( -6.000000000000000888, 0.000000000000000000, 0.000000000000000000 ) ) ;
#329 = VERTEX_POINT ( 'NONE', #195 ) ;
#330 = CIRCLE ( 'NONE', #103, 8.000000000000000000 ) ;
#331 = DIRECTION ( 'NONE',  ( 0.000000000000000000, -1.000000000000000000, 0.000000000000000000 ) ) ;
#332 = CC_DESIGN_APPROVAL ( #108, ( #55 ) ) ;
#333 = ORIENTED_EDGE ( 'NONE', *, *, #241, .F. ) ;
#334 = LINE ( 'NONE', #310, #202 ) ;
#335 = ORIENTED_EDGE ( 'NONE', *, *, #94, .T. ) ;
#336 = FACE_OUTER_BOUND ( 'NONE', #250, .T. ) ;
#337 = ORIENTED_EDGE ( 'NONE', *, *, #307, .T. ) ;
#338 = CARTESIAN_POINT ( 'NONE',  ( -8.000000000000000000, 0.000000000000000000, 7.700000000000012612 ) ) ;
#339 = VERTEX_POINT ( 'NONE', #328 ) ;
#340 = ORIENTED_EDGE ( 'NONE', *, *, #242, .F. ) ;
#341 = APPROVAL_STATUS ( 'not_yet_approved' ) ;
#342 = DIRECTION ( 'NONE',  ( 0.000000000000000000, 0.000000000000000000, -1.000000000000000000 ) ) ;
#343 = DIRECTION ( 'NONE',  ( -0.000000000000000000, -0.000000000000000000, -1.000000000000000000 ) ) ;
#344 =( NAMED_UNIT ( * ) PLANE_ANGLE_UNIT ( ) SI_UNIT ( $, .RADIAN. ) );
#345 = CARTESIAN_POINT ( 'NONE',  ( -8.000000000000000000, 0.000000000000000000, 167.0000000000000000 ) ) ;
#346 = DIRECTION ( 'NONE',  ( 0.000000000000000000, 0.000000000000000000, 1.000000000000000000 ) ) ;
#347 = CYLINDRICAL_SURFACE ( 'NONE', #45, 11.00000000000000000 ) ;
#348 = CC_DESIGN_PERSON_AND_ORGANIZATION_ASSIGNMENT ( #268, #266, ( #55 ) ) ;
#349 = APPROVAL_ROLE ( '' ) ;
#350 = COORDINATED_UNIVERSAL_TIME_OFFSET ( 1, 0, .AHEAD. ) ;
#351 = APPLICATION_CONTEXT ( 'configuration controlled 3d designs of mechanical parts and assemblies' ) ;
#352 = ADVANCED_FACE ( 'NONE', ( #276 ), #39, .F. ) ;
#353 = AXIS2_PLACEMENT_3D ( 'NONE', #174, #2, #59 ) ;
#354 = AXIS2_PLACEMENT_3D ( 'NONE', #48, #224, #215 ) ;
#355 = SECURITY_CLASSIFICATION_LEVEL ( 'unclassified' ) ;
#356 = AXIS2_PLACEMENT_3D ( 'NONE', #204, #57, #358 ) ;
#357 = PRODUCT_RELATED_PRODUCT_CATEGORY ( 'detail', '', ( #9 ) ) ;
#358 = DIRECTION ( 'NONE',  ( 1.000000000000000000, 0.000000000000000000, 0.000000000000000000 ) ) ;
#359 = ADVANCED_FACE ( 'NONE', ( #375, #317 ), #291, .F. ) ;
#360 = EDGE_LOOP ( 'NONE', ( #78, #337, #44, #381 ) ) ;
#361 = DIRECTION ( 'NONE',  ( 0.000000000000000000, 0.000000000000000000, 1.000000000000000000 ) ) ;
#362 = ORIENTED_EDGE ( 'NONE', *, *, #271, .F. ) ;
#363 = CIRCLE ( 'NONE', #65, 8.000000000000000000 ) ;
#364 = DIRECTION ( 'NONE',  ( 0.000000000000000000, 0.000000000000000000, 1.000000000000000000 ) ) ;
#365 = AXIS2_PLACEMENT_3D ( 'NONE', #159, #313, #367 ) ;
#366 = VERTEX_POINT ( 'NONE', #84 ) ;
#367 = DIRECTION ( 'NONE',  ( 1.000000000000000000, 0.000000000000000000, 0.000000000000000000 ) ) ;
#368 = ORIENTED_EDGE ( 'NONE', *, *, #160, .F. ) ;
#369 = DIRECTION ( 'NONE',  ( 1.000000000000000000, 0.000000000000000000, 0.000000000000000000 ) ) ;
#370 = EDGE_CURVE ( 'NONE', #320, #227, #104, .T. ) ;
#371 = ORIENTED_EDGE ( 'NONE', *, *, #161, .T. ) ;
#372 = CARTESIAN_POINT ( 'NONE',  ( 0.000000000000000000, 0.000000000000000000, 0.000000000000000000 ) ) ;
#373 = DIRECTION ( 'NONE',  ( -1.000000000000000000, 0.000000000000000000, 0.000000000000000000 ) ) ;
#374 = VECTOR ( 'NONE', #218, 1000.000000000000000 ) ;
#375 = FACE_BOUND ( 'NONE', #158, .T. ) ;
#376 = CARTESIAN_POINT ( 'NONE',  ( 8.000000000000000000, 9.797174393178825657E-16, 167.0000000000000000 ) ) ;
#377 = EDGE_LOOP ( 'NONE', ( #143, #73 ) ) ;
#378 = CARTESIAN_POINT ( 'NONE',  ( 0.000000000000000000, 0.000000000000000000, 0.000000000000000000 ) ) ;
#379 = CARTESIAN_POINT ( 'NONE',  ( 0.000000000000000000, 0.000000000000000000, 7.000000000000000000 ) ) ;
#380 = ADVANCED_FACE ( 'NONE', ( #115 ), #125, .F. ) ;
#381 = ORIENTED_EDGE ( 'NONE', *, *, #149, .T. ) ;
ENDSEC;
END-ISO-10303-21;
