ISO-10303-21;
HEADER;
FILE_DESCRIPTION (( 'STEP AP203' ),
    '1' );
FILE_NAME ('36b5.STEP',
    '2022-07-08T15:15:35',
    ( '' ),
    ( '' ),
    'SwSTEP 2.0',
    'SolidWorks 2019',
    '' );
FILE_SCHEMA (( 'CONFIG_CONTROL_DESIGN' ));
ENDSEC;

DATA;
#1 = ADVANCED_FACE ( 'NONE', ( #185 ), #116, .F. ) ;
#2 = CARTESIAN_POINT ( 'NONE',  ( 0.000000000000000000, 0.000000000000000000, 0.000000000000000000 ) ) ;
#3 = AXIS2_PLACEMENT_3D ( 'NONE', #301, #279, #160 ) ;
#4 = AXIS2_PLACEMENT_3D ( 'NONE', #351, #144, #264 ) ;
#5 = APPROVAL_ROLE ( '' ) ;
#6 = FACE_OUTER_BOUND ( 'NONE', #14, .T. ) ;
#7 = ORIENTED_EDGE ( 'NONE', *, *, #289, .F. ) ;
#8 = COORDINATED_UNIVERSAL_TIME_OFFSET ( 1, 0, .AHEAD. ) ;
#9 = DIRECTION ( 'NONE',  ( -1.000000000000000000, 0.000000000000000000, 0.000000000000000000 ) ) ;
#10 = PERSON_AND_ORGANIZATION ( #150, #362 ) ;
#11 = VERTEX_POINT ( 'NONE', #364 ) ;
#12 = AXIS2_PLACEMENT_3D ( 'NONE', #250, #48, #284 ) ;
#13 = DIRECTION ( 'NONE',  ( 0.000000000000000000, 0.000000000000000000, 1.000000000000000000 ) ) ;
#14 = EDGE_LOOP ( 'NONE', ( #347, #25, #214, #245 ) ) ;
#15 = ADVANCED_FACE ( 'NONE', ( #357, #100 ), #325, .T. ) ;
#16 = CARTESIAN_POINT ( 'NONE',  ( 0.000000000000000000, 0.000000000000000000, 5.000000000000000000 ) ) ;
#17 = PLANE ( 'NONE',  #246 ) ;
#18 = LINE ( 'NONE', #257, #366 ) ;
#19 =( LENGTH_UNIT ( ) NAMED_UNIT ( * ) SI_UNIT ( .MILLI., .METRE. ) );
#20 = DIRECTION ( 'NONE',  ( 1.000000000000000000, 0.000000000000000000, 0.000000000000000000 ) ) ;
#21 = EDGE_CURVE ( 'NONE', #44, #67, #190, .T. ) ;
#22 = FACE_OUTER_BOUND ( 'NONE', #229, .T. ) ;
#23 = DIRECTION ( 'NONE',  ( 1.000000000000000000, 0.000000000000000000, 0.000000000000000000 ) ) ;
#24 = CIRCLE ( 'NONE', #244, 8.000000000000000000 ) ;
#25 = ORIENTED_EDGE ( 'NONE', *, *, #121, .F. ) ;
#26 = CARTESIAN_POINT ( 'NONE',  ( 5.500000000000000000, 0.000000000000000000, 5.500000000000005329 ) ) ;
#27 = ADVANCED_FACE ( 'NONE', ( #207 ), #339, .T. ) ;
#28 = CYLINDRICAL_SURFACE ( 'NONE', #4, 5.000000000000000000 ) ;
#29 = ORIENTED_EDGE ( 'NONE', *, *, #253, .F. ) ;
#30 = LINE ( 'NONE', #353, #271 ) ;
#31 = LOCAL_TIME ( 17, 15, 35.00000000000000000, #8 ) ;
#32 = CC_DESIGN_PERSON_AND_ORGANIZATION_ASSIGNMENT ( #157, #62, ( #309 ) ) ;
#33 = CARTESIAN_POINT ( 'NONE',  ( 0.000000000000000000, 0.000000000000000000, 5.500000000000005329 ) ) ;
#34 = PERSON_AND_ORGANIZATION_ROLE ( 'design_supplier' ) ;
#35 = CALENDAR_DATE ( 2022, 8, 7 ) ;
#36 = AXIS2_PLACEMENT_3D ( 'NONE', #38, #276, #188 ) ;
#37 = COORDINATED_UNIVERSAL_TIME_OFFSET ( 1, 0, .AHEAD. ) ;
#38 = CARTESIAN_POINT ( 'NONE',  ( 0.000000000000000000, 0.000000000000000000, 405.0000000000000000 ) ) ;
#39 = PERSON_AND_ORGANIZATION ( #150, #362 ) ;
#40 = CARTESIAN_POINT ( 'NONE',  ( 0.000000000000000000, 0.000000000000000000, 5.500000000000005329 ) ) ;
#41 = APPROVAL_DATE_TIME ( #334, #368 ) ;
#42 = CIRCLE ( 'NONE', #255, 5.000000000000000000 ) ;
#43 = DIRECTION ( 'NONE',  ( 0.000000000000000000, 0.000000000000000000, 1.000000000000000000 ) ) ;
#44 = VERTEX_POINT ( 'NONE', #367 ) ;
#45 = APPROVAL_PERSON_ORGANIZATION ( #39, #368, #303 ) ;
#46 = LINE ( 'NONE', #369, #227 ) ;
#47 = EDGE_LOOP ( 'NONE', ( #95, #182, #153, #200 ) ) ;
#48 = DIRECTION ( 'NONE',  ( -0.000000000000000000, -0.000000000000000000, -1.000000000000000000 ) ) ;
#49 = CIRCLE ( 'NONE', #125, 5.500000000000000000 ) ;
#50 = DIRECTION ( 'NONE',  ( 1.000000000000000000, 0.000000000000000000, 0.000000000000000000 ) ) ;
#51 = DIRECTION ( 'NONE',  ( 0.000000000000000000, 0.000000000000000000, 1.000000000000000000 ) ) ;
#52 = AXIS2_PLACEMENT_3D ( 'NONE', #115, #268, #82 ) ;
#53 = AXIS2_PLACEMENT_3D ( 'NONE', #197, #251, #75 ) ;
#54 = CC_DESIGN_PERSON_AND_ORGANIZATION_ASSIGNMENT ( #147, #267, ( #352 ) ) ;
#55 = ORIENTED_EDGE ( 'NONE', *, *, #313, .T. ) ;
#56 = DIRECTION ( 'NONE',  ( 1.000000000000000000, 0.000000000000000000, 0.000000000000000000 ) ) ;
#57 = EDGE_LOOP ( 'NONE', ( #365, #117 ) ) ;
#58 = EDGE_CURVE ( 'NONE', #171, #336, #18, .T. ) ;
#59 = FACE_OUTER_BOUND ( 'NONE', #208, .T. ) ;
#60 = CC_DESIGN_APPROVAL ( #230, ( #167 ) ) ;
#61 = COORDINATED_UNIVERSAL_TIME_OFFSET ( 1, 0, .AHEAD. ) ;
#62 = PERSON_AND_ORGANIZATION_ROLE ( 'classification_officer' ) ;
#63 = DIRECTION ( 'NONE',  ( -0.000000000000000000, -0.000000000000000000, -1.000000000000000000 ) ) ;
#64 = VERTEX_POINT ( 'NONE', #78 ) ;
#65 = ORIENTED_EDGE ( 'NONE', *, *, #323, .T. ) ;
#66 = DIRECTION ( 'NONE',  ( -1.000000000000000000, 0.000000000000000000, 0.000000000000000000 ) ) ;
#67 = VERTEX_POINT ( 'NONE', #228 ) ;
#68 = CALENDAR_DATE ( 2022, 8, 7 ) ;
#69 = CARTESIAN_POINT ( 'NONE',  ( 0.000000000000000000, 0.000000000000000000, 405.0000000000000000 ) ) ;
#70 = EDGE_LOOP ( 'NONE', ( #29, #7, #166, #358 ) ) ;
#71 = ORIENTED_EDGE ( 'NONE', *, *, #331, .F. ) ;
#72 = CARTESIAN_POINT ( 'NONE',  ( 0.000000000000000000, 0.000000000000000000, 405.0000000000000000 ) ) ;
#73 = CARTESIAN_POINT ( 'NONE',  ( -5.000000000000000000, 0.000000000000000000, 405.0000000000000000 ) ) ;
#74 = EDGE_CURVE ( 'NONE', #64, #326, #49, .T. ) ;
#75 = DIRECTION ( 'NONE',  ( 1.000000000000000000, 0.000000000000000000, -0.000000000000000000 ) ) ;
#76 = AXIS2_PLACEMENT_3D ( 'NONE', #377, #378, #111 ) ;
#77 = CARTESIAN_POINT ( 'NONE',  ( 0.000000000000000000, 0.000000000000000000, 0.000000000000000000 ) ) ;
#78 = CARTESIAN_POINT ( 'NONE',  ( 5.500000000000000000, 0.000000000000000000, 5.000000000000002665 ) ) ;
#79 = CIRCLE ( 'NONE', #12, 2.500000000000000000 ) ;
#80 = FACE_OUTER_BOUND ( 'NONE', #311, .T. ) ;
#81 = ADVANCED_FACE ( 'NONE', ( #223 ), #134, .F. ) ;
#82 = DIRECTION ( 'NONE',  ( -1.000000000000000000, 0.000000000000000000, 0.000000000000000000 ) ) ;
#83 = LOCAL_TIME ( 17, 15, 35.00000000000000000, #37 ) ;
#84 = FACE_OUTER_BOUND ( 'NONE', #47, .T. ) ;
#85 = EDGE_CURVE ( 'NONE', #140, #87, #343, .T. ) ;
#86 = ADVANCED_BREP_SHAPE_REPRESENTATION ( '36b5', ( #240, #76 ), #322 ) ;
#87 = VERTEX_POINT ( 'NONE', #103 ) ;
#88 = CALENDAR_DATE ( 2022, 8, 7 ) ;
#89 = ORIENTED_EDGE ( 'NONE', *, *, #275, .F. ) ;
#90 = APPROVAL_DATE_TIME ( #124, #210 ) ;
#91 = CARTESIAN_POINT ( 'NONE',  ( 0.000000000000000000, 0.000000000000000000, 5.000000000000000000 ) ) ;
#92 = EDGE_CURVE ( 'NONE', #119, #336, #79, .T. ) ;
#93 = EDGE_LOOP ( 'NONE', ( #201, #89 ) ) ;
#94 = PERSON_AND_ORGANIZATION ( #150, #362 ) ;
#95 = ORIENTED_EDGE ( 'NONE', *, *, #313, .F. ) ;
#96 = ORIENTED_EDGE ( 'NONE', *, *, #341, .F. ) ;
#97 = DATE_AND_TIME ( #68, #31 ) ;
#98 = DIRECTION ( 'NONE',  ( -0.000000000000000000, -0.000000000000000000, -1.000000000000000000 ) ) ;
#99 = CC_DESIGN_PERSON_AND_ORGANIZATION_ASSIGNMENT ( #10, #34, ( #286 ) ) ;
#100 = FACE_OUTER_BOUND ( 'NONE', #180, .T. ) ;
#101 = DIRECTION ( 'NONE',  ( -0.000000000000000000, -0.000000000000000000, -1.000000000000000000 ) ) ;
#102 = CARTESIAN_POINT ( 'NONE',  ( 2.500000000000000000, 3.061616997868383141E-16, 405.0000000000000000 ) ) ;
#103 = CARTESIAN_POINT ( 'NONE',  ( 8.000000000000000000, 9.797174393178825657E-16, 0.000000000000000000 ) ) ;
#104 = CIRCLE ( 'NONE', #304, 5.500000000000000000 ) ;
#105 = CIRCLE ( 'NONE', #320, 5.000000000000000000 ) ;
#106 = DIRECTION ( 'NONE',  ( -0.000000000000000000, -0.000000000000000000, -1.000000000000000000 ) ) ;
#107 = CC_DESIGN_DATE_AND_TIME_ASSIGNMENT ( #280, #187, ( #167 ) ) ;
#108 = ORIENTED_EDGE ( 'NONE', *, *, #58, .F. ) ;
#109 = CARTESIAN_POINT ( 'NONE',  ( 5.000000000000000000, 6.123233995736766282E-16, 5.500000000000005329 ) ) ;
#110 = AXIS2_PLACEMENT_3D ( 'NONE', #33, #142, #56 ) ;
#111 = DIRECTION ( 'NONE',  ( 1.000000000000000000, 0.000000000000000000, 0.000000000000000000 ) ) ;
#112 = ORIENTED_EDGE ( 'NONE', *, *, #316, .T. ) ;
#113 = CARTESIAN_POINT ( 'NONE',  ( 5.000000000000000000, 6.123233995736766282E-16, 405.0000000000000000 ) ) ;
#114 = APPROVAL_STATUS ( 'not_yet_approved' ) ;
#115 = CARTESIAN_POINT ( 'NONE',  ( 0.000000000000000000, 0.000000000000000000, 405.0000000000000000 ) ) ;
#116 = TOROIDAL_SURFACE ( 'NONE', #3, 5.500000000000000000, 0.5000000000000000000 ) ;
#117 = ORIENTED_EDGE ( 'NONE', *, *, #162, .T. ) ;
#118 = AXIS2_PLACEMENT_3D ( 'NONE', #179, #295, #9 ) ;
#119 = VERTEX_POINT ( 'NONE', #375 ) ;
#120 = DATE_TIME_ROLE ( 'classification_date' ) ;
#121 = EDGE_CURVE ( 'NONE', #199, #11, #338, .T. ) ;
#122 = APPLICATION_PROTOCOL_DEFINITION ( 'international standard', 'config_control_design', 1994, #346 ) ;
#123 = PRODUCT_DEFINITION_SHAPE ( 'NONE', 'NONE',  #167 ) ;
#124 = DATE_AND_TIME ( #327, #83 ) ;
#125 = AXIS2_PLACEMENT_3D ( 'NONE', #16, #226, #136 ) ;
#126 = ORIENTED_EDGE ( 'NONE', *, *, #128, .F. ) ;
#127 = APPROVAL_STATUS ( 'not_yet_approved' ) ;
#128 = EDGE_CURVE ( 'NONE', #87, #140, #24, .T. ) ;
#129 = CARTESIAN_POINT ( 'NONE',  ( -5.500000000000000000, 6.735557395310442023E-16, 5.000000000000002665 ) ) ;
#130 = APPLICATION_CONTEXT ( 'configuration controlled 3d designs of mechanical parts and assemblies' ) ;
#131 = APPROVAL_PERSON_ORGANIZATION ( #237, #210, #5 ) ;
#132 = DIRECTION ( 'NONE',  ( 0.000000000000000000, 0.000000000000000000, 1.000000000000000000 ) ) ;
#133 = CARTESIAN_POINT ( 'NONE',  ( 0.000000000000000000, 0.000000000000000000, 405.0000000000000000 ) ) ;
#134 = CYLINDRICAL_SURFACE ( 'NONE', #178, 2.500000000000000000 ) ;
#135 = CARTESIAN_POINT ( 'NONE',  ( -8.000000000000000000, 0.000000000000000000, 0.000000000000000000 ) ) ;
#136 = DIRECTION ( 'NONE',  ( 1.000000000000000000, 0.000000000000000000, 0.000000000000000000 ) ) ;
#137 = DIRECTION ( 'NONE',  ( 0.000000000000000000, 0.000000000000000000, 1.000000000000000000 ) ) ;
#138 = CIRCLE ( 'NONE', #354, 0.5000000000000004441 ) ;
#139 = CARTESIAN_POINT ( 'NONE',  ( 0.000000000000000000, 0.000000000000000000, 5.000000000000000000 ) ) ;
#140 = VERTEX_POINT ( 'NONE', #135 ) ;
#141 = LOCAL_TIME ( 17, 15, 35.00000000000000000, #355 ) ;
#142 = DIRECTION ( 'NONE',  ( 0.000000000000000000, 0.000000000000000000, 1.000000000000000000 ) ) ;
#143 = VERTEX_POINT ( 'NONE', #252 ) ;
#144 = DIRECTION ( 'NONE',  ( -0.000000000000000000, -0.000000000000000000, -1.000000000000000000 ) ) ;
#145 = CIRCLE ( 'NONE', #212, 2.500000000000000000 ) ;
#146 = ORIENTED_EDGE ( 'NONE', *, *, #289, .T. ) ;
#147 = PERSON_AND_ORGANIZATION ( #150, #362 ) ;
#148 = CARTESIAN_POINT ( 'NONE',  ( -8.000000000000000000, 0.000000000000000000, 5.000000000000000000 ) ) ;
#149 = EDGE_LOOP ( 'NONE', ( #154, #277, #215, #206 ) ) ;
#150 = PERSON ( 'NEURÈENÝ', 'NEURÈENÝ', 'NEURÈENÝ', ('NEURÈENÝ'), ('NEURÈENÝ'), ('NEURÈENÝ') ) ;
#151 = CARTESIAN_POINT ( 'NONE',  ( -5.500000000000000000, 6.735557395310442023E-16, 5.500000000000005329 ) ) ;
#152 = AXIS2_PLACEMENT_3D ( 'NONE', #91, #217, #335 ) ;
#153 = ORIENTED_EDGE ( 'NONE', *, *, #21, .T. ) ;
#154 = ORIENTED_EDGE ( 'NONE', *, *, #233, .T. ) ;
#155 = ORIENTED_EDGE ( 'NONE', *, *, #21, .F. ) ;
#156 = ORIENTED_EDGE ( 'NONE', *, *, #121, .T. ) ;
#157 = PERSON_AND_ORGANIZATION ( #150, #362 ) ;
#158 = AXIS2_PLACEMENT_3D ( 'NONE', #260, #314, #202 ) ;
#159 = DIRECTION ( 'NONE',  ( 1.000000000000000000, 0.000000000000000000, 0.000000000000000000 ) ) ;
#160 = DIRECTION ( 'NONE',  ( 1.000000000000000000, 0.000000000000000000, 0.000000000000000000 ) ) ;
#161 = PLANE ( 'NONE',  #53 ) ;
#162 = EDGE_CURVE ( 'NONE', #326, #64, #104, .T. ) ;
#163 = DIRECTION ( 'NONE',  ( 0.000000000000000000, 0.000000000000000000, -1.000000000000000000 ) ) ;
#164 = CIRCLE ( 'NONE', #158, 2.500000000000000000 ) ;
#165 = CARTESIAN_POINT ( 'NONE',  ( 0.000000000000000000, 0.000000000000000000, 5.000000000000000000 ) ) ;
#166 = ORIENTED_EDGE ( 'NONE', *, *, #224, .T. ) ;
#167 = PRODUCT_DEFINITION ( 'NEZNÁMÝ', '', #286, #186 ) ;
#168 = AXIS2_PLACEMENT_3D ( 'NONE', #165, #344, #23 ) ;
#169 = CC_DESIGN_APPROVAL ( #368, ( #286 ) ) ;
#170 = CYLINDRICAL_SURFACE ( 'NONE', #52, 5.000000000000000000 ) ;
#171 = VERTEX_POINT ( 'NONE', #102 ) ;
#172 = DIRECTION ( 'NONE',  ( 0.000000000000000000, -1.000000000000000000, 0.000000000000000000 ) ) ;
#173 = AXIS2_PLACEMENT_3D ( 'NONE', #77, #198, #50 ) ;
#174 = EDGE_CURVE ( 'NONE', #11, #199, #225, .T. ) ;
#175 = ORIENTED_EDGE ( 'NONE', *, *, #224, .F. ) ;
#176 = SHAPE_DEFINITION_REPRESENTATION ( #123, #86 ) ;
#177 = DIRECTION ( 'NONE',  ( 0.000000000000000000, 0.000000000000000000, -1.000000000000000000 ) ) ;
#178 = AXIS2_PLACEMENT_3D ( 'NONE', #340, #163, #312 ) ;
#179 = CARTESIAN_POINT ( 'NONE',  ( 0.000000000000000000, 0.000000000000000000, 5.000000000000000000 ) ) ;
#180 = EDGE_LOOP ( 'NONE', ( #156, #272 ) ) ;
#181 = DIRECTION ( 'NONE',  ( 1.000000000000000000, 0.000000000000000000, 0.000000000000000000 ) ) ;
#182 = ORIENTED_EDGE ( 'NONE', *, *, #316, .F. ) ;
#183 = APPROVAL_DATE_TIME ( #97, #230 ) ;
#184 = LINE ( 'NONE', #294, #203 ) ;
#185 = FACE_OUTER_BOUND ( 'NONE', #70, .T. ) ;
#186 = DESIGN_CONTEXT ( 'detailed design', #346, 'design' ) ;
#187 = DATE_TIME_ROLE ( 'creation_date' ) ;
#188 = DIRECTION ( 'NONE',  ( 1.000000000000000000, 0.000000000000000000, 0.000000000000000000 ) ) ;
#189 = CIRCLE ( 'NONE', #36, 5.000000000000000000 ) ;
#190 = LINE ( 'NONE', #73, #360 ) ;
#191 = ADVANCED_FACE ( 'NONE', ( #22 ), #170, .T. ) ;
#192 = CARTESIAN_POINT ( 'NONE',  ( 0.000000000000000000, 0.000000000000000000, 405.0000000000000000 ) ) ;
#193 = DIRECTION ( 'NONE',  ( 0.000000000000000000, 0.000000000000000000, 1.000000000000000000 ) ) ;
#194 = VECTOR ( 'NONE', #177, 1000.000000000000000 ) ;
#195 = ADVANCED_FACE ( 'NONE', ( #59 ), #283, .F. ) ;
#196 = LOCAL_TIME ( 17, 15, 35.00000000000000000, #61 ) ;
#197 = CARTESIAN_POINT ( 'NONE',  ( 0.000000000000000000, 0.000000000000000000, 0.000000000000000000 ) ) ;
#198 = DIRECTION ( 'NONE',  ( 0.000000000000000000, 0.000000000000000000, 1.000000000000000000 ) ) ;
#199 = VERTEX_POINT ( 'NONE', #148 ) ;
#200 = ORIENTED_EDGE ( 'NONE', *, *, #331, .T. ) ;
#201 = ORIENTED_EDGE ( 'NONE', *, *, #92, .F. ) ;
#202 = DIRECTION ( 'NONE',  ( 1.000000000000000000, 0.000000000000000000, 0.000000000000000000 ) ) ;
#203 = VECTOR ( 'NONE', #63, 1000.000000000000000 ) ;
#204 = AXIS2_PLACEMENT_3D ( 'NONE', #192, #137, #305 ) ;
#205 = APPROVAL_STATUS ( 'not_yet_approved' ) ;
#206 = ORIENTED_EDGE ( 'NONE', *, *, #306, .F. ) ;
#207 = FACE_OUTER_BOUND ( 'NONE', #349, .T. ) ;
#208 = EDGE_LOOP ( 'NONE', ( #71, #263, #265, #175 ) ) ;
#209 = DATE_AND_TIME ( #88, #141 ) ;
#210 = APPROVAL ( #205, 'NEURÈENÝ' ) ;
#211 = DIRECTION ( 'NONE',  ( -1.000000000000000000, 0.000000000000000000, 0.000000000000000000 ) ) ;
#212 = AXIS2_PLACEMENT_3D ( 'NONE', #2, #291, #317 ) ;
#213 = APPROVAL_ROLE ( '' ) ;
#214 = ORIENTED_EDGE ( 'NONE', *, *, #282, .T. ) ;
#215 = ORIENTED_EDGE ( 'NONE', *, *, #275, .T. ) ;
#216 = CALENDAR_DATE ( 2022, 8, 7 ) ;
#217 = DIRECTION ( 'NONE',  ( 0.000000000000000000, 0.000000000000000000, 1.000000000000000000 ) ) ;
#218 = CYLINDRICAL_SURFACE ( 'NONE', #307, 2.500000000000000000 ) ;
#219 = DIRECTION ( 'NONE',  ( -0.000000000000000000, -0.000000000000000000, -1.000000000000000000 ) ) ;
#220 = CIRCLE ( 'NONE', #374, 5.000000000000000000 ) ;
#221 = CC_DESIGN_SECURITY_CLASSIFICATION ( #309, ( #286 ) ) ;
#222 = DIRECTION ( 'NONE',  ( 1.000000000000000000, 0.000000000000000000, -0.000000000000000000 ) ) ;
#223 = FACE_OUTER_BOUND ( 'NONE', #234, .T. ) ;
#224 = EDGE_CURVE ( 'NONE', #249, #64, #318, .T. ) ;
#225 = CIRCLE ( 'NONE', #231, 8.000000000000000000 ) ;
#226 = DIRECTION ( 'NONE',  ( -0.000000000000000000, -0.000000000000000000, -1.000000000000000000 ) ) ;
#227 = VECTOR ( 'NONE', #101, 1000.000000000000000 ) ;
#228 = CARTESIAN_POINT ( 'NONE',  ( -5.000000000000000000, 0.000000000000000000, 5.500000000000005329 ) ) ;
#229 = EDGE_LOOP ( 'NONE', ( #238, #55, #146, #155 ) ) ;
#230 = APPROVAL ( #127, 'NEURÈENÝ' ) ;
#231 = AXIS2_PLACEMENT_3D ( 'NONE', #342, #193, #254 ) ;
#232 =( NAMED_UNIT ( * ) PLANE_ANGLE_UNIT ( ) SI_UNIT ( $, .RADIAN. ) );
#233 = EDGE_CURVE ( 'NONE', #143, #171, #164, .T. ) ;
#234 = EDGE_LOOP ( 'NONE', ( #108, #278, #299, #236 ) ) ;
#235 = PERSON_AND_ORGANIZATION_ROLE ( 'creator' ) ;
#236 = ORIENTED_EDGE ( 'NONE', *, *, #92, .T. ) ;
#237 = PERSON_AND_ORGANIZATION ( #150, #362 ) ;
#238 = ORIENTED_EDGE ( 'NONE', *, *, #323, .F. ) ;
#239 = CC_DESIGN_DATE_AND_TIME_ASSIGNMENT ( #209, #120, ( #309 ) ) ;
#240 = MANIFOLD_SOLID_BREP ( 'Odebrat vysunutím3', #243 ) ;
#241 = DIRECTION ( 'NONE',  ( 1.000000000000000000, 0.000000000000000000, 0.000000000000000000 ) ) ;
#242 = ORIENTED_EDGE ( 'NONE', *, *, #282, .F. ) ;
#243 = CLOSED_SHELL ( 'NONE', ( #302, #195, #191, #27, #285, #15, #372, #266, #348, #1, #81 ) ) ;
#244 = AXIS2_PLACEMENT_3D ( 'NONE', #310, #51, #20 ) ;
#245 = ORIENTED_EDGE ( 'NONE', *, *, #85, .T. ) ;
#246 = AXIS2_PLACEMENT_3D ( 'NONE', #133, #308, #222 ) ;
#247 = CARTESIAN_POINT ( 'NONE',  ( 0.000000000000000000, 0.000000000000000000, 5.500000000000005329 ) ) ;
#248 = CC_DESIGN_PERSON_AND_ORGANIZATION_ASSIGNMENT ( #94, #235, ( #286 ) ) ;
#249 = VERTEX_POINT ( 'NONE', #109 ) ;
#250 = CARTESIAN_POINT ( 'NONE',  ( 0.000000000000000000, 0.000000000000000000, 0.000000000000000000 ) ) ;
#251 = DIRECTION ( 'NONE',  ( 0.000000000000000000, 0.000000000000000000, 1.000000000000000000 ) ) ;
#252 = CARTESIAN_POINT ( 'NONE',  ( -2.500000000000000000, 0.000000000000000000, 405.0000000000000000 ) ) ;
#253 = EDGE_CURVE ( 'NONE', #67, #326, #138, .T. ) ;
#254 = DIRECTION ( 'NONE',  ( 1.000000000000000000, 0.000000000000000000, 0.000000000000000000 ) ) ;
#255 = AXIS2_PLACEMENT_3D ( 'NONE', #72, #13, #181 ) ;
#256 = FACE_OUTER_BOUND ( 'NONE', #297, .T. ) ;
#257 = CARTESIAN_POINT ( 'NONE',  ( 2.500000000000000000, 3.061616997868383141E-16, 405.0000000000000000 ) ) ;
#258 = CC_DESIGN_APPROVAL ( #210, ( #309 ) ) ;
#259 = EDGE_LOOP ( 'NONE', ( #298, #96 ) ) ;
#260 = CARTESIAN_POINT ( 'NONE',  ( 0.000000000000000000, 0.000000000000000000, 405.0000000000000000 ) ) ;
#261 = CC_DESIGN_PERSON_AND_ORGANIZATION_ASSIGNMENT ( #300, #324, ( #167 ) ) ;
#262 = DIRECTION ( 'NONE',  ( 0.000000000000000000, 0.000000000000000000, -1.000000000000000000 ) ) ;
#263 = ORIENTED_EDGE ( 'NONE', *, *, #253, .T. ) ;
#264 = DIRECTION ( 'NONE',  ( -1.000000000000000000, 0.000000000000000000, 0.000000000000000000 ) ) ;
#265 = ORIENTED_EDGE ( 'NONE', *, *, #74, .F. ) ;
#266 = ADVANCED_FACE ( 'NONE', ( #84 ), #28, .T. ) ;
#267 = PERSON_AND_ORGANIZATION_ROLE ( 'design_owner' ) ;
#268 = DIRECTION ( 'NONE',  ( -0.000000000000000000, -0.000000000000000000, -1.000000000000000000 ) ) ;
#269 = SECURITY_CLASSIFICATION_LEVEL ( 'unclassified' ) ;
#270 = DIRECTION ( 'NONE',  ( 0.000000000000000000, 0.000000000000000000, -1.000000000000000000 ) ) ;
#271 = VECTOR ( 'NONE', #319, 1000.000000000000000 ) ;
#272 = ORIENTED_EDGE ( 'NONE', *, *, #174, .T. ) ;
#273 = PERSON_AND_ORGANIZATION ( #150, #362 ) ;
#274 = VERTEX_POINT ( 'NONE', #113 ) ;
#275 = EDGE_CURVE ( 'NONE', #336, #119, #145, .T. ) ;
#276 = DIRECTION ( 'NONE',  ( 0.000000000000000000, 0.000000000000000000, 1.000000000000000000 ) ) ;
#277 = ORIENTED_EDGE ( 'NONE', *, *, #58, .T. ) ;
#278 = ORIENTED_EDGE ( 'NONE', *, *, #341, .T. ) ;
#279 = DIRECTION ( 'NONE',  ( 0.000000000000000000, 0.000000000000000000, 1.000000000000000000 ) ) ;
#280 = DATE_AND_TIME ( #35, #292 ) ;
#281 = CARTESIAN_POINT ( 'NONE',  ( 2.500000000000000000, 3.061616997868383141E-16, 0.000000000000000000 ) ) ;
#282 = EDGE_CURVE ( 'NONE', #199, #140, #30, .T. ) ;
#283 = TOROIDAL_SURFACE ( 'NONE', #110, 5.500000000000000000, 0.5000000000000000000 ) ;
#284 = DIRECTION ( 'NONE',  ( 1.000000000000000000, 0.000000000000000000, 0.000000000000000000 ) ) ;
#285 = ADVANCED_FACE ( 'NONE', ( #6 ), #330, .T. ) ;
#286 = PRODUCT_DEFINITION_FORMATION_WITH_SPECIFIED_SOURCE ( 'LIBOVOLNÝ', '', #352, .NOT_KNOWN. ) ;
#287 = APPLICATION_PROTOCOL_DEFINITION ( 'international standard', 'config_control_design', 1994, #130 ) ;
#288 = DIRECTION ( 'NONE',  ( -1.000000000000000000, 1.224646799147351482E-16, 0.000000000000000000 ) ) ;
#289 = EDGE_CURVE ( 'NONE', #249, #67, #220, .T. ) ;
#290 = AXIS2_PLACEMENT_3D ( 'NONE', #363, #98, #211 ) ;
#291 = DIRECTION ( 'NONE',  ( -0.000000000000000000, -0.000000000000000000, -1.000000000000000000 ) ) ;
#292 = LOCAL_TIME ( 17, 15, 35.00000000000000000, #359 ) ;
#293 = ORIENTED_EDGE ( 'NONE', *, *, #174, .F. ) ;
#294 = CARTESIAN_POINT ( 'NONE',  ( 5.000000000000000000, 6.123233995736766282E-16, 405.0000000000000000 ) ) ;
#295 = DIRECTION ( 'NONE',  ( -0.000000000000000000, -0.000000000000000000, -1.000000000000000000 ) ) ;
#296 = CIRCLE ( 'NONE', #204, 2.500000000000000000 ) ;
#297 = EDGE_LOOP ( 'NONE', ( #112, #65 ) ) ;
#298 = ORIENTED_EDGE ( 'NONE', *, *, #233, .F. ) ;
#299 = ORIENTED_EDGE ( 'NONE', *, *, #306, .T. ) ;
#300 = PERSON_AND_ORGANIZATION ( #150, #362 ) ;
#301 = CARTESIAN_POINT ( 'NONE',  ( 0.000000000000000000, 0.000000000000000000, 5.500000000000005329 ) ) ;
#302 = ADVANCED_FACE ( 'NONE', ( #329 ), #218, .F. ) ;
#303 = APPROVAL_ROLE ( '' ) ;
#304 = AXIS2_PLACEMENT_3D ( 'NONE', #139, #106, #370 ) ;
#305 = DIRECTION ( 'NONE',  ( 1.000000000000000000, 0.000000000000000000, 0.000000000000000000 ) ) ;
#306 = EDGE_CURVE ( 'NONE', #143, #119, #356, .T. ) ;
#307 = AXIS2_PLACEMENT_3D ( 'NONE', #69, #270, #66 ) ;
#308 = DIRECTION ( 'NONE',  ( 0.000000000000000000, 0.000000000000000000, 1.000000000000000000 ) ) ;
#309 = SECURITY_CLASSIFICATION ( '', '', #269 ) ;
#310 = CARTESIAN_POINT ( 'NONE',  ( 0.000000000000000000, 0.000000000000000000, 0.000000000000000000 ) ) ;
#311 = EDGE_LOOP ( 'NONE', ( #321, #126 ) ) ;
#312 = DIRECTION ( 'NONE',  ( -1.000000000000000000, 0.000000000000000000, 0.000000000000000000 ) ) ;
#313 = EDGE_CURVE ( 'NONE', #274, #249, #184, .T. ) ;
#314 = DIRECTION ( 'NONE',  ( 0.000000000000000000, 0.000000000000000000, 1.000000000000000000 ) ) ;
#315 = APPROVAL_PERSON_ORGANIZATION ( #273, #230, #213 ) ;
#316 = EDGE_CURVE ( 'NONE', #44, #274, #42, .T. ) ;
#317 = DIRECTION ( 'NONE',  ( 1.000000000000000000, 0.000000000000000000, 0.000000000000000000 ) ) ;
#318 = CIRCLE ( 'NONE', #328, 0.5000000000000004441 ) ;
#319 = DIRECTION ( 'NONE',  ( -0.000000000000000000, -0.000000000000000000, -1.000000000000000000 ) ) ;
#320 = AXIS2_PLACEMENT_3D ( 'NONE', #247, #43, #159 ) ;
#321 = ORIENTED_EDGE ( 'NONE', *, *, #85, .F. ) ;
#322 =( GEOMETRIC_REPRESENTATION_CONTEXT ( 3 ) GLOBAL_UNCERTAINTY_ASSIGNED_CONTEXT ( ( #333 ) ) GLOBAL_UNIT_ASSIGNED_CONTEXT ( ( #19, #232, #380 ) ) REPRESENTATION_CONTEXT ( 'NONE', 'WORKASPACE' ) );
#323 = EDGE_CURVE ( 'NONE', #274, #44, #189, .T. ) ;
#324 = PERSON_AND_ORGANIZATION_ROLE ( 'creator' ) ;
#325 = PLANE ( 'NONE',  #152 ) ;
#326 = VERTEX_POINT ( 'NONE', #129 ) ;
#327 = CALENDAR_DATE ( 2022, 8, 7 ) ;
#328 = AXIS2_PLACEMENT_3D ( 'NONE', #26, #172, #262 ) ;
#329 = FACE_OUTER_BOUND ( 'NONE', #149, .T. ) ;
#330 = CYLINDRICAL_SURFACE ( 'NONE', #290, 8.000000000000000000 ) ;
#331 = EDGE_CURVE ( 'NONE', #67, #249, #105, .T. ) ;
#332 = ORIENTED_EDGE ( 'NONE', *, *, #128, .T. ) ;
#333 = UNCERTAINTY_MEASURE_WITH_UNIT (LENGTH_MEASURE( 1.000000000000000082E-05 ), #19, 'distance_accuracy_value', 'NONE');
#334 = DATE_AND_TIME ( #216, #196 ) ;
#335 = DIRECTION ( 'NONE',  ( 1.000000000000000000, 0.000000000000000000, -0.000000000000000000 ) ) ;
#336 = VERTEX_POINT ( 'NONE', #281 ) ;
#337 = FACE_BOUND ( 'NONE', #93, .T. ) ;
#338 = CIRCLE ( 'NONE', #168, 8.000000000000000000 ) ;
#339 = CYLINDRICAL_SURFACE ( 'NONE', #118, 8.000000000000000000 ) ;
#340 = CARTESIAN_POINT ( 'NONE',  ( 0.000000000000000000, 0.000000000000000000, 405.0000000000000000 ) ) ;
#341 = EDGE_CURVE ( 'NONE', #171, #143, #296, .T. ) ;
#342 = CARTESIAN_POINT ( 'NONE',  ( 0.000000000000000000, 0.000000000000000000, 5.000000000000000000 ) ) ;
#343 = CIRCLE ( 'NONE', #173, 8.000000000000000000 ) ;
#344 = DIRECTION ( 'NONE',  ( 0.000000000000000000, 0.000000000000000000, 1.000000000000000000 ) ) ;
#345 = PRODUCT_RELATED_PRODUCT_CATEGORY ( 'detail', '', ( #352 ) ) ;
#346 = APPLICATION_CONTEXT ( 'configuration controlled 3d designs of mechanical parts and assemblies' ) ;
#347 = ORIENTED_EDGE ( 'NONE', *, *, #376, .F. ) ;
#348 = ADVANCED_FACE ( 'NONE', ( #371, #256 ), #17, .T. ) ;
#349 = EDGE_LOOP ( 'NONE', ( #293, #379, #332, #242 ) ) ;
#350 = MECHANICAL_CONTEXT ( 'NONE', #130, 'mechanical' ) ;
#351 = CARTESIAN_POINT ( 'NONE',  ( 0.000000000000000000, 0.000000000000000000, 405.0000000000000000 ) ) ;
#352 = PRODUCT ( '36b5', '36b5', '', ( #350 ) ) ;
#353 = CARTESIAN_POINT ( 'NONE',  ( -8.000000000000000000, 0.000000000000000000, 5.000000000000000000 ) ) ;
#354 = AXIS2_PLACEMENT_3D ( 'NONE', #151, #381, #288 ) ;
#355 = COORDINATED_UNIVERSAL_TIME_OFFSET ( 1, 0, .AHEAD. ) ;
#356 = LINE ( 'NONE', #361, #194 ) ;
#357 = FACE_BOUND ( 'NONE', #57, .T. ) ;
#358 = ORIENTED_EDGE ( 'NONE', *, *, #162, .F. ) ;
#359 = COORDINATED_UNIVERSAL_TIME_OFFSET ( 1, 0, .AHEAD. ) ;
#360 = VECTOR ( 'NONE', #219, 1000.000000000000000 ) ;
#361 = CARTESIAN_POINT ( 'NONE',  ( -2.500000000000000000, 0.000000000000000000, 405.0000000000000000 ) ) ;
#362 = ORGANIZATION ( 'NEURÈENÝ', 'NEURÈENÝ', '' ) ;
#363 = CARTESIAN_POINT ( 'NONE',  ( 0.000000000000000000, 0.000000000000000000, 5.000000000000000000 ) ) ;
#364 = CARTESIAN_POINT ( 'NONE',  ( 8.000000000000000000, 9.797174393178825657E-16, 5.000000000000000000 ) ) ;
#365 = ORIENTED_EDGE ( 'NONE', *, *, #74, .T. ) ;
#366 = VECTOR ( 'NONE', #373, 1000.000000000000000 ) ;
#367 = CARTESIAN_POINT ( 'NONE',  ( -5.000000000000000000, 0.000000000000000000, 405.0000000000000000 ) ) ;
#368 = APPROVAL ( #114, 'NEURÈENÝ' ) ;
#369 = CARTESIAN_POINT ( 'NONE',  ( 8.000000000000000000, 9.797174393178825657E-16, 5.000000000000000000 ) ) ;
#370 = DIRECTION ( 'NONE',  ( 1.000000000000000000, 0.000000000000000000, 0.000000000000000000 ) ) ;
#371 = FACE_BOUND ( 'NONE', #259, .T. ) ;
#372 = ADVANCED_FACE ( 'NONE', ( #337, #80 ), #161, .F. ) ;
#373 = DIRECTION ( 'NONE',  ( 0.000000000000000000, 0.000000000000000000, -1.000000000000000000 ) ) ;
#374 = AXIS2_PLACEMENT_3D ( 'NONE', #40, #132, #241 ) ;
#375 = CARTESIAN_POINT ( 'NONE',  ( -2.500000000000000000, 0.000000000000000000, 0.000000000000000000 ) ) ;
#376 = EDGE_CURVE ( 'NONE', #11, #87, #46, .T. ) ;
#377 = CARTESIAN_POINT ( 'NONE',  ( 0.000000000000000000, 0.000000000000000000, 0.000000000000000000 ) ) ;
#378 = DIRECTION ( 'NONE',  ( 0.000000000000000000, 0.000000000000000000, 1.000000000000000000 ) ) ;
#379 = ORIENTED_EDGE ( 'NONE', *, *, #376, .T. ) ;
#380 =( NAMED_UNIT ( * ) SI_UNIT ( $, .STERADIAN. ) SOLID_ANGLE_UNIT ( ) );
#381 = DIRECTION ( 'NONE',  ( 1.224646799147353207E-16, 1.000000000000000000, -0.000000000000000000 ) ) ;
ENDSEC;
END-ISO-10303-21;
