ISO-10303-21;
HEADER;
FILE_DESCRIPTION (( 'STEP AP203' ),
    '1' );
FILE_NAME ('6382.STEP',
    '2022-07-08T15:07:10',
    ( '' ),
    ( '' ),
    'SwSTEP 2.0',
    'SolidWorks 2019',
    '' );
FILE_SCHEMA (( 'CONFIG_CONTROL_DESIGN' ));
ENDSEC;

DATA;
#1 = FACE_OUTER_BOUND ( 'NONE', #273, .T. ) ;
#2 = CARTESIAN_POINT ( 'NONE',  ( 0.000000000000000000, 0.000000000000000000, 5.499999999999949374 ) ) ;
#3 = DIRECTION ( 'NONE',  ( -0.000000000000000000, -0.000000000000000000, -1.000000000000000000 ) ) ;
#4 = EDGE_CURVE ( 'NONE', #96, #358, #139, .T. ) ;
#5 = VERTEX_POINT ( 'NONE', #277 ) ;
#6 = CARTESIAN_POINT ( 'NONE',  ( 0.000000000000000000, 0.000000000000000000, 0.000000000000000000 ) ) ;
#7 = ORIENTED_EDGE ( 'NONE', *, *, #60, .F. ) ;
#8 = AXIS2_PLACEMENT_3D ( 'NONE', #22, #25, #205 ) ;
#9 = FACE_BOUND ( 'NONE', #175, .T. ) ;
#10 = EDGE_LOOP ( 'NONE', ( #306, #142, #206, #39 ) ) ;
#11 = AXIS2_PLACEMENT_3D ( 'NONE', #331, #375, #335 ) ;
#12 = ORIENTED_EDGE ( 'NONE', *, *, #4, .T. ) ;
#13 = DIRECTION ( 'NONE',  ( 0.000000000000000000, 0.000000000000000000, 1.000000000000000000 ) ) ;
#14 = CARTESIAN_POINT ( 'NONE',  ( -2.600000000000000089, 0.000000000000000000, 755.0000000000000000 ) ) ;
#15 = AXIS2_PLACEMENT_3D ( 'NONE', #98, #135, #367 ) ;
#16 = DATE_AND_TIME ( #230, #363 ) ;
#17 = EDGE_CURVE ( 'NONE', #364, #191, #188, .T. ) ;
#18 = DIRECTION ( 'NONE',  ( 1.000000000000000000, 0.000000000000000000, -0.000000000000000000 ) ) ;
#19 = EDGE_LOOP ( 'NONE', ( #85, #38 ) ) ;
#20 = FACE_OUTER_BOUND ( 'NONE', #10, .T. ) ;
#21 = PERSON_AND_ORGANIZATION_ROLE ( 'design_supplier' ) ;
#22 = CARTESIAN_POINT ( 'NONE',  ( 0.000000000000000000, 0.000000000000000000, 5.000000000000000000 ) ) ;
#23 = EDGE_CURVE ( 'NONE', #67, #342, #110, .T. ) ;
#24 = DATE_AND_TIME ( #115, #340 ) ;
#25 = DIRECTION ( 'NONE',  ( -0.000000000000000000, -0.000000000000000000, -1.000000000000000000 ) ) ;
#26 = DIRECTION ( 'NONE',  ( 0.000000000000000000, 0.000000000000000000, -1.000000000000000000 ) ) ;
#27 = CC_DESIGN_DATE_AND_TIME_ASSIGNMENT ( #16, #46, ( #356 ) ) ;
#28 = CIRCLE ( 'NONE', #34, 2.600000000000000089 ) ;
#29 = CARTESIAN_POINT ( 'NONE',  ( 0.000000000000000000, 0.000000000000000000, 5.000000000000000000 ) ) ;
#30 = EDGE_LOOP ( 'NONE', ( #166, #237, #226, #310 ) ) ;
#31 = CARTESIAN_POINT ( 'NONE',  ( -2.600000000000000089, 0.000000000000000000, 755.0000000000000000 ) ) ;
#32 = LINE ( 'NONE', #299, #235 ) ;
#33 = DIRECTION ( 'NONE',  ( -0.000000000000000000, -0.000000000000000000, -1.000000000000000000 ) ) ;
#34 = AXIS2_PLACEMENT_3D ( 'NONE', #174, #118, #116 ) ;
#35 = AXIS2_PLACEMENT_3D ( 'NONE', #43, #153, #357 ) ;
#36 = DIRECTION ( 'NONE',  ( -0.000000000000000000, -0.000000000000000000, -1.000000000000000000 ) ) ;
#37 = AXIS2_PLACEMENT_3D ( 'NONE', #82, #136, #279 ) ;
#38 = ORIENTED_EDGE ( 'NONE', *, *, #83, .F. ) ;
#39 = ORIENTED_EDGE ( 'NONE', *, *, #182, .F. ) ;
#40 = LOCAL_TIME ( 17, 7, 10.00000000000000000, #49 ) ;
#41 = LINE ( 'NONE', #109, #133 ) ;
#42 = AXIS2_PLACEMENT_3D ( 'NONE', #134, #371, #281 ) ;
#43 = CARTESIAN_POINT ( 'NONE',  ( 0.000000000000000000, 0.000000000000000000, 0.000000000000000000 ) ) ;
#44 = ORIENTED_EDGE ( 'NONE', *, *, #268, .T. ) ;
#45 = ADVANCED_FACE ( 'NONE', ( #106 ), #256, .T. ) ;
#46 = DATE_TIME_ROLE ( 'classification_date' ) ;
#47 = DIRECTION ( 'NONE',  ( 0.000000000000000000, 0.000000000000000000, -1.000000000000000000 ) ) ;
#48 = CIRCLE ( 'NONE', #265, 4.500000000000000888 ) ;
#49 = COORDINATED_UNIVERSAL_TIME_OFFSET ( 1, 0, .AHEAD. ) ;
#50 = FACE_OUTER_BOUND ( 'NONE', #92, .T. ) ;
#51 = CARTESIAN_POINT ( 'NONE',  ( 0.000000000000000000, 0.000000000000000000, 5.000000000000000000 ) ) ;
#52 = PERSON_AND_ORGANIZATION_ROLE ( 'creator' ) ;
#53 = EDGE_CURVE ( 'NONE', #77, #250, #41, .T. ) ;
#54 = CARTESIAN_POINT ( 'NONE',  ( -4.500000000000000888, 5.510910596163088569E-16, 4.999999999999975131 ) ) ;
#55 = APPROVAL_DATE_TIME ( #164, #170 ) ;
#56 = AXIS2_PLACEMENT_3D ( 'NONE', #172, #381, #317 ) ;
#57 = LOCAL_TIME ( 17, 7, 10.00000000000000000, #86 ) ;
#58 = CARTESIAN_POINT ( 'NONE',  ( 0.000000000000000000, 0.000000000000000000, 0.000000000000000000 ) ) ;
#59 = CARTESIAN_POINT ( 'NONE',  ( -7.000000000000000000, 0.000000000000000000, 5.000000000000000000 ) ) ;
#60 = EDGE_CURVE ( 'NONE', #123, #373, #151, .T. ) ;
#61 = DIRECTION ( 'NONE',  ( 1.000000000000000000, 0.000000000000000000, 0.000000000000000000 ) ) ;
#62 = ORIENTED_EDGE ( 'NONE', *, *, #339, .T. ) ;
#63 = CARTESIAN_POINT ( 'NONE',  ( 0.000000000000000000, 0.000000000000000000, 0.000000000000000000 ) ) ;
#64 = DIRECTION ( 'NONE',  ( 0.000000000000000000, 0.000000000000000000, -1.000000000000000000 ) ) ;
#65 = ORIENTED_EDGE ( 'NONE', *, *, #289, .F. ) ;
#66 = APPROVAL_STATUS ( 'not_yet_approved' ) ;
#67 = VERTEX_POINT ( 'NONE', #157 ) ;
#68 = DIRECTION ( 'NONE',  ( 1.000000000000000000, 0.000000000000000000, 0.000000000000000000 ) ) ;
#69 = AXIS2_PLACEMENT_3D ( 'NONE', #63, #293, #297 ) ;
#70 = EDGE_LOOP ( 'NONE', ( #7, #72 ) ) ;
#71 = ADVANCED_FACE ( 'NONE', ( #275, #248 ), #193, .T. ) ;
#72 = ORIENTED_EDGE ( 'NONE', *, *, #159, .F. ) ;
#73 = DIRECTION ( 'NONE',  ( 0.000000000000000000, 0.000000000000000000, 1.000000000000000000 ) ) ;
#74 = AXIS2_PLACEMENT_3D ( 'NONE', #347, #89, #282 ) ;
#75 = DIRECTION ( 'NONE',  ( 1.000000000000000000, 0.000000000000000000, 0.000000000000000000 ) ) ;
#76 = EDGE_CURVE ( 'NONE', #77, #114, #126, .T. ) ;
#77 = VERTEX_POINT ( 'NONE', #309 ) ;
#78 = EDGE_LOOP ( 'NONE', ( #103, #130, #326, #368 ) ) ;
#79 = APPROVAL_STATUS ( 'not_yet_approved' ) ;
#80 = ORIENTED_EDGE ( 'NONE', *, *, #231, .T. ) ;
#81 = PERSON_AND_ORGANIZATION_ROLE ( 'classification_officer' ) ;
#82 = CARTESIAN_POINT ( 'NONE',  ( 0.000000000000000000, 0.000000000000000000, 755.0000000000000000 ) ) ;
#83 = EDGE_CURVE ( 'NONE', #67, #364, #350, .T. ) ;
#84 = CARTESIAN_POINT ( 'NONE',  ( 0.000000000000000000, 0.000000000000000000, 5.499999999999949374 ) ) ;
#85 = ORIENTED_EDGE ( 'NONE', *, *, #177, .F. ) ;
#86 = COORDINATED_UNIVERSAL_TIME_OFFSET ( 1, 0, .AHEAD. ) ;
#87 = DIRECTION ( 'NONE',  ( 0.000000000000000000, 0.000000000000000000, 1.000000000000000000 ) ) ;
#88 = AXIS2_PLACEMENT_3D ( 'NONE', #84, #312, #285 ) ;
#89 = DIRECTION ( 'NONE',  ( 0.000000000000000000, 0.000000000000000000, 1.000000000000000000 ) ) ;
#90 = ADVANCED_FACE ( 'NONE', ( #305, #50 ), #111, .T. ) ;
#91 = DIRECTION ( 'NONE',  ( 0.000000000000000000, 0.000000000000000000, 1.000000000000000000 ) ) ;
#92 = EDGE_LOOP ( 'NONE', ( #271, #44 ) ) ;
#93 = DIRECTION ( 'NONE',  ( -1.000000000000000000, 0.000000000000000000, 0.000000000000000000 ) ) ;
#94 = PERSON ( 'NEURÈENÝ', 'NEURÈENÝ', 'NEURÈENÝ', ('NEURÈENÝ'), ('NEURÈENÝ'), ('NEURÈENÝ') ) ;
#95 = DIRECTION ( 'NONE',  ( 1.000000000000000000, 0.000000000000000000, 0.000000000000000000 ) ) ;
#96 = VERTEX_POINT ( 'NONE', #54 ) ;
#97 = ADVANCED_FACE ( 'NONE', ( #352 ), #266, .T. ) ;
#98 = CARTESIAN_POINT ( 'NONE',  ( 0.000000000000000000, 0.000000000000000000, 5.499999999999949374 ) ) ;
#99 = AXIS2_PLACEMENT_3D ( 'NONE', #29, #3, #146 ) ;
#100 = PLANE ( 'NONE',  #69 ) ;
#101 = ORIENTED_EDGE ( 'NONE', *, *, #23, .T. ) ;
#102 = EDGE_CURVE ( 'NONE', #114, #77, #322, .T. ) ;
#103 = ORIENTED_EDGE ( 'NONE', *, *, #76, .F. ) ;
#104 = VERTEX_POINT ( 'NONE', #236 ) ;
#105 =( NAMED_UNIT ( * ) SI_UNIT ( $, .STERADIAN. ) SOLID_ANGLE_UNIT ( ) );
#106 = FACE_OUTER_BOUND ( 'NONE', #132, .T. ) ;
#107 = CIRCLE ( 'NONE', #35, 2.600000000000000089 ) ;
#108 = CARTESIAN_POINT ( 'NONE',  ( 4.500000000000000888, 0.000000000000000000, 4.999999999999975131 ) ) ;
#109 = CARTESIAN_POINT ( 'NONE',  ( 4.000000000000000000, 4.898587196589412829E-16, 755.0000000000000000 ) ) ;
#110 = LINE ( 'NONE', #190, #280 ) ;
#111 = PLANE ( 'NONE',  #197 ) ;
#112 = AXIS2_PLACEMENT_3D ( 'NONE', #218, #125, #361 ) ;
#113 = CARTESIAN_POINT ( 'NONE',  ( -4.000000000000000000, 0.000000000000000000, 5.499999999999949374 ) ) ;
#114 = VERTEX_POINT ( 'NONE', #167 ) ;
#115 = CALENDAR_DATE ( 2022, 8, 7 ) ;
#116 = DIRECTION ( 'NONE',  ( 1.000000000000000000, 0.000000000000000000, 0.000000000000000000 ) ) ;
#117 = ADVANCED_FACE ( 'NONE', ( #20 ), #344, .T. ) ;
#118 = DIRECTION ( 'NONE',  ( 0.000000000000000000, 0.000000000000000000, 1.000000000000000000 ) ) ;
#119 = LINE ( 'NONE', #291, #156 ) ;
#120 = AXIS2_PLACEMENT_3D ( 'NONE', #198, #91, #61 ) ;
#121 = DIRECTION ( 'NONE',  ( -0.000000000000000000, -0.000000000000000000, -1.000000000000000000 ) ) ;
#122 = EDGE_LOOP ( 'NONE', ( #300, #321, #240, #222 ) ) ;
#123 = VERTEX_POINT ( 'NONE', #318 ) ;
#124 = VECTOR ( 'NONE', #228, 1000.000000000000000 ) ;
#125 = DIRECTION ( 'NONE',  ( 1.224646799147353207E-16, 1.000000000000000000, -0.000000000000000000 ) ) ;
#126 = CIRCLE ( 'NONE', #178, 4.000000000000000000 ) ;
#127 = DESIGN_CONTEXT ( 'detailed design', #225, 'design' ) ;
#128 = ORIENTED_EDGE ( 'NONE', *, *, #17, .F. ) ;
#129 = APPROVAL ( #79, 'NEURÈENÝ' ) ;
#130 = ORIENTED_EDGE ( 'NONE', *, *, #53, .T. ) ;
#131 = APPROVAL_PERSON_ORGANIZATION ( #210, #165, #323 ) ;
#132 = EDGE_LOOP ( 'NONE', ( #351, #330, #245, #336 ) ) ;
#133 = VECTOR ( 'NONE', #276, 1000.000000000000000 ) ;
#134 = CARTESIAN_POINT ( 'NONE',  ( 0.000000000000000000, 0.000000000000000000, 5.000000000000000000 ) ) ;
#135 = DIRECTION ( 'NONE',  ( 0.000000000000000000, 0.000000000000000000, 1.000000000000000000 ) ) ;
#136 = DIRECTION ( 'NONE',  ( -0.000000000000000000, -0.000000000000000000, -1.000000000000000000 ) ) ;
#137 = AXIS2_PLACEMENT_3D ( 'NONE', #239, #189, #64 ) ;
#138 = CARTESIAN_POINT ( 'NONE',  ( 0.000000000000000000, 0.000000000000000000, 755.0000000000000000 ) ) ;
#139 = CIRCLE ( 'NONE', #42, 4.500000000000000888 ) ;
#140 = DATE_AND_TIME ( #307, #40 ) ;
#141 = PRODUCT_DEFINITION ( 'NEZNÁMÝ', '', #258, #127 ) ;
#142 = ORIENTED_EDGE ( 'NONE', *, *, #354, .T. ) ;
#143 = CYLINDRICAL_SURFACE ( 'NONE', #274, 4.000000000000000000 ) ;
#144 = CC_DESIGN_APPROVAL ( #129, ( #258 ) ) ;
#145 = COORDINATED_UNIVERSAL_TIME_OFFSET ( 1, 0, .AHEAD. ) ;
#146 = DIRECTION ( 'NONE',  ( -1.000000000000000000, 0.000000000000000000, 0.000000000000000000 ) ) ;
#147 = PERSON_AND_ORGANIZATION ( #94, #292 ) ;
#148 = FACE_OUTER_BOUND ( 'NONE', #122, .T. ) ;
#149 = DIRECTION ( 'NONE',  ( -1.000000000000000000, 0.000000000000000000, 0.000000000000000000 ) ) ;
#150 = CARTESIAN_POINT ( 'NONE',  ( 4.000000000000000000, 4.898587196589412829E-16, 5.499999999999949374 ) ) ;
#151 = CIRCLE ( 'NONE', #253, 7.000000000000000000 ) ;
#152 = ADVANCED_FACE ( 'NONE', ( #148 ), #176, .F. ) ;
#153 = DIRECTION ( 'NONE',  ( -0.000000000000000000, -0.000000000000000000, -1.000000000000000000 ) ) ;
#154 = APPLICATION_CONTEXT ( 'configuration controlled 3d designs of mechanical parts and assemblies' ) ;
#155 =( NAMED_UNIT ( * ) PLANE_ANGLE_UNIT ( ) SI_UNIT ( $, .RADIAN. ) );
#156 = VECTOR ( 'NONE', #121, 1000.000000000000000 ) ;
#157 = CARTESIAN_POINT ( 'NONE',  ( 2.600000000000000089, 3.184081677783118191E-16, 755.0000000000000000 ) ) ;
#158 = DIRECTION ( 'NONE',  ( 0.000000000000000000, 0.000000000000000000, -1.000000000000000000 ) ) ;
#159 = EDGE_CURVE ( 'NONE', #373, #123, #219, .T. ) ;
#160 = FACE_OUTER_BOUND ( 'NONE', #70, .T. ) ;
#161 = CARTESIAN_POINT ( 'NONE',  ( 0.000000000000000000, 0.000000000000000000, 5.000000000000000000 ) ) ;
#162 = DIRECTION ( 'NONE',  ( 0.000000000000000000, 0.000000000000000000, 1.000000000000000000 ) ) ;
#163 = AXIS2_PLACEMENT_3D ( 'NONE', #348, #26, #149 ) ;
#164 = DATE_AND_TIME ( #221, #57 ) ;
#165 = APPROVAL ( #66, 'NEURÈENÝ' ) ;
#166 = ORIENTED_EDGE ( 'NONE', *, *, #354, .F. ) ;
#167 = CARTESIAN_POINT ( 'NONE',  ( -4.000000000000000000, 0.000000000000000000, 755.0000000000000000 ) ) ;
#168 = DATE_AND_TIME ( #372, #302 ) ;
#169 = CARTESIAN_POINT ( 'NONE',  ( 0.000000000000000000, 0.000000000000000000, 5.000000000000000000 ) ) ;
#170 = APPROVAL ( #345, 'NEURÈENÝ' ) ;
#171 = PERSON_AND_ORGANIZATION ( #94, #292 ) ;
#172 = CARTESIAN_POINT ( 'NONE',  ( 0.000000000000000000, 0.000000000000000000, 0.000000000000000000 ) ) ;
#173 = PRODUCT_DEFINITION_SHAPE ( 'NONE', 'NONE',  #141 ) ;
#174 = CARTESIAN_POINT ( 'NONE',  ( 0.000000000000000000, 0.000000000000000000, 755.0000000000000000 ) ) ;
#175 = EDGE_LOOP ( 'NONE', ( #217, #65 ) ) ;
#176 = TOROIDAL_SURFACE ( 'NONE', #88, 4.500000000000000888, 0.5000000000000000000 ) ;
#177 = EDGE_CURVE ( 'NONE', #364, #67, #28, .T. ) ;
#178 = AXIS2_PLACEMENT_3D ( 'NONE', #365, #254, #220 ) ;
#179 = FACE_OUTER_BOUND ( 'NONE', #185, .T. ) ;
#180 = DIRECTION ( 'NONE',  ( 0.000000000000000000, 0.000000000000000000, -1.000000000000000000 ) ) ;
#181 = ADVANCED_BREP_SHAPE_REPRESENTATION ( '6382', ( #283, #246 ), #308 ) ;
#182 = EDGE_CURVE ( 'NONE', #5, #123, #262, .T. ) ;
#183 = CIRCLE ( 'NONE', #286, 7.000000000000000000 ) ;
#184 = ORIENTED_EDGE ( 'NONE', *, *, #334, .T. ) ;
#185 = EDGE_LOOP ( 'NONE', ( #353, #229, #362, #80 ) ) ;
#186 = ADVANCED_FACE ( 'NONE', ( #232 ), #203, .F. ) ;
#187 = APPROVAL_PERSON_ORGANIZATION ( #171, #129, #311 ) ;
#188 = LINE ( 'NONE', #14, #294 ) ;
#189 = DIRECTION ( 'NONE',  ( 0.000000000000000000, -1.000000000000000000, 0.000000000000000000 ) ) ;
#190 = CARTESIAN_POINT ( 'NONE',  ( 2.600000000000000089, 3.184081677783118191E-16, 755.0000000000000000 ) ) ;
#191 = VERTEX_POINT ( 'NONE', #234 ) ;
#192 = EDGE_CURVE ( 'NONE', #250, #252, #333, .T. ) ;
#193 = PLANE ( 'NONE',  #343 ) ;
#194 = CIRCLE ( 'NONE', #137, 0.5000000000000004441 ) ;
#195 = PERSON_AND_ORGANIZATION ( #94, #292 ) ;
#196 = CARTESIAN_POINT ( 'NONE',  ( 0.000000000000000000, 0.000000000000000000, 0.000000000000000000 ) ) ;
#197 = AXIS2_PLACEMENT_3D ( 'NONE', #161, #73, #204 ) ;
#198 = CARTESIAN_POINT ( 'NONE',  ( 0.000000000000000000, 0.000000000000000000, 755.0000000000000000 ) ) ;
#199 = ORIENTED_EDGE ( 'NONE', *, *, #289, .T. ) ;
#200 = PERSON_AND_ORGANIZATION ( #94, #292 ) ;
#201 = CC_DESIGN_PERSON_AND_ORGANIZATION_ASSIGNMENT ( #380, #284, ( #258 ) ) ;
#202 = DIRECTION ( 'NONE',  ( 0.000000000000000000, 0.000000000000000000, 1.000000000000000000 ) ) ;
#203 = TOROIDAL_SURFACE ( 'NONE', #242, 4.500000000000000888, 0.5000000000000000000 ) ;
#204 = DIRECTION ( 'NONE',  ( 1.000000000000000000, 0.000000000000000000, -0.000000000000000000 ) ) ;
#205 = DIRECTION ( 'NONE',  ( -1.000000000000000000, 0.000000000000000000, 0.000000000000000000 ) ) ;
#206 = ORIENTED_EDGE ( 'NONE', *, *, #159, .T. ) ;
#207 = EDGE_CURVE ( 'NONE', #5, #104, #227, .T. ) ;
#208 = DIRECTION ( 'NONE',  ( 1.000000000000000000, 0.000000000000000000, 0.000000000000000000 ) ) ;
#209 = CC_DESIGN_APPROVAL ( #165, ( #141 ) ) ;
#210 = PERSON_AND_ORGANIZATION ( #94, #292 ) ;
#211 = EDGE_LOOP ( 'NONE', ( #62, #12 ) ) ;
#212 = CARTESIAN_POINT ( 'NONE',  ( 7.000000000000000000, 8.572527594031473190E-16, 0.000000000000000000 ) ) ;
#213 = ORIENTED_EDGE ( 'NONE', *, *, #339, .F. ) ;
#214 = CIRCLE ( 'NONE', #15, 4.000000000000000000 ) ;
#215 = ORIENTED_EDGE ( 'NONE', *, *, #316, .F. ) ;
#216 = PRODUCT_RELATED_PRODUCT_CATEGORY ( 'detail', '', ( #233 ) ) ;
#217 = ORIENTED_EDGE ( 'NONE', *, *, #231, .F. ) ;
#218 = CARTESIAN_POINT ( 'NONE',  ( -4.500000000000000888, 5.510910596163089556E-16, 5.499999999999949374 ) ) ;
#219 = CIRCLE ( 'NONE', #56, 7.000000000000000000 ) ;
#220 = DIRECTION ( 'NONE',  ( 1.000000000000000000, 0.000000000000000000, 0.000000000000000000 ) ) ;
#221 = CALENDAR_DATE ( 2022, 8, 7 ) ;
#222 = ORIENTED_EDGE ( 'NONE', *, *, #4, .F. ) ;
#223 = SECURITY_CLASSIFICATION_LEVEL ( 'unclassified' ) ;
#224 = DIRECTION ( 'NONE',  ( 0.000000000000000000, 0.000000000000000000, 1.000000000000000000 ) ) ;
#225 = APPLICATION_CONTEXT ( 'configuration controlled 3d designs of mechanical parts and assemblies' ) ;
#226 = ORIENTED_EDGE ( 'NONE', *, *, #182, .T. ) ;
#227 = CIRCLE ( 'NONE', #298, 7.000000000000000000 ) ;
#228 = DIRECTION ( 'NONE',  ( -0.000000000000000000, -0.000000000000000000, -1.000000000000000000 ) ) ;
#229 = ORIENTED_EDGE ( 'NONE', *, *, #83, .T. ) ;
#230 = CALENDAR_DATE ( 2022, 8, 7 ) ;
#231 = EDGE_CURVE ( 'NONE', #191, #342, #269, .T. ) ;
#232 = FACE_OUTER_BOUND ( 'NONE', #303, .T. ) ;
#233 = PRODUCT ( '6382', '6382', '', ( #249 ) ) ;
#234 = CARTESIAN_POINT ( 'NONE',  ( -2.600000000000000089, 0.000000000000000000, 0.000000000000000000 ) ) ;
#235 = VECTOR ( 'NONE', #36, 1000.000000000000000 ) ;
#236 = CARTESIAN_POINT ( 'NONE',  ( 7.000000000000000000, 8.572527594031473190E-16, 5.000000000000000000 ) ) ;
#237 = ORIENTED_EDGE ( 'NONE', *, *, #207, .F. ) ;
#238 = FACE_OUTER_BOUND ( 'NONE', #78, .T. ) ;
#239 = CARTESIAN_POINT ( 'NONE',  ( 4.500000000000000888, 0.000000000000000000, 5.499999999999949374 ) ) ;
#240 = ORIENTED_EDGE ( 'NONE', *, *, #316, .T. ) ;
#241 = ADVANCED_FACE ( 'NONE', ( #1 ), #290, .F. ) ;
#242 = AXIS2_PLACEMENT_3D ( 'NONE', #2, #87, #208 ) ;
#243 = PERSON_AND_ORGANIZATION_ROLE ( 'design_owner' ) ;
#244 = UNCERTAINTY_MEASURE_WITH_UNIT (LENGTH_MEASURE( 1.000000000000000082E-05 ), #332, 'distance_accuracy_value', 'NONE');
#245 = ORIENTED_EDGE ( 'NONE', *, *, #251, .T. ) ;
#246 = AXIS2_PLACEMENT_3D ( 'NONE', #6, #13, #75 ) ;
#247 = CC_DESIGN_PERSON_AND_ORGANIZATION_ASSIGNMENT ( #255, #52, ( #141 ) ) ;
#248 = FACE_OUTER_BOUND ( 'NONE', #324, .T. ) ;
#249 = MECHANICAL_CONTEXT ( 'NONE', #154, 'mechanical' ) ;
#250 = VERTEX_POINT ( 'NONE', #150 ) ;
#251 = EDGE_CURVE ( 'NONE', #114, #252, #119, .T. ) ;
#252 = VERTEX_POINT ( 'NONE', #113 ) ;
#253 = AXIS2_PLACEMENT_3D ( 'NONE', #196, #162, #338 ) ;
#254 = DIRECTION ( 'NONE',  ( 0.000000000000000000, 0.000000000000000000, 1.000000000000000000 ) ) ;
#255 = PERSON_AND_ORGANIZATION ( #94, #292 ) ;
#256 = CYLINDRICAL_SURFACE ( 'NONE', #37, 4.000000000000000000 ) ;
#257 = CARTESIAN_POINT ( 'NONE',  ( 0.000000000000000000, 0.000000000000000000, 755.0000000000000000 ) ) ;
#258 = PRODUCT_DEFINITION_FORMATION_WITH_SPECIFIED_SOURCE ( 'LIBOVOLNÝ', '', #233, .NOT_KNOWN. ) ;
#259 = ADVANCED_FACE ( 'NONE', ( #238 ), #143, .T. ) ;
#260 = COORDINATED_UNIVERSAL_TIME_OFFSET ( 1, 0, .AHEAD. ) ;
#261 = APPROVAL_DATE_TIME ( #168, #129 ) ;
#262 = LINE ( 'NONE', #59, #124 ) ;
#263 = CC_DESIGN_PERSON_AND_ORGANIZATION_ASSIGNMENT ( #200, #21, ( #258 ) ) ;
#264 = DIRECTION ( 'NONE',  ( 1.000000000000000000, 0.000000000000000000, 0.000000000000000000 ) ) ;
#265 = AXIS2_PLACEMENT_3D ( 'NONE', #267, #33, #68 ) ;
#266 = CYLINDRICAL_SURFACE ( 'NONE', #99, 7.000000000000000000 ) ;
#267 = CARTESIAN_POINT ( 'NONE',  ( 0.000000000000000000, 0.000000000000000000, 5.000000000000000000 ) ) ;
#268 = EDGE_CURVE ( 'NONE', #104, #5, #183, .T. ) ;
#269 = CIRCLE ( 'NONE', #278, 2.600000000000000089 ) ;
#270 = APPLICATION_PROTOCOL_DEFINITION ( 'international standard', 'config_control_design', 1994, #225 ) ;
#271 = ORIENTED_EDGE ( 'NONE', *, *, #207, .T. ) ;
#272 = CC_DESIGN_DATE_AND_TIME_ASSIGNMENT ( #140, #374, ( #141 ) ) ;
#273 = EDGE_LOOP ( 'NONE', ( #355, #101, #199, #128 ) ) ;
#274 = AXIS2_PLACEMENT_3D ( 'NONE', #257, #349, #93 ) ;
#275 = FACE_BOUND ( 'NONE', #19, .T. ) ;
#276 = DIRECTION ( 'NONE',  ( -0.000000000000000000, -0.000000000000000000, -1.000000000000000000 ) ) ;
#277 = CARTESIAN_POINT ( 'NONE',  ( -7.000000000000000000, 0.000000000000000000, 5.000000000000000000 ) ) ;
#278 = AXIS2_PLACEMENT_3D ( 'NONE', #58, #288, #264 ) ;
#279 = DIRECTION ( 'NONE',  ( -1.000000000000000000, 0.000000000000000000, 0.000000000000000000 ) ) ;
#280 = VECTOR ( 'NONE', #47, 1000.000000000000000 ) ;
#281 = DIRECTION ( 'NONE',  ( 1.000000000000000000, 0.000000000000000000, 0.000000000000000000 ) ) ;
#282 = DIRECTION ( 'NONE',  ( 1.000000000000000000, 0.000000000000000000, 0.000000000000000000 ) ) ;
#283 = MANIFOLD_SOLID_BREP ( 'Odebrat vysunutím3', #359 ) ;
#284 = PERSON_AND_ORGANIZATION_ROLE ( 'creator' ) ;
#285 = DIRECTION ( 'NONE',  ( 1.000000000000000000, 0.000000000000000000, 0.000000000000000000 ) ) ;
#286 = AXIS2_PLACEMENT_3D ( 'NONE', #51, #378, #95 ) ;
#287 = SHAPE_DEFINITION_REPRESENTATION ( #173, #181 ) ;
#288 = DIRECTION ( 'NONE',  ( -0.000000000000000000, -0.000000000000000000, -1.000000000000000000 ) ) ;
#289 = EDGE_CURVE ( 'NONE', #342, #191, #107, .T. ) ;
#290 = CYLINDRICAL_SURFACE ( 'NONE', #163, 2.600000000000000089 ) ;
#291 = CARTESIAN_POINT ( 'NONE',  ( -4.000000000000000000, 0.000000000000000000, 755.0000000000000000 ) ) ;
#292 = ORGANIZATION ( 'NEURÈENÝ', 'NEURÈENÝ', '' ) ;
#293 = DIRECTION ( 'NONE',  ( 0.000000000000000000, 0.000000000000000000, 1.000000000000000000 ) ) ;
#294 = VECTOR ( 'NONE', #158, 1000.000000000000000 ) ;
#295 = CARTESIAN_POINT ( 'NONE',  ( 2.600000000000000089, 3.184081677783118191E-16, 0.000000000000000000 ) ) ;
#296 = ADVANCED_FACE ( 'NONE', ( #179 ), #304, .F. ) ;
#297 = DIRECTION ( 'NONE',  ( 1.000000000000000000, 0.000000000000000000, -0.000000000000000000 ) ) ;
#298 = AXIS2_PLACEMENT_3D ( 'NONE', #169, #202, #315 ) ;
#299 = CARTESIAN_POINT ( 'NONE',  ( 7.000000000000000000, 8.572527594031473190E-16, 5.000000000000000000 ) ) ;
#300 = ORIENTED_EDGE ( 'NONE', *, *, #334, .F. ) ;
#301 = ORIENTED_EDGE ( 'NONE', *, *, #346, .F. ) ;
#302 = LOCAL_TIME ( 17, 7, 10.00000000000000000, #260 ) ;
#303 = EDGE_LOOP ( 'NONE', ( #301, #184, #213, #215 ) ) ;
#304 = CYLINDRICAL_SURFACE ( 'NONE', #328, 2.600000000000000089 ) ;
#305 = FACE_BOUND ( 'NONE', #211, .T. ) ;
#306 = ORIENTED_EDGE ( 'NONE', *, *, #268, .F. ) ;
#307 = CALENDAR_DATE ( 2022, 8, 7 ) ;
#308 =( GEOMETRIC_REPRESENTATION_CONTEXT ( 3 ) GLOBAL_UNCERTAINTY_ASSIGNED_CONTEXT ( ( #244 ) ) GLOBAL_UNIT_ASSIGNED_CONTEXT ( ( #332, #155, #105 ) ) REPRESENTATION_CONTEXT ( 'NONE', 'WORKASPACE' ) );
#309 = CARTESIAN_POINT ( 'NONE',  ( 4.000000000000000000, 4.898587196589412829E-16, 755.0000000000000000 ) ) ;
#310 = ORIENTED_EDGE ( 'NONE', *, *, #60, .T. ) ;
#311 = APPROVAL_ROLE ( '' ) ;
#312 = DIRECTION ( 'NONE',  ( 0.000000000000000000, 0.000000000000000000, 1.000000000000000000 ) ) ;
#313 = ORIENTED_EDGE ( 'NONE', *, *, #76, .T. ) ;
#314 = APPROVAL_DATE_TIME ( #24, #165 ) ;
#315 = DIRECTION ( 'NONE',  ( 1.000000000000000000, 0.000000000000000000, 0.000000000000000000 ) ) ;
#316 = EDGE_CURVE ( 'NONE', #250, #358, #194, .T. ) ;
#317 = DIRECTION ( 'NONE',  ( 1.000000000000000000, 0.000000000000000000, 0.000000000000000000 ) ) ;
#318 = CARTESIAN_POINT ( 'NONE',  ( -7.000000000000000000, 0.000000000000000000, 0.000000000000000000 ) ) ;
#319 = APPLICATION_PROTOCOL_DEFINITION ( 'international standard', 'config_control_design', 1994, #154 ) ;
#320 = PERSON_AND_ORGANIZATION ( #94, #292 ) ;
#321 = ORIENTED_EDGE ( 'NONE', *, *, #192, .F. ) ;
#322 = CIRCLE ( 'NONE', #120, 4.000000000000000000 ) ;
#323 = APPROVAL_ROLE ( '' ) ;
#324 = EDGE_LOOP ( 'NONE', ( #379, #313 ) ) ;
#325 = DIRECTION ( 'NONE',  ( -1.000000000000000000, 0.000000000000000000, 0.000000000000000000 ) ) ;
#326 = ORIENTED_EDGE ( 'NONE', *, *, #192, .T. ) ;
#327 = CC_DESIGN_PERSON_AND_ORGANIZATION_ASSIGNMENT ( #320, #243, ( #233 ) ) ;
#328 = AXIS2_PLACEMENT_3D ( 'NONE', #369, #180, #325 ) ;
#329 = CC_DESIGN_SECURITY_CLASSIFICATION ( #356, ( #258 ) ) ;
#330 = ORIENTED_EDGE ( 'NONE', *, *, #102, .F. ) ;
#331 = CARTESIAN_POINT ( 'NONE',  ( 0.000000000000000000, 0.000000000000000000, 755.0000000000000000 ) ) ;
#332 =( LENGTH_UNIT ( ) NAMED_UNIT ( * ) SI_UNIT ( .MILLI., .METRE. ) );
#333 = CIRCLE ( 'NONE', #74, 4.000000000000000000 ) ;
#334 = EDGE_CURVE ( 'NONE', #252, #96, #377, .T. ) ;
#335 = DIRECTION ( 'NONE',  ( 1.000000000000000000, 0.000000000000000000, 0.000000000000000000 ) ) ;
#336 = ORIENTED_EDGE ( 'NONE', *, *, #346, .T. ) ;
#337 = APPROVAL_ROLE ( '' ) ;
#338 = DIRECTION ( 'NONE',  ( 1.000000000000000000, 0.000000000000000000, 0.000000000000000000 ) ) ;
#339 = EDGE_CURVE ( 'NONE', #358, #96, #48, .T. ) ;
#340 = LOCAL_TIME ( 17, 7, 10.00000000000000000, #145 ) ;
#341 = CC_DESIGN_APPROVAL ( #170, ( #356 ) ) ;
#342 = VERTEX_POINT ( 'NONE', #295 ) ;
#343 = AXIS2_PLACEMENT_3D ( 'NONE', #138, #224, #18 ) ;
#344 = CYLINDRICAL_SURFACE ( 'NONE', #8, 7.000000000000000000 ) ;
#345 = APPROVAL_STATUS ( 'not_yet_approved' ) ;
#346 = EDGE_CURVE ( 'NONE', #252, #250, #214, .T. ) ;
#347 = CARTESIAN_POINT ( 'NONE',  ( 0.000000000000000000, 0.000000000000000000, 5.499999999999949374 ) ) ;
#348 = CARTESIAN_POINT ( 'NONE',  ( 0.000000000000000000, 0.000000000000000000, 755.0000000000000000 ) ) ;
#349 = DIRECTION ( 'NONE',  ( -0.000000000000000000, -0.000000000000000000, -1.000000000000000000 ) ) ;
#350 = CIRCLE ( 'NONE', #11, 2.600000000000000089 ) ;
#351 = ORIENTED_EDGE ( 'NONE', *, *, #53, .F. ) ;
#352 = FACE_OUTER_BOUND ( 'NONE', #30, .T. ) ;
#353 = ORIENTED_EDGE ( 'NONE', *, *, #23, .F. ) ;
#354 = EDGE_CURVE ( 'NONE', #104, #373, #32, .T. ) ;
#355 = ORIENTED_EDGE ( 'NONE', *, *, #177, .T. ) ;
#356 = SECURITY_CLASSIFICATION ( '', '', #223 ) ;
#357 = DIRECTION ( 'NONE',  ( 1.000000000000000000, 0.000000000000000000, 0.000000000000000000 ) ) ;
#358 = VERTEX_POINT ( 'NONE', #108 ) ;
#359 = CLOSED_SHELL ( 'NONE', ( #241, #186, #259, #117, #97, #90, #366, #45, #71, #152, #296 ) ) ;
#360 = CC_DESIGN_PERSON_AND_ORGANIZATION_ASSIGNMENT ( #147, #81, ( #356 ) ) ;
#361 = DIRECTION ( 'NONE',  ( -1.000000000000000000, 1.224646799147351482E-16, 0.000000000000000000 ) ) ;
#362 = ORIENTED_EDGE ( 'NONE', *, *, #17, .T. ) ;
#363 = LOCAL_TIME ( 17, 7, 10.00000000000000000, #376 ) ;
#364 = VERTEX_POINT ( 'NONE', #31 ) ;
#365 = CARTESIAN_POINT ( 'NONE',  ( 0.000000000000000000, 0.000000000000000000, 755.0000000000000000 ) ) ;
#366 = ADVANCED_FACE ( 'NONE', ( #9, #160 ), #100, .F. ) ;
#367 = DIRECTION ( 'NONE',  ( 1.000000000000000000, 0.000000000000000000, 0.000000000000000000 ) ) ;
#368 = ORIENTED_EDGE ( 'NONE', *, *, #251, .F. ) ;
#369 = CARTESIAN_POINT ( 'NONE',  ( 0.000000000000000000, 0.000000000000000000, 755.0000000000000000 ) ) ;
#370 = APPROVAL_PERSON_ORGANIZATION ( #195, #170, #337 ) ;
#371 = DIRECTION ( 'NONE',  ( -0.000000000000000000, -0.000000000000000000, -1.000000000000000000 ) ) ;
#372 = CALENDAR_DATE ( 2022, 8, 7 ) ;
#373 = VERTEX_POINT ( 'NONE', #212 ) ;
#374 = DATE_TIME_ROLE ( 'creation_date' ) ;
#375 = DIRECTION ( 'NONE',  ( 0.000000000000000000, 0.000000000000000000, 1.000000000000000000 ) ) ;
#376 = COORDINATED_UNIVERSAL_TIME_OFFSET ( 1, 0, .AHEAD. ) ;
#377 = CIRCLE ( 'NONE', #112, 0.5000000000000004441 ) ;
#378 = DIRECTION ( 'NONE',  ( 0.000000000000000000, 0.000000000000000000, 1.000000000000000000 ) ) ;
#379 = ORIENTED_EDGE ( 'NONE', *, *, #102, .T. ) ;
#380 = PERSON_AND_ORGANIZATION ( #94, #292 ) ;
#381 = DIRECTION ( 'NONE',  ( 0.000000000000000000, 0.000000000000000000, 1.000000000000000000 ) ) ;
ENDSEC;
END-ISO-10303-21;
