ISO-10303-21;
HEADER;
FILE_DESCRIPTION (( 'STEP AP203' ),
    '1' );
FILE_NAME ('2c4b.STEP',
    '2022-07-08T14:23:04',
    ( '' ),
    ( '' ),
    'SwSTEP 2.0',
    'SolidWorks 2019',
    '' );
FILE_SCHEMA (( 'CONFIG_CONTROL_DESIGN' ));
ENDSEC;

DATA;
#1 = CARTESIAN_POINT ( 'NONE',  ( 11.00000000000000000, 1.347111479062088405E-15, 7.000000000000000000 ) ) ;
#2 = AXIS2_PLACEMENT_3D ( 'NONE', #149, #226, #86 ) ;
#3 = LINE ( 'NONE', #124, #132 ) ;
#4 = EDGE_CURVE ( 'NONE', #178, #229, #137, .T. ) ;
#5 = DIRECTION ( 'NONE',  ( 1.000000000000000000, 0.000000000000000000, 0.000000000000000000 ) ) ;
#6 = CC_DESIGN_PERSON_AND_ORGANIZATION_ASSIGNMENT ( #258, #343, ( #33 ) ) ;
#7 = VERTEX_POINT ( 'NONE', #27 ) ;
#8 = DIRECTION ( 'NONE',  ( -0.000000000000000000, -0.000000000000000000, -1.000000000000000000 ) ) ;
#9 = AXIS2_PLACEMENT_3D ( 'NONE', #359, #126, #93 ) ;
#10 = ADVANCED_BREP_SHAPE_REPRESENTATION ( '2c4b', ( #72, #21 ), #351 ) ;
#11 = DIRECTION ( 'NONE',  ( 0.000000000000000000, 0.000000000000000000, 1.000000000000000000 ) ) ;
#12 = DIRECTION ( 'NONE',  ( 1.000000000000000000, 0.000000000000000000, 0.000000000000000000 ) ) ;
#13 = DIRECTION ( 'NONE',  ( 1.000000000000000000, 0.000000000000000000, 0.000000000000000000 ) ) ;
#14 = CYLINDRICAL_SURFACE ( 'NONE', #15, 11.00000000000000000 ) ;
#15 = AXIS2_PLACEMENT_3D ( 'NONE', #133, #17, #134 ) ;
#16 = ADVANCED_FACE ( 'NONE', ( #31 ), #52, .T. ) ;
#17 = DIRECTION ( 'NONE',  ( -0.000000000000000000, -0.000000000000000000, -1.000000000000000000 ) ) ;
#18 = APPROVAL_PERSON_ORGANIZATION ( #26, #286, #288 ) ;
#19 = DIRECTION ( 'NONE',  ( 0.000000000000000000, 0.000000000000000000, 1.000000000000000000 ) ) ;
#20 = ORIENTED_EDGE ( 'NONE', *, *, #182, .F. ) ;
#21 = AXIS2_PLACEMENT_3D ( 'NONE', #87, #19, #147 ) ;
#22 = COORDINATED_UNIVERSAL_TIME_OFFSET ( 1, 0, .AHEAD. ) ;
#23 = ORIENTED_EDGE ( 'NONE', *, *, #193, .T. ) ;
#24 = APPROVAL_DATE_TIME ( #284, #35 ) ;
#25 = ORIENTED_EDGE ( 'NONE', *, *, #327, .F. ) ;
#26 = PERSON_AND_ORGANIZATION ( #228, #281 ) ;
#27 = CARTESIAN_POINT ( 'NONE',  ( -7.000000000000000888, 0.000000000000000000, 282.0000000000000000 ) ) ;
#28 = VECTOR ( 'NONE', #8, 1000.000000000000000 ) ;
#29 = VECTOR ( 'NONE', #180, 1000.000000000000000 ) ;
#30 = CALENDAR_DATE ( 2022, 8, 7 ) ;
#31 = FACE_OUTER_BOUND ( 'NONE', #285, .T. ) ;
#32 = DIRECTION ( 'NONE',  ( 1.000000000000000000, 0.000000000000000000, 0.000000000000000000 ) ) ;
#33 = PRODUCT_DEFINITION_FORMATION_WITH_SPECIFIED_SOURCE ( 'LIBOVOLNÝ', '', #111, .NOT_KNOWN. ) ;
#34 = CC_DESIGN_PERSON_AND_ORGANIZATION_ASSIGNMENT ( #81, #119, ( #33 ) ) ;
#35 = APPROVAL ( #174, 'NEURÈENÝ' ) ;
#36 = CARTESIAN_POINT ( 'NONE',  ( 0.000000000000000000, 0.000000000000000000, 282.0000000000000000 ) ) ;
#37 = DIRECTION ( 'NONE',  ( 1.000000000000000000, 0.000000000000000000, 0.000000000000000000 ) ) ;
#38 = CYLINDRICAL_SURFACE ( 'NONE', #192, 5.000000000000000000 ) ;
#39 = ORIENTED_EDGE ( 'NONE', *, *, #140, .F. ) ;
#40 = DIRECTION ( 'NONE',  ( 0.000000000000000000, 0.000000000000000000, 1.000000000000000000 ) ) ;
#41 = CARTESIAN_POINT ( 'NONE',  ( -7.700000000000001066, 9.429780353434621002E-16, 7.699999999999985079 ) ) ;
#42 = VERTEX_POINT ( 'NONE', #371 ) ;
#43 = CARTESIAN_POINT ( 'NONE',  ( -7.000000000000000888, 0.000000000000000000, 7.699999999999985079 ) ) ;
#44 = ADVANCED_FACE ( 'NONE', ( #291 ), #308, .F. ) ;
#45 = ADVANCED_FACE ( 'NONE', ( #173 ), #374, .T. ) ;
#46 = ORIENTED_EDGE ( 'NONE', *, *, #136, .T. ) ;
#47 = DATE_AND_TIME ( #30, #331 ) ;
#48 = DESIGN_CONTEXT ( 'detailed design', #59, 'design' ) ;
#49 = AXIS2_PLACEMENT_3D ( 'NONE', #185, #11, #32 ) ;
#50 = PRODUCT_DEFINITION_SHAPE ( 'NONE', 'NONE',  #233 ) ;
#51 = PERSON_AND_ORGANIZATION_ROLE ( 'creator' ) ;
#52 = CYLINDRICAL_SURFACE ( 'NONE', #362, 7.000000000000000888 ) ;
#53 = APPROVAL_STATUS ( 'not_yet_approved' ) ;
#54 = ORIENTED_EDGE ( 'NONE', *, *, #142, .F. ) ;
#55 = EDGE_CURVE ( 'NONE', #283, #89, #322, .T. ) ;
#56 = ORIENTED_EDGE ( 'NONE', *, *, #131, .T. ) ;
#57 = DIRECTION ( 'NONE',  ( -1.000000000000000000, 0.000000000000000000, 0.000000000000000000 ) ) ;
#58 = FACE_BOUND ( 'NONE', #311, .T. ) ;
#59 = APPLICATION_CONTEXT ( 'configuration controlled 3d designs of mechanical parts and assemblies' ) ;
#60 = CC_DESIGN_DATE_AND_TIME_ASSIGNMENT ( #222, #315, ( #230 ) ) ;
#61 = CARTESIAN_POINT ( 'NONE',  ( 0.000000000000000000, 0.000000000000000000, 0.000000000000000000 ) ) ;
#62 = CLOSED_SHELL ( 'NONE', ( #260, #44, #16, #275, #45, #235, #170, #373, #171, #73, #154 ) ) ;
#63 = AXIS2_PLACEMENT_3D ( 'NONE', #186, #297, #234 ) ;
#64 = LINE ( 'NONE', #207, #28 ) ;
#65 = CARTESIAN_POINT ( 'NONE',  ( 7.700000000000001066, 0.000000000000000000, 7.699999999999985079 ) ) ;
#66 = PLANE ( 'NONE',  #309 ) ;
#67 = CIRCLE ( 'NONE', #219, 5.000000000000000000 ) ;
#68 = FACE_BOUND ( 'NONE', #165, .T. ) ;
#69 = ORIENTED_EDGE ( 'NONE', *, *, #140, .T. ) ;
#70 = CARTESIAN_POINT ( 'NONE',  ( 11.00000000000000000, 1.347111479062088405E-15, 7.000000000000000000 ) ) ;
#71 = ORIENTED_EDGE ( 'NONE', *, *, #182, .T. ) ;
#72 = MANIFOLD_SOLID_BREP ( 'Odebrat vysunutím3', #62 ) ;
#73 = ADVANCED_FACE ( 'NONE', ( #342 ), #160, .F. ) ;
#74 = APPROVAL ( #313, 'NEURÈENÝ' ) ;
#75 = DIRECTION ( 'NONE',  ( 0.000000000000000000, 0.000000000000000000, 1.000000000000000000 ) ) ;
#76 = ORIENTED_EDGE ( 'NONE', *, *, #346, .T. ) ;
#77 = AXIS2_PLACEMENT_3D ( 'NONE', #339, #364, #190 ) ;
#78 =( NAMED_UNIT ( * ) SI_UNIT ( $, .STERADIAN. ) SOLID_ANGLE_UNIT ( ) );
#79 = FACE_OUTER_BOUND ( 'NONE', #108, .T. ) ;
#80 = ORIENTED_EDGE ( 'NONE', *, *, #163, .T. ) ;
#81 = PERSON_AND_ORGANIZATION ( #228, #281 ) ;
#82 = ORIENTED_EDGE ( 'NONE', *, *, #163, .F. ) ;
#83 = PERSON_AND_ORGANIZATION ( #228, #281 ) ;
#84 = ORIENTED_EDGE ( 'NONE', *, *, #217, .F. ) ;
#85 = CIRCLE ( 'NONE', #293, 0.7000000000000000666 ) ;
#86 = DIRECTION ( 'NONE',  ( -1.000000000000000000, 0.000000000000000000, 0.000000000000000000 ) ) ;
#87 = CARTESIAN_POINT ( 'NONE',  ( 0.000000000000000000, 0.000000000000000000, 0.000000000000000000 ) ) ;
#88 = ORIENTED_EDGE ( 'NONE', *, *, #346, .F. ) ;
#89 = VERTEX_POINT ( 'NONE', #380 ) ;
#90 = APPLICATION_CONTEXT ( 'configuration controlled 3d designs of mechanical parts and assemblies' ) ;
#91 = AXIS2_PLACEMENT_3D ( 'NONE', #61, #150, #264 ) ;
#92 = DIRECTION ( 'NONE',  ( 1.000000000000000000, 0.000000000000000000, 0.000000000000000000 ) ) ;
#93 = DIRECTION ( 'NONE',  ( 1.000000000000000000, 0.000000000000000000, 0.000000000000000000 ) ) ;
#94 = CARTESIAN_POINT ( 'NONE',  ( 0.000000000000000000, 0.000000000000000000, 7.699999999999985079 ) ) ;
#95 = AXIS2_PLACEMENT_3D ( 'NONE', #36, #96, #5 ) ;
#96 = DIRECTION ( 'NONE',  ( 0.000000000000000000, 0.000000000000000000, 1.000000000000000000 ) ) ;
#97 = CARTESIAN_POINT ( 'NONE',  ( 0.000000000000000000, 0.000000000000000000, 0.000000000000000000 ) ) ;
#98 = LOCAL_TIME ( 16, 23, 4.000000000000000000, #172 ) ;
#99 = AXIS2_PLACEMENT_3D ( 'NONE', #94, #205, #241 ) ;
#100 = EDGE_CURVE ( 'NONE', #345, #307, #244, .T. ) ;
#101 =( NAMED_UNIT ( * ) PLANE_ANGLE_UNIT ( ) SI_UNIT ( $, .RADIAN. ) );
#102 = EDGE_CURVE ( 'NONE', #229, #283, #64, .T. ) ;
#103 = ORIENTED_EDGE ( 'NONE', *, *, #116, .T. ) ;
#104 = CYLINDRICAL_SURFACE ( 'NONE', #298, 5.000000000000000000 ) ;
#105 = VERTEX_POINT ( 'NONE', #292 ) ;
#106 = CARTESIAN_POINT ( 'NONE',  ( 0.000000000000000000, 0.000000000000000000, 7.000000000000000000 ) ) ;
#107 = CARTESIAN_POINT ( 'NONE',  ( -11.00000000000000000, 0.000000000000000000, 0.000000000000000000 ) ) ;
#108 = EDGE_LOOP ( 'NONE', ( #250, #304, #314, #69 ) ) ;
#109 = CALENDAR_DATE ( 2022, 8, 7 ) ;
#110 = DIRECTION ( 'NONE',  ( 1.000000000000000000, 0.000000000000000000, 0.000000000000000000 ) ) ;
#111 = PRODUCT ( '2c4b', '2c4b', '', ( #252 ) ) ;
#112 = CALENDAR_DATE ( 2022, 8, 7 ) ;
#113 = DIRECTION ( 'NONE',  ( 1.000000000000000000, 0.000000000000000000, 0.000000000000000000 ) ) ;
#114 = APPROVAL_PERSON_ORGANIZATION ( #83, #35, #310 ) ;
#115 = SECURITY_CLASSIFICATION_LEVEL ( 'unclassified' ) ;
#116 = EDGE_CURVE ( 'NONE', #139, #105, #167, .T. ) ;
#117 = DIRECTION ( 'NONE',  ( 0.000000000000000000, 0.000000000000000000, 1.000000000000000000 ) ) ;
#118 = CIRCLE ( 'NONE', #357, 5.000000000000000000 ) ;
#119 = PERSON_AND_ORGANIZATION_ROLE ( 'design_supplier' ) ;
#120 = ORIENTED_EDGE ( 'NONE', *, *, #355, .T. ) ;
#121 = ORIENTED_EDGE ( 'NONE', *, *, #100, .F. ) ;
#122 = DIRECTION ( 'NONE',  ( 1.000000000000000000, 0.000000000000000000, -0.000000000000000000 ) ) ;
#123 = APPROVAL_PERSON_ORGANIZATION ( #144, #74, #255 ) ;
#124 = CARTESIAN_POINT ( 'NONE',  ( -5.000000000000000000, 0.000000000000000000, 282.0000000000000000 ) ) ;
#125 = CARTESIAN_POINT ( 'NONE',  ( 0.000000000000000000, 0.000000000000000000, 282.0000000000000000 ) ) ;
#126 = DIRECTION ( 'NONE',  ( -0.000000000000000000, -0.000000000000000000, -1.000000000000000000 ) ) ;
#127 = EDGE_CURVE ( 'NONE', #7, #307, #238, .T. ) ;
#128 = AXIS2_PLACEMENT_3D ( 'NONE', #41, #330, #303 ) ;
#129 = DIRECTION ( 'NONE',  ( 1.000000000000000000, 0.000000000000000000, 0.000000000000000000 ) ) ;
#130 = DIRECTION ( 'NONE',  ( -1.000000000000000000, 0.000000000000000000, 0.000000000000000000 ) ) ;
#131 = EDGE_CURVE ( 'NONE', #7, #340, #347, .T. ) ;
#132 = VECTOR ( 'NONE', #333, 1000.000000000000000 ) ;
#133 = CARTESIAN_POINT ( 'NONE',  ( 0.000000000000000000, 0.000000000000000000, 7.000000000000000000 ) ) ;
#134 = DIRECTION ( 'NONE',  ( -1.000000000000000000, 0.000000000000000000, 0.000000000000000000 ) ) ;
#135 = CARTESIAN_POINT ( 'NONE',  ( 5.000000000000000000, 6.123233995736766282E-16, 0.000000000000000000 ) ) ;
#136 = EDGE_CURVE ( 'NONE', #89, #283, #251, .T. ) ;
#137 = CIRCLE ( 'NONE', #211, 11.00000000000000000 ) ;
#138 = APPLICATION_PROTOCOL_DEFINITION ( 'international standard', 'config_control_design', 1994, #59 ) ;
#139 = VERTEX_POINT ( 'NONE', #320 ) ;
#140 = EDGE_CURVE ( 'NONE', #307, #345, #302, .T. ) ;
#141 = SHAPE_DEFINITION_REPRESENTATION ( #50, #10 ) ;
#142 = EDGE_CURVE ( 'NONE', #345, #237, #85, .T. ) ;
#143 = DIRECTION ( 'NONE',  ( 0.000000000000000000, 0.000000000000000000, 1.000000000000000000 ) ) ;
#144 = PERSON_AND_ORGANIZATION ( #228, #281 ) ;
#145 = CARTESIAN_POINT ( 'NONE',  ( 0.000000000000000000, 0.000000000000000000, 0.000000000000000000 ) ) ;
#146 = CIRCLE ( 'NONE', #9, 7.700000000000001066 ) ;
#147 = DIRECTION ( 'NONE',  ( 1.000000000000000000, 0.000000000000000000, 0.000000000000000000 ) ) ;
#148 = ORIENTED_EDGE ( 'NONE', *, *, #4, .F. ) ;
#149 = CARTESIAN_POINT ( 'NONE',  ( 0.000000000000000000, 0.000000000000000000, 7.000000000000000000 ) ) ;
#150 = DIRECTION ( 'NONE',  ( -0.000000000000000000, -0.000000000000000000, -1.000000000000000000 ) ) ;
#151 = CIRCLE ( 'NONE', #317, 11.00000000000000000 ) ;
#152 = ORIENTED_EDGE ( 'NONE', *, *, #247, .F. ) ;
#153 = DIRECTION ( 'NONE',  ( -0.000000000000000000, -0.000000000000000000, -1.000000000000000000 ) ) ;
#154 = ADVANCED_FACE ( 'NONE', ( #295 ), #38, .F. ) ;
#155 = DIRECTION ( 'NONE',  ( 0.000000000000000000, 0.000000000000000000, -1.000000000000000000 ) ) ;
#156 = CARTESIAN_POINT ( 'NONE',  ( -7.700000000000001066, 9.429780353434621002E-16, 6.999999999999992006 ) ) ;
#157 = ORIENTED_EDGE ( 'NONE', *, *, #116, .F. ) ;
#158 = DIRECTION ( 'NONE',  ( 0.000000000000000000, 0.000000000000000000, -1.000000000000000000 ) ) ;
#159 = LINE ( 'NONE', #278, #269 ) ;
#160 = TOROIDAL_SURFACE ( 'NONE', #377, 7.700000000000001066, 0.6999999999999999556 ) ;
#161 = CARTESIAN_POINT ( 'NONE',  ( 0.000000000000000000, 0.000000000000000000, 282.0000000000000000 ) ) ;
#162 = DIRECTION ( 'NONE',  ( 1.000000000000000000, 0.000000000000000000, -0.000000000000000000 ) ) ;
#163 = EDGE_CURVE ( 'NONE', #169, #237, #146, .T. ) ;
#164 = ORIENTED_EDGE ( 'NONE', *, *, #127, .F. ) ;
#165 = EDGE_LOOP ( 'NONE', ( #120, #80 ) ) ;
#166 = LOCAL_TIME ( 16, 23, 4.000000000000000000, #22 ) ;
#167 = CIRCLE ( 'NONE', #257, 5.000000000000000000 ) ;
#168 = DATE_TIME_ROLE ( 'creation_date' ) ;
#169 = VERTEX_POINT ( 'NONE', #156 ) ;
#170 = ADVANCED_FACE ( 'NONE', ( #58, #358 ), #66, .F. ) ;
#171 = ADVANCED_FACE ( 'NONE', ( #209, #263 ), #329, .T. ) ;
#172 = COORDINATED_UNIVERSAL_TIME_OFFSET ( 1, 0, .AHEAD. ) ;
#173 = FACE_OUTER_BOUND ( 'NONE', #179, .T. ) ;
#174 = APPROVAL_STATUS ( 'not_yet_approved' ) ;
#175 = ORIENTED_EDGE ( 'NONE', *, *, #102, .F. ) ;
#176 = CALENDAR_DATE ( 2022, 8, 7 ) ;
#177 = AXIS2_PLACEMENT_3D ( 'NONE', #218, #337, #13 ) ;
#178 = VERTEX_POINT ( 'NONE', #1 ) ;
#179 = EDGE_LOOP ( 'NONE', ( #279, #280, #381, #265 ) ) ;
#180 = DIRECTION ( 'NONE',  ( -0.000000000000000000, -0.000000000000000000, -1.000000000000000000 ) ) ;
#181 = DIRECTION ( 'NONE',  ( 0.000000000000000000, 0.000000000000000000, 1.000000000000000000 ) ) ;
#182 = EDGE_CURVE ( 'NONE', #332, #42, #118, .T. ) ;
#183 = EDGE_CURVE ( 'NONE', #229, #178, #151, .T. ) ;
#184 = DIRECTION ( 'NONE',  ( -0.000000000000000000, -0.000000000000000000, -1.000000000000000000 ) ) ;
#185 = CARTESIAN_POINT ( 'NONE',  ( 0.000000000000000000, 0.000000000000000000, 7.699999999999985079 ) ) ;
#186 = CARTESIAN_POINT ( 'NONE',  ( 0.000000000000000000, 0.000000000000000000, 282.0000000000000000 ) ) ;
#187 = ORIENTED_EDGE ( 'NONE', *, *, #247, .T. ) ;
#188 = CARTESIAN_POINT ( 'NONE',  ( 0.000000000000000000, 0.000000000000000000, 282.0000000000000000 ) ) ;
#189 = EDGE_LOOP ( 'NONE', ( #88, #103, #223, #198 ) ) ;
#190 = DIRECTION ( 'NONE',  ( 1.000000000000000000, 0.000000000000000000, 0.000000000000000000 ) ) ;
#191 = CYLINDRICAL_SURFACE ( 'NONE', #202, 7.000000000000000888 ) ;
#192 = AXIS2_PLACEMENT_3D ( 'NONE', #354, #155, #267 ) ;
#193 = EDGE_CURVE ( 'NONE', #340, #345, #204, .T. ) ;
#194 = DIRECTION ( 'NONE',  ( 0.000000000000000000, 0.000000000000000000, 1.000000000000000000 ) ) ;
#195 = PERSON_AND_ORGANIZATION ( #228, #281 ) ;
#196 = EDGE_LOOP ( 'NONE', ( #334, #201 ) ) ;
#197 = AXIS2_PLACEMENT_3D ( 'NONE', #348, #117, #113 ) ;
#198 = ORIENTED_EDGE ( 'NONE', *, *, #206, .T. ) ;
#199 = CARTESIAN_POINT ( 'NONE',  ( 0.000000000000000000, 0.000000000000000000, 7.000000000000000000 ) ) ;
#200 = PERSON_AND_ORGANIZATION ( #228, #281 ) ;
#201 = ORIENTED_EDGE ( 'NONE', *, *, #4, .T. ) ;
#202 = AXIS2_PLACEMENT_3D ( 'NONE', #161, #249, #363 ) ;
#203 = ORIENTED_EDGE ( 'NONE', *, *, #100, .T. ) ;
#204 = LINE ( 'NONE', #319, #29 ) ;
#205 = DIRECTION ( 'NONE',  ( 0.000000000000000000, 0.000000000000000000, 1.000000000000000000 ) ) ;
#206 = EDGE_CURVE ( 'NONE', #42, #332, #369, .T. ) ;
#207 = CARTESIAN_POINT ( 'NONE',  ( -11.00000000000000000, 0.000000000000000000, 7.000000000000000000 ) ) ;
#208 = CARTESIAN_POINT ( 'NONE',  ( 0.000000000000000000, 0.000000000000000000, 0.000000000000000000 ) ) ;
#209 = FACE_BOUND ( 'NONE', #368, .T. ) ;
#210 = LOCAL_TIME ( 16, 23, 4.000000000000000000, #253 ) ;
#211 = AXIS2_PLACEMENT_3D ( 'NONE', #199, #143, #221 ) ;
#212 = AXIS2_PLACEMENT_3D ( 'NONE', #145, #259, #110 ) ;
#213 = CARTESIAN_POINT ( 'NONE',  ( -11.00000000000000000, 0.000000000000000000, 7.000000000000000000 ) ) ;
#214 = EDGE_LOOP ( 'NONE', ( #148, #316, #46, #175 ) ) ;
#215 = DIRECTION ( 'NONE',  ( -0.000000000000000000, -0.000000000000000000, -1.000000000000000000 ) ) ;
#216 = ORIENTED_EDGE ( 'NONE', *, *, #327, .T. ) ;
#217 = EDGE_CURVE ( 'NONE', #105, #42, #3, .T. ) ;
#218 = CARTESIAN_POINT ( 'NONE',  ( 0.000000000000000000, 0.000000000000000000, 7.000000000000000000 ) ) ;
#219 = AXIS2_PLACEMENT_3D ( 'NONE', #246, #75, #12 ) ;
#220 = PERSON_AND_ORGANIZATION_ROLE ( 'classification_officer' ) ;
#221 = DIRECTION ( 'NONE',  ( 1.000000000000000000, 0.000000000000000000, 0.000000000000000000 ) ) ;
#222 = DATE_AND_TIME ( #112, #166 ) ;
#223 = ORIENTED_EDGE ( 'NONE', *, *, #217, .T. ) ;
#224 = CIRCLE ( 'NONE', #128, 0.7000000000000000666 ) ;
#225 = APPROVAL_DATE_TIME ( #282, #286 ) ;
#226 = DIRECTION ( 'NONE',  ( -0.000000000000000000, -0.000000000000000000, -1.000000000000000000 ) ) ;
#227 = CARTESIAN_POINT ( 'NONE',  ( 0.000000000000000000, 0.000000000000000000, 7.699999999999985079 ) ) ;
#228 = PERSON ( 'NEURÈENÝ', 'NEURÈENÝ', 'NEURÈENÝ', ('NEURÈENÝ'), ('NEURÈENÝ'), ('NEURÈENÝ') ) ;
#229 = VERTEX_POINT ( 'NONE', #213 ) ;
#230 = SECURITY_CLASSIFICATION ( '', '', #115 ) ;
#231 = CIRCLE ( 'NONE', #77, 7.000000000000000888 ) ;
#232 = DIRECTION ( 'NONE',  ( 1.000000000000000000, 0.000000000000000000, 0.000000000000000000 ) ) ;
#233 = PRODUCT_DEFINITION ( 'NEZNÁMÝ', '', #33, #48 ) ;
#234 = DIRECTION ( 'NONE',  ( 1.000000000000000000, 0.000000000000000000, -0.000000000000000000 ) ) ;
#235 = ADVANCED_FACE ( 'NONE', ( #68, #248 ), #243, .T. ) ;
#236 = DIRECTION ( 'NONE',  ( 0.000000000000000000, 0.000000000000000000, 1.000000000000000000 ) ) ;
#237 = VERTEX_POINT ( 'NONE', #299 ) ;
#238 = LINE ( 'NONE', #328, #323 ) ;
#239 = VECTOR ( 'NONE', #215, 1000.000000000000000 ) ;
#240 = AXIS2_PLACEMENT_3D ( 'NONE', #106, #194, #162 ) ;
#241 = DIRECTION ( 'NONE',  ( 1.000000000000000000, 0.000000000000000000, 0.000000000000000000 ) ) ;
#242 = CC_DESIGN_APPROVAL ( #286, ( #33 ) ) ;
#243 = PLANE ( 'NONE',  #240 ) ;
#244 = CIRCLE ( 'NONE', #99, 7.000000000000000888 ) ;
#245 = EDGE_CURVE ( 'NONE', #178, #89, #305, .T. ) ;
#246 = CARTESIAN_POINT ( 'NONE',  ( 0.000000000000000000, 0.000000000000000000, 282.0000000000000000 ) ) ;
#247 = EDGE_CURVE ( 'NONE', #340, #7, #231, .T. ) ;
#248 = FACE_OUTER_BOUND ( 'NONE', #196, .T. ) ;
#249 = DIRECTION ( 'NONE',  ( -0.000000000000000000, -0.000000000000000000, -1.000000000000000000 ) ) ;
#250 = ORIENTED_EDGE ( 'NONE', *, *, #193, .F. ) ;
#251 = CIRCLE ( 'NONE', #276, 11.00000000000000000 ) ;
#252 = MECHANICAL_CONTEXT ( 'NONE', #90, 'mechanical' ) ;
#253 = COORDINATED_UNIVERSAL_TIME_OFFSET ( 1, 0, .AHEAD. ) ;
#254 = CARTESIAN_POINT ( 'NONE',  ( 0.000000000000000000, 0.000000000000000000, 282.0000000000000000 ) ) ;
#255 = APPROVAL_ROLE ( '' ) ;
#256 = EDGE_LOOP ( 'NONE', ( #25, #121, #289, #82 ) ) ;
#257 = AXIS2_PLACEMENT_3D ( 'NONE', #125, #236, #129 ) ;
#258 = PERSON_AND_ORGANIZATION ( #228, #281 ) ;
#259 = DIRECTION ( 'NONE',  ( 0.000000000000000000, 0.000000000000000000, 1.000000000000000000 ) ) ;
#260 = ADVANCED_FACE ( 'NONE', ( #365 ), #104, .F. ) ;
#261 = DATE_AND_TIME ( #379, #361 ) ;
#262 = EDGE_LOOP ( 'NONE', ( #318, #76, #71, #84 ) ) ;
#263 = FACE_OUTER_BOUND ( 'NONE', #300, .T. ) ;
#264 = DIRECTION ( 'NONE',  ( 1.000000000000000000, 0.000000000000000000, 0.000000000000000000 ) ) ;
#265 = ORIENTED_EDGE ( 'NONE', *, *, #55, .T. ) ;
#266 = CARTESIAN_POINT ( 'NONE',  ( 0.000000000000000000, 0.000000000000000000, 7.000000000000000000 ) ) ;
#267 = DIRECTION ( 'NONE',  ( -1.000000000000000000, 0.000000000000000000, 0.000000000000000000 ) ) ;
#268 = DIRECTION ( 'NONE',  ( 1.000000000000000000, 0.000000000000000000, 0.000000000000000000 ) ) ;
#269 = VECTOR ( 'NONE', #335, 1000.000000000000000 ) ;
#270 = PRODUCT_RELATED_PRODUCT_CATEGORY ( 'detail', '', ( #111 ) ) ;
#271 = FACE_OUTER_BOUND ( 'NONE', #214, .T. ) ;
#272 = EDGE_LOOP ( 'NONE', ( #39, #216, #349, #54 ) ) ;
#273 = CARTESIAN_POINT ( 'NONE',  ( 7.000000000000000888, 8.572527594031474176E-16, 7.699999999999985079 ) ) ;
#274 = CC_DESIGN_PERSON_AND_ORGANIZATION_ASSIGNMENT ( #370, #51, ( #233 ) ) ;
#275 = ADVANCED_FACE ( 'NONE', ( #271 ), #14, .T. ) ;
#276 = AXIS2_PLACEMENT_3D ( 'NONE', #208, #296, #268 ) ;
#277 = ORIENTED_EDGE ( 'NONE', *, *, #312, .F. ) ;
#278 = CARTESIAN_POINT ( 'NONE',  ( 5.000000000000000000, 6.123233995736766282E-16, 282.0000000000000000 ) ) ;
#279 = ORIENTED_EDGE ( 'NONE', *, *, #245, .F. ) ;
#280 = ORIENTED_EDGE ( 'NONE', *, *, #183, .F. ) ;
#281 = ORGANIZATION ( 'NEURÈENÝ', 'NEURÈENÝ', '' ) ;
#282 = DATE_AND_TIME ( #109, #210 ) ;
#283 = VERTEX_POINT ( 'NONE', #107 ) ;
#284 = DATE_AND_TIME ( #176, #98 ) ;
#285 = EDGE_LOOP ( 'NONE', ( #152, #23, #203, #164 ) ) ;
#286 = APPROVAL ( #53, 'NEURÈENÝ' ) ;
#287 = ORIENTED_EDGE ( 'NONE', *, *, #206, .F. ) ;
#288 = APPROVAL_ROLE ( '' ) ;
#289 = ORIENTED_EDGE ( 'NONE', *, *, #142, .T. ) ;
#290 = UNCERTAINTY_MEASURE_WITH_UNIT (LENGTH_MEASURE( 1.000000000000000082E-05 ), #367, 'distance_accuracy_value', 'NONE');
#291 = FACE_OUTER_BOUND ( 'NONE', #272, .T. ) ;
#292 = CARTESIAN_POINT ( 'NONE',  ( -5.000000000000000000, 0.000000000000000000, 282.0000000000000000 ) ) ;
#293 = AXIS2_PLACEMENT_3D ( 'NONE', #65, #294, #324 ) ;
#294 = DIRECTION ( 'NONE',  ( 0.000000000000000000, -1.000000000000000000, 0.000000000000000000 ) ) ;
#295 = FACE_OUTER_BOUND ( 'NONE', #189, .T. ) ;
#296 = DIRECTION ( 'NONE',  ( 0.000000000000000000, 0.000000000000000000, 1.000000000000000000 ) ) ;
#297 = DIRECTION ( 'NONE',  ( 0.000000000000000000, 0.000000000000000000, 1.000000000000000000 ) ) ;
#298 = AXIS2_PLACEMENT_3D ( 'NONE', #188, #158, #130 ) ;
#299 = CARTESIAN_POINT ( 'NONE',  ( 7.700000000000001066, 0.000000000000000000, 6.999999999999992006 ) ) ;
#300 = EDGE_LOOP ( 'NONE', ( #56, #187 ) ) ;
#301 = CARTESIAN_POINT ( 'NONE',  ( 7.000000000000000888, 8.572527594031474176E-16, 282.0000000000000000 ) ) ;
#302 = CIRCLE ( 'NONE', #49, 7.000000000000000888 ) ;
#303 = DIRECTION ( 'NONE',  ( -1.000000000000000000, 1.224646799147351975E-16, 0.000000000000000000 ) ) ;
#304 = ORIENTED_EDGE ( 'NONE', *, *, #131, .F. ) ;
#305 = LINE ( 'NONE', #70, #239 ) ;
#306 = PERSON_AND_ORGANIZATION_ROLE ( 'design_owner' ) ;
#307 = VERTEX_POINT ( 'NONE', #43 ) ;
#308 = TOROIDAL_SURFACE ( 'NONE', #197, 7.700000000000001066, 0.6999999999999999556 ) ;
#309 = AXIS2_PLACEMENT_3D ( 'NONE', #97, #181, #122 ) ;
#310 = APPROVAL_ROLE ( '' ) ;
#311 = EDGE_LOOP ( 'NONE', ( #287, #20 ) ) ;
#312 = EDGE_CURVE ( 'NONE', #105, #139, #67, .T. ) ;
#313 = APPROVAL_STATUS ( 'not_yet_approved' ) ;
#314 = ORIENTED_EDGE ( 'NONE', *, *, #127, .T. ) ;
#315 = DATE_TIME_ROLE ( 'classification_date' ) ;
#316 = ORIENTED_EDGE ( 'NONE', *, *, #245, .T. ) ;
#317 = AXIS2_PLACEMENT_3D ( 'NONE', #266, #352, #92 ) ;
#318 = ORIENTED_EDGE ( 'NONE', *, *, #312, .T. ) ;
#319 = CARTESIAN_POINT ( 'NONE',  ( 7.000000000000000888, 8.572527594031474176E-16, 282.0000000000000000 ) ) ;
#320 = CARTESIAN_POINT ( 'NONE',  ( 5.000000000000000000, 6.123233995736766282E-16, 282.0000000000000000 ) ) ;
#321 = CC_DESIGN_SECURITY_CLASSIFICATION ( #230, ( #33 ) ) ;
#322 = CIRCLE ( 'NONE', #212, 11.00000000000000000 ) ;
#323 = VECTOR ( 'NONE', #184, 1000.000000000000000 ) ;
#324 = DIRECTION ( 'NONE',  ( 0.000000000000000000, 0.000000000000000000, -1.000000000000000000 ) ) ;
#325 = ORIENTED_EDGE ( 'NONE', *, *, #136, .F. ) ;
#326 = CC_DESIGN_DATE_AND_TIME_ASSIGNMENT ( #261, #168, ( #233 ) ) ;
#327 = EDGE_CURVE ( 'NONE', #307, #169, #224, .T. ) ;
#328 = CARTESIAN_POINT ( 'NONE',  ( -7.000000000000000888, 0.000000000000000000, 282.0000000000000000 ) ) ;
#329 = PLANE ( 'NONE',  #63 ) ;
#330 = DIRECTION ( 'NONE',  ( 1.224646799147353207E-16, 1.000000000000000000, -0.000000000000000000 ) ) ;
#331 = LOCAL_TIME ( 16, 23, 4.000000000000000000, #372 ) ;
#332 = VERTEX_POINT ( 'NONE', #135 ) ;
#333 = DIRECTION ( 'NONE',  ( 0.000000000000000000, 0.000000000000000000, -1.000000000000000000 ) ) ;
#334 = ORIENTED_EDGE ( 'NONE', *, *, #183, .T. ) ;
#335 = DIRECTION ( 'NONE',  ( 0.000000000000000000, 0.000000000000000000, -1.000000000000000000 ) ) ;
#336 = EDGE_LOOP ( 'NONE', ( #350, #325 ) ) ;
#337 = DIRECTION ( 'NONE',  ( -0.000000000000000000, -0.000000000000000000, -1.000000000000000000 ) ) ;
#338 = CIRCLE ( 'NONE', #177, 7.700000000000001066 ) ;
#339 = CARTESIAN_POINT ( 'NONE',  ( 0.000000000000000000, 0.000000000000000000, 282.0000000000000000 ) ) ;
#340 = VERTEX_POINT ( 'NONE', #301 ) ;
#341 = COORDINATED_UNIVERSAL_TIME_OFFSET ( 1, 0, .AHEAD. ) ;
#342 = FACE_OUTER_BOUND ( 'NONE', #256, .T. ) ;
#343 = PERSON_AND_ORGANIZATION_ROLE ( 'creator' ) ;
#344 = CC_DESIGN_PERSON_AND_ORGANIZATION_ASSIGNMENT ( #195, #220, ( #230 ) ) ;
#345 = VERTEX_POINT ( 'NONE', #273 ) ;
#346 = EDGE_CURVE ( 'NONE', #139, #332, #159, .T. ) ;
#347 = CIRCLE ( 'NONE', #95, 7.000000000000000888 ) ;
#348 = CARTESIAN_POINT ( 'NONE',  ( 0.000000000000000000, 0.000000000000000000, 7.699999999999985079 ) ) ;
#349 = ORIENTED_EDGE ( 'NONE', *, *, #355, .F. ) ;
#350 = ORIENTED_EDGE ( 'NONE', *, *, #55, .F. ) ;
#351 =( GEOMETRIC_REPRESENTATION_CONTEXT ( 3 ) GLOBAL_UNCERTAINTY_ASSIGNED_CONTEXT ( ( #290 ) ) GLOBAL_UNIT_ASSIGNED_CONTEXT ( ( #367, #101, #78 ) ) REPRESENTATION_CONTEXT ( 'NONE', 'WORKASPACE' ) );
#352 = DIRECTION ( 'NONE',  ( 0.000000000000000000, 0.000000000000000000, 1.000000000000000000 ) ) ;
#353 = CARTESIAN_POINT ( 'NONE',  ( 0.000000000000000000, 0.000000000000000000, 0.000000000000000000 ) ) ;
#354 = CARTESIAN_POINT ( 'NONE',  ( 0.000000000000000000, 0.000000000000000000, 282.0000000000000000 ) ) ;
#355 = EDGE_CURVE ( 'NONE', #237, #169, #338, .T. ) ;
#356 = CC_DESIGN_APPROVAL ( #35, ( #230 ) ) ;
#357 = AXIS2_PLACEMENT_3D ( 'NONE', #353, #153, #232 ) ;
#358 = FACE_OUTER_BOUND ( 'NONE', #336, .T. ) ;
#359 = CARTESIAN_POINT ( 'NONE',  ( 0.000000000000000000, 0.000000000000000000, 7.000000000000000000 ) ) ;
#360 = APPLICATION_PROTOCOL_DEFINITION ( 'international standard', 'config_control_design', 1994, #90 ) ;
#361 = LOCAL_TIME ( 16, 23, 4.000000000000000000, #341 ) ;
#362 = AXIS2_PLACEMENT_3D ( 'NONE', #254, #376, #57 ) ;
#363 = DIRECTION ( 'NONE',  ( -1.000000000000000000, 0.000000000000000000, 0.000000000000000000 ) ) ;
#364 = DIRECTION ( 'NONE',  ( 0.000000000000000000, 0.000000000000000000, 1.000000000000000000 ) ) ;
#365 = FACE_OUTER_BOUND ( 'NONE', #262, .T. ) ;
#366 = CC_DESIGN_PERSON_AND_ORGANIZATION_ASSIGNMENT ( #200, #306, ( #111 ) ) ;
#367 =( LENGTH_UNIT ( ) NAMED_UNIT ( * ) SI_UNIT ( .MILLI., .METRE. ) );
#368 = EDGE_LOOP ( 'NONE', ( #277, #157 ) ) ;
#369 = CIRCLE ( 'NONE', #91, 5.000000000000000000 ) ;
#370 = PERSON_AND_ORGANIZATION ( #228, #281 ) ;
#371 = CARTESIAN_POINT ( 'NONE',  ( -5.000000000000000000, 0.000000000000000000, 0.000000000000000000 ) ) ;
#372 = COORDINATED_UNIVERSAL_TIME_OFFSET ( 1, 0, .AHEAD. ) ;
#373 = ADVANCED_FACE ( 'NONE', ( #79 ), #191, .T. ) ;
#374 = CYLINDRICAL_SURFACE ( 'NONE', #2, 11.00000000000000000 ) ;
#375 = APPROVAL_DATE_TIME ( #47, #74 ) ;
#376 = DIRECTION ( 'NONE',  ( -0.000000000000000000, -0.000000000000000000, -1.000000000000000000 ) ) ;
#377 = AXIS2_PLACEMENT_3D ( 'NONE', #227, #40, #37 ) ;
#378 = CC_DESIGN_APPROVAL ( #74, ( #233 ) ) ;
#379 = CALENDAR_DATE ( 2022, 8, 7 ) ;
#380 = CARTESIAN_POINT ( 'NONE',  ( 11.00000000000000000, 1.347111479062088405E-15, 0.000000000000000000 ) ) ;
#381 = ORIENTED_EDGE ( 'NONE', *, *, #102, .T. ) ;
ENDSEC;
END-ISO-10303-21;
