ISO-10303-21;
HEADER;
FILE_DESCRIPTION (( 'STEP AP203' ),
    '1' );
FILE_NAME ('a20a.STEP',
    '2022-07-08T15:16:35',
    ( '' ),
    ( '' ),
    'SwSTEP 2.0',
    'SolidWorks 2019',
    '' );
FILE_SCHEMA (( 'CONFIG_CONTROL_DESIGN' ));
ENDSEC;

DATA;
#1 = VECTOR ( 'NONE', #147, 1000.000000000000000 ) ;
#2 = EDGE_CURVE ( 'NONE', #366, #296, #152, .T. ) ;
#3 = ORIENTED_EDGE ( 'NONE', *, *, #76, .T. ) ;
#4 = CARTESIAN_POINT ( 'NONE',  ( 0.000000000000000000, 0.000000000000000000, 0.000000000000000000 ) ) ;
#5 = FACE_OUTER_BOUND ( 'NONE', #66, .T. ) ;
#6 = VECTOR ( 'NONE', #287, 1000.000000000000000 ) ;
#7 = PRODUCT_DEFINITION_SHAPE ( 'NONE', 'NONE',  #320 ) ;
#8 = AXIS2_PLACEMENT_3D ( 'NONE', #164, #228, #101 ) ;
#9 = DIRECTION ( 'NONE',  ( 1.000000000000000000, 0.000000000000000000, 0.000000000000000000 ) ) ;
#10 = EDGE_CURVE ( 'NONE', #368, #266, #185, .T. ) ;
#11 = CALENDAR_DATE ( 2022, 8, 7 ) ;
#12 = ORIENTED_EDGE ( 'NONE', *, *, #102, .F. ) ;
#13 = APPROVAL_STATUS ( 'not_yet_approved' ) ;
#14 = CARTESIAN_POINT ( 'NONE',  ( -2.500000000000000000, 0.000000000000000000, 230.0000000000000000 ) ) ;
#15 = DIRECTION ( 'NONE',  ( 1.000000000000000000, 0.000000000000000000, 0.000000000000000000 ) ) ;
#16 = CIRCLE ( 'NONE', #233, 0.5000000000000004441 ) ;
#17 = DIRECTION ( 'NONE',  ( 1.000000000000000000, 0.000000000000000000, 0.000000000000000000 ) ) ;
#18 = COORDINATED_UNIVERSAL_TIME_OFFSET ( 1, 0, .AHEAD. ) ;
#19 = DIRECTION ( 'NONE',  ( 1.000000000000000000, 0.000000000000000000, 0.000000000000000000 ) ) ;
#20 = DIRECTION ( 'NONE',  ( -1.000000000000000000, 0.000000000000000000, 0.000000000000000000 ) ) ;
#21 = VECTOR ( 'NONE', #221, 1000.000000000000000 ) ;
#22 = AXIS2_PLACEMENT_3D ( 'NONE', #144, #176, #113 ) ;
#23 = ADVANCED_FACE ( 'NONE', ( #5 ), #126, .T. ) ;
#24 = LINE ( 'NONE', #328, #1 ) ;
#25 = PRODUCT_RELATED_PRODUCT_CATEGORY ( 'detail', '', ( #332 ) ) ;
#26 = EDGE_LOOP ( 'NONE', ( #34, #175 ) ) ;
#27 = CIRCLE ( 'NONE', #212, 2.500000000000000000 ) ;
#28 = AXIS2_PLACEMENT_3D ( 'NONE', #350, #110, #198 ) ;
#29 = LOCAL_TIME ( 17, 16, 35.00000000000000000, #133 ) ;
#30 = DIRECTION ( 'NONE',  ( 1.000000000000000000, 0.000000000000000000, 0.000000000000000000 ) ) ;
#31 = DIRECTION ( 'NONE',  ( 0.000000000000000000, 0.000000000000000000, 1.000000000000000000 ) ) ;
#32 = EDGE_LOOP ( 'NONE', ( #146, #119, #3, #159 ) ) ;
#33 = CARTESIAN_POINT ( 'NONE',  ( 0.000000000000000000, 0.000000000000000000, 230.0000000000000000 ) ) ;
#34 = ORIENTED_EDGE ( 'NONE', *, *, #282, .F. ) ;
#35 = EDGE_CURVE ( 'NONE', #171, #59, #277, .T. ) ;
#36 = CIRCLE ( 'NONE', #167, 5.500000000000000000 ) ;
#37 = SECURITY_CLASSIFICATION ( '', '', #130 ) ;
#38 = CARTESIAN_POINT ( 'NONE',  ( 0.000000000000000000, 0.000000000000000000, 0.000000000000000000 ) ) ;
#39 = ORIENTED_EDGE ( 'NONE', *, *, #258, .F. ) ;
#40 = DIRECTION ( 'NONE',  ( 0.000000000000000000, 0.000000000000000000, 1.000000000000000000 ) ) ;
#41 = DIRECTION ( 'NONE',  ( -0.000000000000000000, -0.000000000000000000, -1.000000000000000000 ) ) ;
#42 = EDGE_CURVE ( 'NONE', #240, #184, #205, .T. ) ;
#43 = TOROIDAL_SURFACE ( 'NONE', #172, 5.500000000000000000, 0.5000000000000000000 ) ;
#44 = ORIENTED_EDGE ( 'NONE', *, *, #268, .F. ) ;
#45 = APPROVAL_ROLE ( '' ) ;
#46 = DIRECTION ( 'NONE',  ( 0.000000000000000000, 0.000000000000000000, 1.000000000000000000 ) ) ;
#47 = DATE_AND_TIME ( #190, #134 ) ;
#48 = FACE_OUTER_BOUND ( 'NONE', #381, .T. ) ;
#49 = APPROVAL ( #97, 'NEURÈENÝ' ) ;
#50 = PLANE ( 'NONE',  #155 ) ;
#51 = APPROVAL_PERSON_ORGANIZATION ( #161, #254, #45 ) ;
#52 = CARTESIAN_POINT ( 'NONE',  ( 0.000000000000000000, 0.000000000000000000, 230.0000000000000000 ) ) ;
#53 = DIRECTION ( 'NONE',  ( -0.000000000000000000, -0.000000000000000000, -1.000000000000000000 ) ) ;
#54 = PERSON ( 'NEURÈENÝ', 'NEURÈENÝ', 'NEURÈENÝ', ('NEURÈENÝ'), ('NEURÈENÝ'), ('NEURÈENÝ') ) ;
#55 = MANIFOLD_SOLID_BREP ( 'Odebrat vysunutím3', #284 ) ;
#56 = CARTESIAN_POINT ( 'NONE',  ( -2.500000000000000000, 0.000000000000000000, 230.0000000000000000 ) ) ;
#57 = AXIS2_PLACEMENT_3D ( 'NONE', #231, #60, #111 ) ;
#58 = CC_DESIGN_APPROVAL ( #361, ( #37 ) ) ;
#59 = VERTEX_POINT ( 'NONE', #248 ) ;
#60 = DIRECTION ( 'NONE',  ( -0.000000000000000000, -0.000000000000000000, -1.000000000000000000 ) ) ;
#61 = DIRECTION ( 'NONE',  ( -0.000000000000000000, -0.000000000000000000, -1.000000000000000000 ) ) ;
#62 = ORIENTED_EDGE ( 'NONE', *, *, #179, .F. ) ;
#63 = CARTESIAN_POINT ( 'NONE',  ( 8.000000000000000000, 9.797174393178825657E-16, 5.000000000000000000 ) ) ;
#64 = VERTEX_POINT ( 'NONE', #244 ) ;
#65 = ADVANCED_FACE ( 'NONE', ( #94, #98 ), #311, .F. ) ;
#66 = EDGE_LOOP ( 'NONE', ( #62, #280, #92, #267 ) ) ;
#67 = CIRCLE ( 'NONE', #22, 5.000000000000000000 ) ;
#68 = LOCAL_TIME ( 17, 16, 35.00000000000000000, #365 ) ;
#69 = ORIENTED_EDGE ( 'NONE', *, *, #223, .F. ) ;
#70 = CARTESIAN_POINT ( 'NONE',  ( 0.000000000000000000, 0.000000000000000000, 5.000000000000000000 ) ) ;
#71 = DIRECTION ( 'NONE',  ( -1.000000000000000000, 0.000000000000000000, 0.000000000000000000 ) ) ;
#72 = AXIS2_PLACEMENT_3D ( 'NONE', #75, #165, #104 ) ;
#73 = ORIENTED_EDGE ( 'NONE', *, *, #124, .F. ) ;
#74 = PERSON_AND_ORGANIZATION ( #54, #369 ) ;
#75 = CARTESIAN_POINT ( 'NONE',  ( 0.000000000000000000, 0.000000000000000000, 230.0000000000000000 ) ) ;
#76 = EDGE_CURVE ( 'NONE', #296, #59, #27, .T. ) ;
#77 = DIRECTION ( 'NONE',  ( 0.000000000000000000, 0.000000000000000000, 1.000000000000000000 ) ) ;
#78 = AXIS2_PLACEMENT_3D ( 'NONE', #70, #336, #71 ) ;
#79 = DIRECTION ( 'NONE',  ( -1.000000000000000000, 0.000000000000000000, 0.000000000000000000 ) ) ;
#80 = TOROIDAL_SURFACE ( 'NONE', #8, 5.500000000000000000, 0.5000000000000000000 ) ;
#81 = APPROVAL_DATE_TIME ( #348, #254 ) ;
#82 = CARTESIAN_POINT ( 'NONE',  ( 0.000000000000000000, 0.000000000000000000, 5.000000000000000000 ) ) ;
#83 = LINE ( 'NONE', #192, #140 ) ;
#84 =( NAMED_UNIT ( * ) PLANE_ANGLE_UNIT ( ) SI_UNIT ( $, .RADIAN. ) );
#85 = CARTESIAN_POINT ( 'NONE',  ( 0.000000000000000000, 0.000000000000000000, 5.000000000000000000 ) ) ;
#86 = DIRECTION ( 'NONE',  ( 0.000000000000000000, 0.000000000000000000, 1.000000000000000000 ) ) ;
#87 = ORIENTED_EDGE ( 'NONE', *, *, #143, .F. ) ;
#88 = CIRCLE ( 'NONE', #363, 5.000000000000000000 ) ;
#89 =( NAMED_UNIT ( * ) SI_UNIT ( $, .STERADIAN. ) SOLID_ANGLE_UNIT ( ) );
#90 = EDGE_CURVE ( 'NONE', #154, #150, #230, .T. ) ;
#91 = ORIENTED_EDGE ( 'NONE', *, *, #90, .F. ) ;
#92 = ORIENTED_EDGE ( 'NONE', *, *, #42, .T. ) ;
#93 = ADVANCED_FACE ( 'NONE', ( #199 ), #43, .F. ) ;
#94 = FACE_BOUND ( 'NONE', #26, .T. ) ;
#95 = APPLICATION_PROTOCOL_DEFINITION ( 'international standard', 'config_control_design', 1994, #276 ) ;
#96 = DIRECTION ( 'NONE',  ( 0.000000000000000000, 0.000000000000000000, -1.000000000000000000 ) ) ;
#97 = APPROVAL_STATUS ( 'not_yet_approved' ) ;
#98 = FACE_OUTER_BOUND ( 'NONE', #238, .T. ) ;
#99 = DATE_AND_TIME ( #343, #279 ) ;
#100 = AXIS2_PLACEMENT_3D ( 'NONE', #4, #40, #362 ) ;
#101 = DIRECTION ( 'NONE',  ( 1.000000000000000000, 0.000000000000000000, 0.000000000000000000 ) ) ;
#102 = EDGE_CURVE ( 'NONE', #64, #154, #243, .T. ) ;
#103 = PRODUCT_DEFINITION_FORMATION_WITH_SPECIFIED_SOURCE ( 'LIBOVOLNÝ', '', #332, .NOT_KNOWN. ) ;
#104 = DIRECTION ( 'NONE',  ( -1.000000000000000000, 0.000000000000000000, 0.000000000000000000 ) ) ;
#105 = FACE_BOUND ( 'NONE', #327, .T. ) ;
#106 = APPROVAL_STATUS ( 'not_yet_approved' ) ;
#107 = CARTESIAN_POINT ( 'NONE',  ( -5.500000000000000000, 6.735557395310442023E-16, 5.000000000000002665 ) ) ;
#108 = AXIS2_PLACEMENT_3D ( 'NONE', #85, #265, #173 ) ;
#109 = DATE_AND_TIME ( #11, #68 ) ;
#110 = DIRECTION ( 'NONE',  ( 0.000000000000000000, 0.000000000000000000, 1.000000000000000000 ) ) ;
#111 = DIRECTION ( 'NONE',  ( -1.000000000000000000, 0.000000000000000000, 0.000000000000000000 ) ) ;
#112 = VECTOR ( 'NONE', #308, 1000.000000000000000 ) ;
#113 = DIRECTION ( 'NONE',  ( 1.000000000000000000, 0.000000000000000000, 0.000000000000000000 ) ) ;
#114 = ORIENTED_EDGE ( 'NONE', *, *, #90, .T. ) ;
#115 = ADVANCED_FACE ( 'NONE', ( #257 ), #342, .F. ) ;
#116 = CIRCLE ( 'NONE', #333, 8.000000000000000000 ) ;
#117 =( LENGTH_UNIT ( ) NAMED_UNIT ( * ) SI_UNIT ( .MILLI., .METRE. ) );
#118 = CARTESIAN_POINT ( 'NONE',  ( 5.500000000000000000, 0.000000000000000000, 5.000000000000002665 ) ) ;
#119 = ORIENTED_EDGE ( 'NONE', *, *, #2, .T. ) ;
#120 = CC_DESIGN_PERSON_AND_ORGANIZATION_ASSIGNMENT ( #180, #187, ( #332 ) ) ;
#121 = DIRECTION ( 'NONE',  ( 0.000000000000000000, 0.000000000000000000, 1.000000000000000000 ) ) ;
#122 = AXIS2_PLACEMENT_3D ( 'NONE', #202, #86, #30 ) ;
#123 = ORIENTED_EDGE ( 'NONE', *, *, #157, .T. ) ;
#124 = EDGE_CURVE ( 'NONE', #64, #368, #163, .T. ) ;
#125 = APPROVAL_DATE_TIME ( #306, #49 ) ;
#126 = CYLINDRICAL_SURFACE ( 'NONE', #78, 8.000000000000000000 ) ;
#127 = DIRECTION ( 'NONE',  ( 1.000000000000000000, 0.000000000000000000, 0.000000000000000000 ) ) ;
#128 = DESIGN_CONTEXT ( 'detailed design', #276, 'design' ) ;
#129 = DIRECTION ( 'NONE',  ( 0.000000000000000000, -1.000000000000000000, 0.000000000000000000 ) ) ;
#130 = SECURITY_CLASSIFICATION_LEVEL ( 'unclassified' ) ;
#131 = CC_DESIGN_PERSON_AND_ORGANIZATION_ASSIGNMENT ( #286, #341, ( #103 ) ) ;
#132 = EDGE_LOOP ( 'NONE', ( #44, #123, #69, #219 ) ) ;
#133 = COORDINATED_UNIVERSAL_TIME_OFFSET ( 1, 0, .AHEAD. ) ;
#134 = LOCAL_TIME ( 17, 16, 35.00000000000000000, #373 ) ;
#135 = DIRECTION ( 'NONE',  ( 1.000000000000000000, 0.000000000000000000, 0.000000000000000000 ) ) ;
#136 = DIRECTION ( 'NONE',  ( 1.000000000000000000, 0.000000000000000000, 0.000000000000000000 ) ) ;
#137 = ADVANCED_FACE ( 'NONE', ( #317 ), #283, .F. ) ;
#138 = CARTESIAN_POINT ( 'NONE',  ( 0.000000000000000000, 0.000000000000000000, 5.500000000000005329 ) ) ;
#139 = PERSON_AND_ORGANIZATION_ROLE ( 'classification_officer' ) ;
#140 = VECTOR ( 'NONE', #255, 1000.000000000000000 ) ;
#141 = DATE_TIME_ROLE ( 'creation_date' ) ;
#142 = CARTESIAN_POINT ( 'NONE',  ( 0.000000000000000000, 0.000000000000000000, 5.000000000000000000 ) ) ;
#143 = EDGE_CURVE ( 'NONE', #366, #171, #340, .T. ) ;
#144 = CARTESIAN_POINT ( 'NONE',  ( 0.000000000000000000, 0.000000000000000000, 5.500000000000005329 ) ) ;
#145 = ORIENTED_EDGE ( 'NONE', *, *, #143, .T. ) ;
#146 = ORIENTED_EDGE ( 'NONE', *, *, #339, .T. ) ;
#147 = DIRECTION ( 'NONE',  ( -0.000000000000000000, -0.000000000000000000, -1.000000000000000000 ) ) ;
#148 = EDGE_CURVE ( 'NONE', #309, #184, #83, .T. ) ;
#149 = CARTESIAN_POINT ( 'NONE',  ( 0.000000000000000000, 0.000000000000000000, 5.000000000000000000 ) ) ;
#150 = VERTEX_POINT ( 'NONE', #372 ) ;
#151 = ORIENTED_EDGE ( 'NONE', *, *, #268, .T. ) ;
#152 = LINE ( 'NONE', #274, #195 ) ;
#153 = MECHANICAL_CONTEXT ( 'NONE', #241, 'mechanical' ) ;
#154 = VERTEX_POINT ( 'NONE', #294 ) ;
#155 = AXIS2_PLACEMENT_3D ( 'NONE', #315, #200, #222 ) ;
#156 = EDGE_LOOP ( 'NONE', ( #322, #319 ) ) ;
#157 = EDGE_CURVE ( 'NONE', #150, #183, #16, .T. ) ;
#158 = PERSON_AND_ORGANIZATION ( #54, #369 ) ;
#159 = ORIENTED_EDGE ( 'NONE', *, *, #35, .F. ) ;
#160 = SHAPE_DEFINITION_REPRESENTATION ( #7, #177 ) ;
#161 = PERSON_AND_ORGANIZATION ( #54, #369 ) ;
#162 = DIRECTION ( 'NONE',  ( 0.000000000000000000, 0.000000000000000000, 1.000000000000000000 ) ) ;
#163 = LINE ( 'NONE', #375, #6 ) ;
#164 = CARTESIAN_POINT ( 'NONE',  ( 0.000000000000000000, 0.000000000000000000, 5.500000000000005329 ) ) ;
#165 = DIRECTION ( 'NONE',  ( 0.000000000000000000, 0.000000000000000000, -1.000000000000000000 ) ) ;
#166 = DIRECTION ( 'NONE',  ( 0.000000000000000000, 0.000000000000000000, 1.000000000000000000 ) ) ;
#167 = AXIS2_PLACEMENT_3D ( 'NONE', #82, #53, #135 ) ;
#168 = ADVANCED_FACE ( 'NONE', ( #105, #314 ), #50, .T. ) ;
#169 = DIRECTION ( 'NONE',  ( -0.000000000000000000, -0.000000000000000000, -1.000000000000000000 ) ) ;
#170 = ORIENTED_EDGE ( 'NONE', *, *, #2, .F. ) ;
#171 = VERTEX_POINT ( 'NONE', #56 ) ;
#172 = AXIS2_PLACEMENT_3D ( 'NONE', #138, #166, #136 ) ;
#173 = DIRECTION ( 'NONE',  ( 1.000000000000000000, 0.000000000000000000, -0.000000000000000000 ) ) ;
#174 = CARTESIAN_POINT ( 'NONE',  ( 2.500000000000000000, 3.061616997868383141E-16, 230.0000000000000000 ) ) ;
#175 = ORIENTED_EDGE ( 'NONE', *, *, #76, .F. ) ;
#176 = DIRECTION ( 'NONE',  ( 0.000000000000000000, 0.000000000000000000, 1.000000000000000000 ) ) ;
#177 = ADVANCED_BREP_SHAPE_REPRESENTATION ( 'a20a', ( #55, #100 ), #270 ) ;
#178 = ORIENTED_EDGE ( 'NONE', *, *, #124, .T. ) ;
#179 = EDGE_CURVE ( 'NONE', #334, #309, #208, .T. ) ;
#180 = PERSON_AND_ORGANIZATION ( #54, #369 ) ;
#181 = CALENDAR_DATE ( 2022, 8, 7 ) ;
#182 = ORIENTED_EDGE ( 'NONE', *, *, #102, .T. ) ;
#183 = VERTEX_POINT ( 'NONE', #107 ) ;
#184 = VERTEX_POINT ( 'NONE', #225 ) ;
#185 = CIRCLE ( 'NONE', #250, 0.5000000000000004441 ) ;
#186 = AXIS2_PLACEMENT_3D ( 'NONE', #149, #380, #297 ) ;
#187 = PERSON_AND_ORGANIZATION_ROLE ( 'design_owner' ) ;
#188 = CC_DESIGN_APPROVAL ( #254, ( #103 ) ) ;
#189 = CARTESIAN_POINT ( 'NONE',  ( 0.000000000000000000, 0.000000000000000000, 0.000000000000000000 ) ) ;
#190 = CALENDAR_DATE ( 2022, 8, 7 ) ;
#191 = UNCERTAINTY_MEASURE_WITH_UNIT (LENGTH_MEASURE( 1.000000000000000082E-05 ), #117, 'distance_accuracy_value', 'NONE');
#192 = CARTESIAN_POINT ( 'NONE',  ( -8.000000000000000000, 0.000000000000000000, 5.000000000000000000 ) ) ;
#193 = ADVANCED_FACE ( 'NONE', ( #253 ), #80, .F. ) ;
#194 = CARTESIAN_POINT ( 'NONE',  ( 0.000000000000000000, 0.000000000000000000, 230.0000000000000000 ) ) ;
#195 = VECTOR ( 'NONE', #96, 1000.000000000000000 ) ;
#196 = APPROVAL_ROLE ( '' ) ;
#197 = AXIS2_PLACEMENT_3D ( 'NONE', #357, #169, #295 ) ;
#198 = DIRECTION ( 'NONE',  ( 1.000000000000000000, 0.000000000000000000, 0.000000000000000000 ) ) ;
#199 = FACE_OUTER_BOUND ( 'NONE', #298, .T. ) ;
#200 = DIRECTION ( 'NONE',  ( 0.000000000000000000, 0.000000000000000000, 1.000000000000000000 ) ) ;
#201 = ADVANCED_FACE ( 'NONE', ( #48 ), #291, .T. ) ;
#202 = CARTESIAN_POINT ( 'NONE',  ( 0.000000000000000000, 0.000000000000000000, 230.0000000000000000 ) ) ;
#203 = APPROVAL_PERSON_ORGANIZATION ( #358, #49, #218 ) ;
#204 = ORIENTED_EDGE ( 'NONE', *, *, #223, .T. ) ;
#205 = CIRCLE ( 'NONE', #331, 8.000000000000000000 ) ;
#206 = CYLINDRICAL_SURFACE ( 'NONE', #214, 5.000000000000000000 ) ;
#207 = ORIENTED_EDGE ( 'NONE', *, *, #42, .F. ) ;
#208 = CIRCLE ( 'NONE', #325, 8.000000000000000000 ) ;
#209 = CC_DESIGN_APPROVAL ( #49, ( #320 ) ) ;
#210 = ORIENTED_EDGE ( 'NONE', *, *, #290, .T. ) ;
#211 = EDGE_CURVE ( 'NONE', #368, #150, #88, .T. ) ;
#212 = AXIS2_PLACEMENT_3D ( 'NONE', #335, #41, #127 ) ;
#213 = ORIENTED_EDGE ( 'NONE', *, *, #312, .F. ) ;
#214 = AXIS2_PLACEMENT_3D ( 'NONE', #237, #61, #232 ) ;
#215 = CARTESIAN_POINT ( 'NONE',  ( 5.500000000000000000, 0.000000000000000000, 5.500000000000005329 ) ) ;
#216 = CC_DESIGN_DATE_AND_TIME_ASSIGNMENT ( #99, #256, ( #37 ) ) ;
#217 = ORIENTED_EDGE ( 'NONE', *, *, #211, .T. ) ;
#218 = APPROVAL_ROLE ( '' ) ;
#219 = ORIENTED_EDGE ( 'NONE', *, *, #10, .F. ) ;
#220 = AXIS2_PLACEMENT_3D ( 'NONE', #38, #46, #247 ) ;
#221 = DIRECTION ( 'NONE',  ( -0.000000000000000000, -0.000000000000000000, -1.000000000000000000 ) ) ;
#222 = DIRECTION ( 'NONE',  ( 1.000000000000000000, 0.000000000000000000, -0.000000000000000000 ) ) ;
#223 = EDGE_CURVE ( 'NONE', #266, #183, #36, .T. ) ;
#224 = PERSON_AND_ORGANIZATION_ROLE ( 'design_supplier' ) ;
#225 = CARTESIAN_POINT ( 'NONE',  ( -8.000000000000000000, 0.000000000000000000, 0.000000000000000000 ) ) ;
#226 = AXIS2_PLACEMENT_3D ( 'NONE', #52, #259, #79 ) ;
#227 = APPROVAL_DATE_TIME ( #47, #361 ) ;
#228 = DIRECTION ( 'NONE',  ( 0.000000000000000000, 0.000000000000000000, 1.000000000000000000 ) ) ;
#229 = ADVANCED_FACE ( 'NONE', ( #344, #264 ), #378, .T. ) ;
#230 = LINE ( 'NONE', #346, #21 ) ;
#231 = CARTESIAN_POINT ( 'NONE',  ( 0.000000000000000000, 0.000000000000000000, 230.0000000000000000 ) ) ;
#232 = DIRECTION ( 'NONE',  ( -1.000000000000000000, 0.000000000000000000, 0.000000000000000000 ) ) ;
#233 = AXIS2_PLACEMENT_3D ( 'NONE', #316, #371, #313 ) ;
#234 = ORIENTED_EDGE ( 'NONE', *, *, #246, .F. ) ;
#235 = DIRECTION ( 'NONE',  ( 1.000000000000000000, 0.000000000000000000, 0.000000000000000000 ) ) ;
#236 = FACE_OUTER_BOUND ( 'NONE', #304, .T. ) ;
#237 = CARTESIAN_POINT ( 'NONE',  ( 0.000000000000000000, 0.000000000000000000, 230.0000000000000000 ) ) ;
#238 = EDGE_LOOP ( 'NONE', ( #307, #207 ) ) ;
#239 = AXIS2_PLACEMENT_3D ( 'NONE', #379, #299, #354 ) ;
#240 = VERTEX_POINT ( 'NONE', #356 ) ;
#241 = APPLICATION_CONTEXT ( 'configuration controlled 3d designs of mechanical parts and assemblies' ) ;
#242 = PERSON_AND_ORGANIZATION_ROLE ( 'creator' ) ;
#243 = CIRCLE ( 'NONE', #263, 5.000000000000000000 ) ;
#244 = CARTESIAN_POINT ( 'NONE',  ( 5.000000000000000000, 6.123233995736766282E-16, 230.0000000000000000 ) ) ;
#245 = CIRCLE ( 'NONE', #239, 8.000000000000000000 ) ;
#246 = EDGE_CURVE ( 'NONE', #334, #240, #24, .T. ) ;
#247 = DIRECTION ( 'NONE',  ( 1.000000000000000000, 0.000000000000000000, -0.000000000000000000 ) ) ;
#248 = CARTESIAN_POINT ( 'NONE',  ( -2.500000000000000000, 0.000000000000000000, 0.000000000000000000 ) ) ;
#249 = ORIENTED_EDGE ( 'NONE', *, *, #258, .T. ) ;
#250 = AXIS2_PLACEMENT_3D ( 'NONE', #215, #129, #364 ) ;
#251 = CIRCLE ( 'NONE', #347, 5.000000000000000000 ) ;
#252 = CC_DESIGN_SECURITY_CLASSIFICATION ( #37, ( #103 ) ) ;
#253 = FACE_OUTER_BOUND ( 'NONE', #132, .T. ) ;
#254 = APPROVAL ( #13, 'NEURÈENÝ' ) ;
#255 = DIRECTION ( 'NONE',  ( -0.000000000000000000, -0.000000000000000000, -1.000000000000000000 ) ) ;
#256 = DATE_TIME_ROLE ( 'classification_date' ) ;
#257 = FACE_OUTER_BOUND ( 'NONE', #330, .T. ) ;
#258 = EDGE_CURVE ( 'NONE', #183, #266, #310, .T. ) ;
#259 = DIRECTION ( 'NONE',  ( 0.000000000000000000, 0.000000000000000000, -1.000000000000000000 ) ) ;
#260 = CARTESIAN_POINT ( 'NONE',  ( 0.000000000000000000, 0.000000000000000000, 5.000000000000000000 ) ) ;
#261 = CARTESIAN_POINT ( 'NONE',  ( 2.500000000000000000, 3.061616997868383141E-16, 0.000000000000000000 ) ) ;
#262 = EDGE_LOOP ( 'NONE', ( #204, #249 ) ) ;
#263 = AXIS2_PLACEMENT_3D ( 'NONE', #194, #77, #15 ) ;
#264 = FACE_OUTER_BOUND ( 'NONE', #156, .T. ) ;
#265 = DIRECTION ( 'NONE',  ( 0.000000000000000000, 0.000000000000000000, 1.000000000000000000 ) ) ;
#266 = VERTEX_POINT ( 'NONE', #118 ) ;
#267 = ORIENTED_EDGE ( 'NONE', *, *, #148, .F. ) ;
#268 = EDGE_CURVE ( 'NONE', #150, #368, #67, .T. ) ;
#269 = EDGE_LOOP ( 'NONE', ( #210, #182 ) ) ;
#270 =( GEOMETRIC_REPRESENTATION_CONTEXT ( 3 ) GLOBAL_UNCERTAINTY_ASSIGNED_CONTEXT ( ( #191 ) ) GLOBAL_UNIT_ASSIGNED_CONTEXT ( ( #117, #84, #89 ) ) REPRESENTATION_CONTEXT ( 'NONE', 'WORKASPACE' ) );
#271 = COORDINATED_UNIVERSAL_TIME_OFFSET ( 1, 0, .AHEAD. ) ;
#272 = ORIENTED_EDGE ( 'NONE', *, *, #148, .T. ) ;
#273 = PERSON_AND_ORGANIZATION ( #54, #369 ) ;
#274 = CARTESIAN_POINT ( 'NONE',  ( 2.500000000000000000, 3.061616997868383141E-16, 230.0000000000000000 ) ) ;
#275 = CC_DESIGN_PERSON_AND_ORGANIZATION_ASSIGNMENT ( #273, #242, ( #320 ) ) ;
#276 = APPLICATION_CONTEXT ( 'configuration controlled 3d designs of mechanical parts and assemblies' ) ;
#277 = LINE ( 'NONE', #14, #112 ) ;
#278 = AXIS2_PLACEMENT_3D ( 'NONE', #142, #289, #20 ) ;
#279 = LOCAL_TIME ( 17, 16, 35.00000000000000000, #18 ) ;
#280 = ORIENTED_EDGE ( 'NONE', *, *, #246, .T. ) ;
#281 = EDGE_LOOP ( 'NONE', ( #12, #178, #217, #91 ) ) ;
#282 = EDGE_CURVE ( 'NONE', #59, #296, #285, .T. ) ;
#283 = CYLINDRICAL_SURFACE ( 'NONE', #72, 2.500000000000000000 ) ;
#284 = CLOSED_SHELL ( 'NONE', ( #137, #193, #351, #23, #201, #229, #65, #345, #168, #93, #115 ) ) ;
#285 = CIRCLE ( 'NONE', #197, 2.500000000000000000 ) ;
#286 = PERSON_AND_ORGANIZATION ( #54, #369 ) ;
#287 = DIRECTION ( 'NONE',  ( -0.000000000000000000, -0.000000000000000000, -1.000000000000000000 ) ) ;
#288 = PERSON_AND_ORGANIZATION ( #54, #369 ) ;
#289 = DIRECTION ( 'NONE',  ( -0.000000000000000000, -0.000000000000000000, -1.000000000000000000 ) ) ;
#290 = EDGE_CURVE ( 'NONE', #154, #64, #251, .T. ) ;
#291 = CYLINDRICAL_SURFACE ( 'NONE', #278, 8.000000000000000000 ) ;
#292 = CIRCLE ( 'NONE', #122, 2.500000000000000000 ) ;
#293 = APPROVAL_PERSON_ORGANIZATION ( #74, #361, #196 ) ;
#294 = CARTESIAN_POINT ( 'NONE',  ( -5.000000000000000000, 0.000000000000000000, 230.0000000000000000 ) ) ;
#295 = DIRECTION ( 'NONE',  ( 1.000000000000000000, 0.000000000000000000, 0.000000000000000000 ) ) ;
#296 = VERTEX_POINT ( 'NONE', #261 ) ;
#297 = DIRECTION ( 'NONE',  ( 1.000000000000000000, 0.000000000000000000, 0.000000000000000000 ) ) ;
#298 = EDGE_LOOP ( 'NONE', ( #338, #367, #353, #39 ) ) ;
#299 = DIRECTION ( 'NONE',  ( 0.000000000000000000, 0.000000000000000000, 1.000000000000000000 ) ) ;
#300 = ORIENTED_EDGE ( 'NONE', *, *, #290, .F. ) ;
#301 = CARTESIAN_POINT ( 'NONE',  ( 5.000000000000000000, 6.123233995736766282E-16, 5.500000000000005329 ) ) ;
#302 = ORIENTED_EDGE ( 'NONE', *, *, #282, .T. ) ;
#303 = EDGE_CURVE ( 'NONE', #184, #240, #116, .T. ) ;
#304 = EDGE_LOOP ( 'NONE', ( #73, #300, #114, #151 ) ) ;
#305 = DIRECTION ( 'NONE',  ( 0.000000000000000000, 0.000000000000000000, 1.000000000000000000 ) ) ;
#306 = DATE_AND_TIME ( #181, #370 ) ;
#307 = ORIENTED_EDGE ( 'NONE', *, *, #303, .F. ) ;
#308 = DIRECTION ( 'NONE',  ( 0.000000000000000000, 0.000000000000000000, -1.000000000000000000 ) ) ;
#309 = VERTEX_POINT ( 'NONE', #321 ) ;
#310 = CIRCLE ( 'NONE', #186, 5.500000000000000000 ) ;
#311 = PLANE ( 'NONE',  #220 ) ;
#312 = EDGE_CURVE ( 'NONE', #309, #334, #245, .T. ) ;
#313 = DIRECTION ( 'NONE',  ( -1.000000000000000000, 1.224646799147351482E-16, 0.000000000000000000 ) ) ;
#314 = FACE_OUTER_BOUND ( 'NONE', #269, .T. ) ;
#315 = CARTESIAN_POINT ( 'NONE',  ( 0.000000000000000000, 0.000000000000000000, 230.0000000000000000 ) ) ;
#316 = CARTESIAN_POINT ( 'NONE',  ( -5.500000000000000000, 6.735557395310442023E-16, 5.500000000000005329 ) ) ;
#317 = FACE_OUTER_BOUND ( 'NONE', #32, .T. ) ;
#318 = CYLINDRICAL_SURFACE ( 'NONE', #57, 5.000000000000000000 ) ;
#319 = ORIENTED_EDGE ( 'NONE', *, *, #179, .T. ) ;
#320 = PRODUCT_DEFINITION ( 'NEZNÁMÝ', '', #103, #128 ) ;
#321 = CARTESIAN_POINT ( 'NONE',  ( -8.000000000000000000, 0.000000000000000000, 5.000000000000000000 ) ) ;
#322 = ORIENTED_EDGE ( 'NONE', *, *, #312, .T. ) ;
#323 = APPLICATION_PROTOCOL_DEFINITION ( 'international standard', 'config_control_design', 1994, #241 ) ;
#324 = FACE_OUTER_BOUND ( 'NONE', #281, .T. ) ;
#325 = AXIS2_PLACEMENT_3D ( 'NONE', #260, #374, #17 ) ;
#326 = CC_DESIGN_DATE_AND_TIME_ASSIGNMENT ( #109, #141, ( #320 ) ) ;
#327 = EDGE_LOOP ( 'NONE', ( #360, #87 ) ) ;
#328 = CARTESIAN_POINT ( 'NONE',  ( 8.000000000000000000, 9.797174393178825657E-16, 5.000000000000000000 ) ) ;
#329 = ORIENTED_EDGE ( 'NONE', *, *, #35, .T. ) ;
#330 = EDGE_LOOP ( 'NONE', ( #170, #145, #329, #302 ) ) ;
#331 = AXIS2_PLACEMENT_3D ( 'NONE', #189, #305, #9 ) ;
#332 = PRODUCT ( 'a20a', 'a20a', '', ( #153 ) ) ;
#333 = AXIS2_PLACEMENT_3D ( 'NONE', #377, #31, #235 ) ;
#334 = VERTEX_POINT ( 'NONE', #63 ) ;
#335 = CARTESIAN_POINT ( 'NONE',  ( 0.000000000000000000, 0.000000000000000000, 0.000000000000000000 ) ) ;
#336 = DIRECTION ( 'NONE',  ( -0.000000000000000000, -0.000000000000000000, -1.000000000000000000 ) ) ;
#337 = CALENDAR_DATE ( 2022, 8, 7 ) ;
#338 = ORIENTED_EDGE ( 'NONE', *, *, #157, .F. ) ;
#339 = EDGE_CURVE ( 'NONE', #171, #366, #292, .T. ) ;
#340 = CIRCLE ( 'NONE', #28, 2.500000000000000000 ) ;
#341 = PERSON_AND_ORGANIZATION_ROLE ( 'creator' ) ;
#342 = CYLINDRICAL_SURFACE ( 'NONE', #226, 2.500000000000000000 ) ;
#343 = CALENDAR_DATE ( 2022, 8, 7 ) ;
#344 = FACE_BOUND ( 'NONE', #262, .T. ) ;
#345 = ADVANCED_FACE ( 'NONE', ( #236 ), #206, .T. ) ;
#346 = CARTESIAN_POINT ( 'NONE',  ( -5.000000000000000000, 0.000000000000000000, 230.0000000000000000 ) ) ;
#347 = AXIS2_PLACEMENT_3D ( 'NONE', #33, #121, #352 ) ;
#348 = DATE_AND_TIME ( #337, #29 ) ;
#349 = CARTESIAN_POINT ( 'NONE',  ( 0.000000000000000000, 0.000000000000000000, 5.500000000000005329 ) ) ;
#350 = CARTESIAN_POINT ( 'NONE',  ( 0.000000000000000000, 0.000000000000000000, 230.0000000000000000 ) ) ;
#351 = ADVANCED_FACE ( 'NONE', ( #324 ), #318, .T. ) ;
#352 = DIRECTION ( 'NONE',  ( 1.000000000000000000, 0.000000000000000000, 0.000000000000000000 ) ) ;
#353 = ORIENTED_EDGE ( 'NONE', *, *, #10, .T. ) ;
#354 = DIRECTION ( 'NONE',  ( 1.000000000000000000, 0.000000000000000000, 0.000000000000000000 ) ) ;
#355 = CC_DESIGN_PERSON_AND_ORGANIZATION_ASSIGNMENT ( #288, #139, ( #37 ) ) ;
#356 = CARTESIAN_POINT ( 'NONE',  ( 8.000000000000000000, 9.797174393178825657E-16, 0.000000000000000000 ) ) ;
#357 = CARTESIAN_POINT ( 'NONE',  ( 0.000000000000000000, 0.000000000000000000, 0.000000000000000000 ) ) ;
#358 = PERSON_AND_ORGANIZATION ( #54, #369 ) ;
#359 = ORIENTED_EDGE ( 'NONE', *, *, #303, .T. ) ;
#360 = ORIENTED_EDGE ( 'NONE', *, *, #339, .F. ) ;
#361 = APPROVAL ( #106, 'NEURÈENÝ' ) ;
#362 = DIRECTION ( 'NONE',  ( 1.000000000000000000, 0.000000000000000000, 0.000000000000000000 ) ) ;
#363 = AXIS2_PLACEMENT_3D ( 'NONE', #349, #162, #19 ) ;
#364 = DIRECTION ( 'NONE',  ( 0.000000000000000000, 0.000000000000000000, -1.000000000000000000 ) ) ;
#365 = COORDINATED_UNIVERSAL_TIME_OFFSET ( 1, 0, .AHEAD. ) ;
#366 = VERTEX_POINT ( 'NONE', #174 ) ;
#367 = ORIENTED_EDGE ( 'NONE', *, *, #211, .F. ) ;
#368 = VERTEX_POINT ( 'NONE', #301 ) ;
#369 = ORGANIZATION ( 'NEURÈENÝ', 'NEURÈENÝ', '' ) ;
#370 = LOCAL_TIME ( 17, 16, 35.00000000000000000, #271 ) ;
#371 = DIRECTION ( 'NONE',  ( 1.224646799147353207E-16, 1.000000000000000000, -0.000000000000000000 ) ) ;
#372 = CARTESIAN_POINT ( 'NONE',  ( -5.000000000000000000, 0.000000000000000000, 5.500000000000005329 ) ) ;
#373 = COORDINATED_UNIVERSAL_TIME_OFFSET ( 1, 0, .AHEAD. ) ;
#374 = DIRECTION ( 'NONE',  ( 0.000000000000000000, 0.000000000000000000, 1.000000000000000000 ) ) ;
#375 = CARTESIAN_POINT ( 'NONE',  ( 5.000000000000000000, 6.123233995736766282E-16, 230.0000000000000000 ) ) ;
#376 = CC_DESIGN_PERSON_AND_ORGANIZATION_ASSIGNMENT ( #158, #224, ( #103 ) ) ;
#377 = CARTESIAN_POINT ( 'NONE',  ( 0.000000000000000000, 0.000000000000000000, 0.000000000000000000 ) ) ;
#378 = PLANE ( 'NONE',  #108 ) ;
#379 = CARTESIAN_POINT ( 'NONE',  ( 0.000000000000000000, 0.000000000000000000, 5.000000000000000000 ) ) ;
#380 = DIRECTION ( 'NONE',  ( -0.000000000000000000, -0.000000000000000000, -1.000000000000000000 ) ) ;
#381 = EDGE_LOOP ( 'NONE', ( #234, #213, #272, #359 ) ) ;
ENDSEC;
END-ISO-10303-21;
