ISO-10303-21;
HEADER;
FILE_DESCRIPTION (( 'STEP AP203' ),
    '1' );
FILE_NAME ('afe1.STEP',
    '2022-07-08T15:04:59',
    ( '' ),
    ( '' ),
    'SwSTEP 2.0',
    'SolidWorks 2019',
    '' );
FILE_SCHEMA (( 'CONFIG_CONTROL_DESIGN' ));
ENDSEC;

DATA;
#1 = DIRECTION ( 'NONE',  ( 0.000000000000000000, 0.000000000000000000, -1.000000000000000000 ) ) ;
#2 = EDGE_LOOP ( 'NONE', ( #44, #359, #249, #55 ) ) ;
#3 = ORIENTED_EDGE ( 'NONE', *, *, #330, .T. ) ;
#4 = CIRCLE ( 'NONE', #328, 2.750000000000000000 ) ;
#5 = EDGE_CURVE ( 'NONE', #8, #154, #4, .T. ) ;
#6 = ORIENTED_EDGE ( 'NONE', *, *, #330, .F. ) ;
#7 = ADVANCED_FACE ( 'NONE', ( #75 ), #129, .T. ) ;
#8 = VERTEX_POINT ( 'NONE', #99 ) ;
#9 = CARTESIAN_POINT ( 'NONE',  ( 2.750000000000000000, 3.367778697655221012E-16, 0.000000000000000000 ) ) ;
#10 = EDGE_LOOP ( 'NONE', ( #269, #377, #217, #12 ) ) ;
#11 = DIRECTION ( 'NONE',  ( 0.000000000000000000, 0.000000000000000000, 1.000000000000000000 ) ) ;
#12 = ORIENTED_EDGE ( 'NONE', *, *, #35, .F. ) ;
#13 = DIRECTION ( 'NONE',  ( -1.000000000000000000, 0.000000000000000000, 0.000000000000000000 ) ) ;
#14 = DIRECTION ( 'NONE',  ( -0.000000000000000000, -0.000000000000000000, -1.000000000000000000 ) ) ;
#15 = DIRECTION ( 'NONE',  ( 1.000000000000000000, 0.000000000000000000, 0.000000000000000000 ) ) ;
#16 =( GEOMETRIC_REPRESENTATION_CONTEXT ( 3 ) GLOBAL_UNCERTAINTY_ASSIGNED_CONTEXT ( ( #155 ) ) GLOBAL_UNIT_ASSIGNED_CONTEXT ( ( #306, #189, #251 ) ) REPRESENTATION_CONTEXT ( 'NONE', 'WORKASPACE' ) );
#17 = PLANE ( 'NONE',  #226 ) ;
#18 = DATE_AND_TIME ( #202, #303 ) ;
#19 = CALENDAR_DATE ( 2022, 8, 7 ) ;
#20 = FACE_OUTER_BOUND ( 'NONE', #179, .T. ) ;
#21 = LOCAL_TIME ( 17, 4, 59.00000000000000000, #343 ) ;
#22 = CC_DESIGN_PERSON_AND_ORGANIZATION_ASSIGNMENT ( #51, #76, ( #318 ) ) ;
#23 = PERSON_AND_ORGANIZATION ( #243, #34 ) ;
#24 = ORIENTED_EDGE ( 'NONE', *, *, #26, .T. ) ;
#25 = CARTESIAN_POINT ( 'NONE',  ( 0.000000000000000000, 0.000000000000000000, 5.000000000000000000 ) ) ;
#26 = EDGE_CURVE ( 'NONE', #294, #36, #201, .T. ) ;
#27 = AXIS2_PLACEMENT_3D ( 'NONE', #88, #130, #156 ) ;
#28 = FACE_BOUND ( 'NONE', #112, .T. ) ;
#29 = PRODUCT_RELATED_PRODUCT_CATEGORY ( 'detail', '', ( #233 ) ) ;
#30 = ORIENTED_EDGE ( 'NONE', *, *, #65, .T. ) ;
#31 = APPLICATION_CONTEXT ( 'configuration controlled 3d designs of mechanical parts and assemblies' ) ;
#32 = ORIENTED_EDGE ( 'NONE', *, *, #362, .T. ) ;
#33 = CIRCLE ( 'NONE', #90, 5.500000000000000000 ) ;
#34 = ORGANIZATION ( 'NEURÈENÝ', 'NEURÈENÝ', '' ) ;
#35 = EDGE_CURVE ( 'NONE', #295, #207, #33, .T. ) ;
#36 = VERTEX_POINT ( 'NONE', #164 ) ;
#37 = CARTESIAN_POINT ( 'NONE',  ( 0.000000000000000000, 0.000000000000000000, 0.000000000000000000 ) ) ;
#38 = EDGE_LOOP ( 'NONE', ( #332, #3, #319, #212 ) ) ;
#39 = CARTESIAN_POINT ( 'NONE',  ( 0.000000000000000000, 0.000000000000000000, 5.500000000000005329 ) ) ;
#40 = EDGE_CURVE ( 'NONE', #41, #113, #77, .T. ) ;
#41 = VERTEX_POINT ( 'NONE', #161 ) ;
#42 = AXIS2_PLACEMENT_3D ( 'NONE', #123, #222, #363 ) ;
#43 = CYLINDRICAL_SURFACE ( 'NONE', #42, 2.750000000000000000 ) ;
#44 = ORIENTED_EDGE ( 'NONE', *, *, #46, .F. ) ;
#45 = FACE_OUTER_BOUND ( 'NONE', #38, .T. ) ;
#46 = EDGE_CURVE ( 'NONE', #113, #300, #103, .T. ) ;
#47 = FACE_BOUND ( 'NONE', #71, .T. ) ;
#48 = APPROVAL_PERSON_ORGANIZATION ( #345, #267, #171 ) ;
#49 = CARTESIAN_POINT ( 'NONE',  ( 0.000000000000000000, 0.000000000000000000, 255.0000000000000000 ) ) ;
#50 = DIRECTION ( 'NONE',  ( 1.000000000000000000, 0.000000000000000000, 0.000000000000000000 ) ) ;
#51 = PERSON_AND_ORGANIZATION ( #243, #34 ) ;
#52 = AXIS2_PLACEMENT_3D ( 'NONE', #141, #287, #292 ) ;
#53 = LINE ( 'NONE', #263, #66 ) ;
#54 = DIRECTION ( 'NONE',  ( 0.000000000000000000, 0.000000000000000000, 1.000000000000000000 ) ) ;
#55 = ORIENTED_EDGE ( 'NONE', *, *, #321, .T. ) ;
#56 = EDGE_LOOP ( 'NONE', ( #121, #210, #148, #205 ) ) ;
#57 = EDGE_CURVE ( 'NONE', #300, #207, #188, .T. ) ;
#58 = CARTESIAN_POINT ( 'NONE',  ( -5.000000000000000000, 0.000000000000000000, 5.500000000000005329 ) ) ;
#59 = CIRCLE ( 'NONE', #277, 8.000000000000000000 ) ;
#60 = EDGE_LOOP ( 'NONE', ( #244, #238 ) ) ;
#61 = CC_DESIGN_APPROVAL ( #267, ( #318 ) ) ;
#62 = DIRECTION ( 'NONE',  ( 0.000000000000000000, 0.000000000000000000, 1.000000000000000000 ) ) ;
#63 = CALENDAR_DATE ( 2022, 8, 7 ) ;
#64 = EDGE_LOOP ( 'NONE', ( #235, #175, #315, #215 ) ) ;
#65 = EDGE_CURVE ( 'NONE', #186, #295, #253, .T. ) ;
#66 = VECTOR ( 'NONE', #204, 1000.000000000000000 ) ;
#67 = ORIENTED_EDGE ( 'NONE', *, *, #40, .T. ) ;
#68 = LINE ( 'NONE', #281, #109 ) ;
#69 = ORIENTED_EDGE ( 'NONE', *, *, #126, .T. ) ;
#70 = LINE ( 'NONE', #187, #180 ) ;
#71 = EDGE_LOOP ( 'NONE', ( #326, #6 ) ) ;
#72 = AXIS2_PLACEMENT_3D ( 'NONE', #37, #275, #102 ) ;
#73 = EDGE_CURVE ( 'NONE', #380, #325, #273, .T. ) ;
#74 = DIRECTION ( 'NONE',  ( 0.000000000000000000, 0.000000000000000000, 1.000000000000000000 ) ) ;
#75 = FACE_OUTER_BOUND ( 'NONE', #64, .T. ) ;
#76 = PERSON_AND_ORGANIZATION_ROLE ( 'design_supplier' ) ;
#77 = CIRCLE ( 'NONE', #100, 5.000000000000000000 ) ;
#78 = DIRECTION ( 'NONE',  ( 0.000000000000000000, 0.000000000000000000, 1.000000000000000000 ) ) ;
#79 = CALENDAR_DATE ( 2022, 8, 7 ) ;
#80 = CC_DESIGN_PERSON_AND_ORGANIZATION_ASSIGNMENT ( #23, #83, ( #133 ) ) ;
#81 = DIRECTION ( 'NONE',  ( 0.000000000000000000, 0.000000000000000000, -1.000000000000000000 ) ) ;
#82 = CARTESIAN_POINT ( 'NONE',  ( 8.000000000000000000, 9.797174393178825657E-16, 0.000000000000000000 ) ) ;
#83 = PERSON_AND_ORGANIZATION_ROLE ( 'classification_officer' ) ;
#84 = TOROIDAL_SURFACE ( 'NONE', #302, 5.500000000000000000, 0.5000000000000000000 ) ;
#85 = ORIENTED_EDGE ( 'NONE', *, *, #229, .F. ) ;
#86 = APPLICATION_CONTEXT ( 'configuration controlled 3d designs of mechanical parts and assemblies' ) ;
#87 = CARTESIAN_POINT ( 'NONE',  ( 0.000000000000000000, 0.000000000000000000, 0.000000000000000000 ) ) ;
#88 = CARTESIAN_POINT ( 'NONE',  ( 0.000000000000000000, 0.000000000000000000, 5.000000000000000000 ) ) ;
#89 = EDGE_CURVE ( 'NONE', #300, #186, #221, .T. ) ;
#90 = AXIS2_PLACEMENT_3D ( 'NONE', #338, #305, #373 ) ;
#91 = EDGE_CURVE ( 'NONE', #207, #295, #168, .T. ) ;
#92 = ORIENTED_EDGE ( 'NONE', *, *, #198, .F. ) ;
#93 = AXIS2_PLACEMENT_3D ( 'NONE', #224, #78, #336 ) ;
#94 = DIRECTION ( 'NONE',  ( 0.000000000000000000, 0.000000000000000000, -1.000000000000000000 ) ) ;
#95 = DESIGN_CONTEXT ( 'detailed design', #86, 'design' ) ;
#96 = APPROVAL ( #347, 'NEURÈENÝ' ) ;
#97 = CARTESIAN_POINT ( 'NONE',  ( -5.000000000000000000, 0.000000000000000000, 255.0000000000000000 ) ) ;
#98 = ADVANCED_FACE ( 'NONE', ( #47, #195 ), #17, .T. ) ;
#99 = CARTESIAN_POINT ( 'NONE',  ( -2.750000000000000000, 0.000000000000000000, 255.0000000000000000 ) ) ;
#100 = AXIS2_PLACEMENT_3D ( 'NONE', #190, #283, #311 ) ;
#101 = AXIS2_PLACEMENT_3D ( 'NONE', #87, #322, #200 ) ;
#102 = DIRECTION ( 'NONE',  ( 1.000000000000000000, 0.000000000000000000, 0.000000000000000000 ) ) ;
#103 = LINE ( 'NONE', #344, #334 ) ;
#104 = CYLINDRICAL_SURFACE ( 'NONE', #314, 5.000000000000000000 ) ;
#105 = DIRECTION ( 'NONE',  ( 1.224646799147353207E-16, 1.000000000000000000, -0.000000000000000000 ) ) ;
#106 = PERSON_AND_ORGANIZATION ( #243, #34 ) ;
#107 = CARTESIAN_POINT ( 'NONE',  ( 0.000000000000000000, 0.000000000000000000, 5.000000000000000000 ) ) ;
#108 = APPLICATION_PROTOCOL_DEFINITION ( 'international standard', 'config_control_design', 1994, #31 ) ;
#109 = VECTOR ( 'NONE', #304, 1000.000000000000000 ) ;
#110 = CARTESIAN_POINT ( 'NONE',  ( 0.000000000000000000, 0.000000000000000000, 5.500000000000005329 ) ) ;
#111 = CARTESIAN_POINT ( 'NONE',  ( 0.000000000000000000, 0.000000000000000000, 0.000000000000000000 ) ) ;
#112 = EDGE_LOOP ( 'NONE', ( #157, #247 ) ) ;
#113 = VERTEX_POINT ( 'NONE', #206 ) ;
#114 = APPROVAL_DATE_TIME ( #167, #267 ) ;
#115 = CIRCLE ( 'NONE', #246, 5.000000000000000000 ) ;
#116 = CARTESIAN_POINT ( 'NONE',  ( -8.000000000000000000, 0.000000000000000000, 0.000000000000000000 ) ) ;
#117 = ORIENTED_EDGE ( 'NONE', *, *, #321, .F. ) ;
#118 = COORDINATED_UNIVERSAL_TIME_OFFSET ( 1, 0, .AHEAD. ) ;
#119 = DIRECTION ( 'NONE',  ( -1.000000000000000000, 0.000000000000000000, 0.000000000000000000 ) ) ;
#120 = VERTEX_POINT ( 'NONE', #82 ) ;
#121 = ORIENTED_EDGE ( 'NONE', *, *, #73, .F. ) ;
#122 = ORIENTED_EDGE ( 'NONE', *, *, #57, .F. ) ;
#123 = CARTESIAN_POINT ( 'NONE',  ( 0.000000000000000000, 0.000000000000000000, 255.0000000000000000 ) ) ;
#124 = ORIENTED_EDGE ( 'NONE', *, *, #5, .T. ) ;
#125 = AXIS2_PLACEMENT_3D ( 'NONE', #352, #54, #259 ) ;
#126 = EDGE_CURVE ( 'NONE', #152, #120, #208, .T. ) ;
#127 = LINE ( 'NONE', #97, #372 ) ;
#128 = ADVANCED_FACE ( 'NONE', ( #143 ), #145, .F. ) ;
#129 = CYLINDRICAL_SURFACE ( 'NONE', #236, 5.000000000000000000 ) ;
#130 = DIRECTION ( 'NONE',  ( -0.000000000000000000, -0.000000000000000000, -1.000000000000000000 ) ) ;
#131 = ADVANCED_FACE ( 'NONE', ( #28, #237 ), #147, .T. ) ;
#132 = AXIS2_PLACEMENT_3D ( 'NONE', #203, #378, #323 ) ;
#133 = SECURITY_CLASSIFICATION ( '', '', #376 ) ;
#134 = FACE_OUTER_BOUND ( 'NONE', #356, .T. ) ;
#135 = DIRECTION ( 'NONE',  ( 0.000000000000000000, -1.000000000000000000, 0.000000000000000000 ) ) ;
#136 = DATE_TIME_ROLE ( 'classification_date' ) ;
#137 = CARTESIAN_POINT ( 'NONE',  ( 5.500000000000000000, 0.000000000000000000, 5.500000000000005329 ) ) ;
#138 = APPROVAL_DATE_TIME ( #142, #96 ) ;
#139 = APPROVAL_ROLE ( '' ) ;
#140 = PLANE ( 'NONE',  #125 ) ;
#141 = CARTESIAN_POINT ( 'NONE',  ( 0.000000000000000000, 0.000000000000000000, 5.500000000000005329 ) ) ;
#142 = DATE_AND_TIME ( #19, #265 ) ;
#143 = FACE_OUTER_BOUND ( 'NONE', #153, .T. ) ;
#144 = APPROVAL_DATE_TIME ( #150, #324 ) ;
#145 = TOROIDAL_SURFACE ( 'NONE', #52, 5.500000000000000000, 0.5000000000000000000 ) ;
#146 = FACE_OUTER_BOUND ( 'NONE', #271, .T. ) ;
#147 = PLANE ( 'NONE',  #193 ) ;
#148 = ORIENTED_EDGE ( 'NONE', *, *, #280, .T. ) ;
#149 = CC_DESIGN_PERSON_AND_ORGANIZATION_ASSIGNMENT ( #368, #337, ( #318 ) ) ;
#150 = DATE_AND_TIME ( #63, #296 ) ;
#151 = AXIS2_PLACEMENT_3D ( 'NONE', #333, #74, #15 ) ;
#152 = VERTEX_POINT ( 'NONE', #116 ) ;
#153 = EDGE_LOOP ( 'NONE', ( #117, #30, #181, #122 ) ) ;
#154 = VERTEX_POINT ( 'NONE', #348 ) ;
#155 = UNCERTAINTY_MEASURE_WITH_UNIT (LENGTH_MEASURE( 1.000000000000000082E-05 ), #306, 'distance_accuracy_value', 'NONE');
#156 = DIRECTION ( 'NONE',  ( -1.000000000000000000, 0.000000000000000000, 0.000000000000000000 ) ) ;
#157 = ORIENTED_EDGE ( 'NONE', *, *, #91, .T. ) ;
#158 = CARTESIAN_POINT ( 'NONE',  ( 8.000000000000000000, 9.797174393178825657E-16, 5.000000000000000000 ) ) ;
#159 = DIRECTION ( 'NONE',  ( 0.000000000000000000, 0.000000000000000000, 1.000000000000000000 ) ) ;
#160 = DIRECTION ( 'NONE',  ( -0.000000000000000000, -0.000000000000000000, -1.000000000000000000 ) ) ;
#161 = CARTESIAN_POINT ( 'NONE',  ( -5.000000000000000000, 0.000000000000000000, 255.0000000000000000 ) ) ;
#162 = AXIS2_PLACEMENT_3D ( 'NONE', #178, #94, #13 ) ;
#163 = COORDINATED_UNIVERSAL_TIME_OFFSET ( 1, 0, .AHEAD. ) ;
#164 = CARTESIAN_POINT ( 'NONE',  ( -2.750000000000000000, 0.000000000000000000, 0.000000000000000000 ) ) ;
#165 = DIRECTION ( 'NONE',  ( 1.000000000000000000, 0.000000000000000000, 0.000000000000000000 ) ) ;
#166 = DATE_AND_TIME ( #79, #21 ) ;
#167 = DATE_AND_TIME ( #340, #381 ) ;
#168 = CIRCLE ( 'NONE', #379, 5.500000000000000000 ) ;
#169 = CARTESIAN_POINT ( 'NONE',  ( 0.000000000000000000, 0.000000000000000000, 5.500000000000005329 ) ) ;
#170 = CC_DESIGN_DATE_AND_TIME_ASSIGNMENT ( #18, #136, ( #133 ) ) ;
#171 = APPROVAL_ROLE ( '' ) ;
#172 = DIRECTION ( 'NONE',  ( 0.000000000000000000, 0.000000000000000000, 1.000000000000000000 ) ) ;
#173 = ORIENTED_EDGE ( 'NONE', *, *, #26, .F. ) ;
#174 = CARTESIAN_POINT ( 'NONE',  ( -2.750000000000000000, 0.000000000000000000, 255.0000000000000000 ) ) ;
#175 = ORIENTED_EDGE ( 'NONE', *, *, #46, .T. ) ;
#176 = AXIS2_PLACEMENT_3D ( 'NONE', #25, #266, #119 ) ;
#177 = CC_DESIGN_DATE_AND_TIME_ASSIGNMENT ( #166, #262, ( #183 ) ) ;
#178 = CARTESIAN_POINT ( 'NONE',  ( 0.000000000000000000, 0.000000000000000000, 255.0000000000000000 ) ) ;
#179 = EDGE_LOOP ( 'NONE', ( #242, #261 ) ) ;
#180 = VECTOR ( 'NONE', #301, 1000.000000000000000 ) ;
#181 = ORIENTED_EDGE ( 'NONE', *, *, #91, .F. ) ;
#182 = PRODUCT_DEFINITION_SHAPE ( 'NONE', 'NONE',  #183 ) ;
#183 = PRODUCT_DEFINITION ( 'NEZNÁMÝ', '', #318, #95 ) ;
#184 = ORIENTED_EDGE ( 'NONE', *, *, #299, .T. ) ;
#185 = FACE_OUTER_BOUND ( 'NONE', #2, .T. ) ;
#186 = VERTEX_POINT ( 'NONE', #58 ) ;
#187 = CARTESIAN_POINT ( 'NONE',  ( 2.750000000000000000, 3.367778697655221012E-16, 255.0000000000000000 ) ) ;
#188 = CIRCLE ( 'NONE', #264, 0.5000000000000004441 ) ;
#189 =( NAMED_UNIT ( * ) PLANE_ANGLE_UNIT ( ) SI_UNIT ( $, .RADIAN. ) );
#190 = CARTESIAN_POINT ( 'NONE',  ( 0.000000000000000000, 0.000000000000000000, 255.0000000000000000 ) ) ;
#191 = COORDINATED_UNIVERSAL_TIME_OFFSET ( 1, 0, .AHEAD. ) ;
#192 = DIRECTION ( 'NONE',  ( -1.000000000000000000, 0.000000000000000000, 0.000000000000000000 ) ) ;
#193 = AXIS2_PLACEMENT_3D ( 'NONE', #260, #234, #286 ) ;
#194 = APPROVAL_STATUS ( 'not_yet_approved' ) ;
#195 = FACE_OUTER_BOUND ( 'NONE', #350, .T. ) ;
#196 = PERSON_AND_ORGANIZATION ( #243, #34 ) ;
#197 = CARTESIAN_POINT ( 'NONE',  ( 0.000000000000000000, 0.000000000000000000, 255.0000000000000000 ) ) ;
#198 = EDGE_CURVE ( 'NONE', #36, #294, #360, .T. ) ;
#199 = COORDINATED_UNIVERSAL_TIME_OFFSET ( 1, 0, .AHEAD. ) ;
#200 = DIRECTION ( 'NONE',  ( 1.000000000000000000, 0.000000000000000000, 0.000000000000000000 ) ) ;
#201 = CIRCLE ( 'NONE', #258, 2.750000000000000000 ) ;
#202 = CALENDAR_DATE ( 2022, 8, 7 ) ;
#203 = CARTESIAN_POINT ( 'NONE',  ( 0.000000000000000000, 0.000000000000000000, 0.000000000000000000 ) ) ;
#204 = DIRECTION ( 'NONE',  ( -0.000000000000000000, -0.000000000000000000, -1.000000000000000000 ) ) ;
#205 = ORIENTED_EDGE ( 'NONE', *, *, #299, .F. ) ;
#206 = CARTESIAN_POINT ( 'NONE',  ( 5.000000000000000000, 6.123233995736766282E-16, 255.0000000000000000 ) ) ;
#207 = VERTEX_POINT ( 'NONE', #355 ) ;
#208 = CIRCLE ( 'NONE', #101, 8.000000000000000000 ) ;
#209 = ADVANCED_FACE ( 'NONE', ( #268, #20 ), #140, .F. ) ;
#210 = ORIENTED_EDGE ( 'NONE', *, *, #229, .T. ) ;
#211 = EDGE_CURVE ( 'NONE', #8, #36, #375, .T. ) ;
#212 = ORIENTED_EDGE ( 'NONE', *, *, #198, .T. ) ;
#213 = EDGE_LOOP ( 'NONE', ( #92, #173 ) ) ;
#214 = AXIS2_PLACEMENT_3D ( 'NONE', #335, #159, #276 ) ;
#215 = ORIENTED_EDGE ( 'NONE', *, *, #339, .F. ) ;
#216 = DIRECTION ( 'NONE',  ( 1.000000000000000000, 0.000000000000000000, 0.000000000000000000 ) ) ;
#217 = ORIENTED_EDGE ( 'NONE', *, *, #57, .T. ) ;
#218 = DIRECTION ( 'NONE',  ( -0.000000000000000000, -0.000000000000000000, -1.000000000000000000 ) ) ;
#219 = ADVANCED_FACE ( 'NONE', ( #232 ), #84, .F. ) ;
#220 = DIRECTION ( 'NONE',  ( 1.000000000000000000, 0.000000000000000000, 0.000000000000000000 ) ) ;
#221 = CIRCLE ( 'NONE', #308, 5.000000000000000000 ) ;
#222 = DIRECTION ( 'NONE',  ( 0.000000000000000000, 0.000000000000000000, -1.000000000000000000 ) ) ;
#223 = DIRECTION ( 'NONE',  ( -0.000000000000000000, -0.000000000000000000, -1.000000000000000000 ) ) ;
#224 = CARTESIAN_POINT ( 'NONE',  ( 0.000000000000000000, 0.000000000000000000, 5.000000000000000000 ) ) ;
#225 = PERSON_AND_ORGANIZATION ( #243, #34 ) ;
#226 = AXIS2_PLACEMENT_3D ( 'NONE', #197, #320, #240 ) ;
#227 = CC_DESIGN_APPROVAL ( #96, ( #183 ) ) ;
#228 = DIRECTION ( 'NONE',  ( 0.000000000000000000, 0.000000000000000000, 1.000000000000000000 ) ) ;
#229 = EDGE_CURVE ( 'NONE', #380, #120, #53, .T. ) ;
#230 = DIRECTION ( 'NONE',  ( -0.000000000000000000, -0.000000000000000000, -1.000000000000000000 ) ) ;
#231 = PERSON_AND_ORGANIZATION ( #243, #34 ) ;
#232 = FACE_OUTER_BOUND ( 'NONE', #10, .T. ) ;
#233 = PRODUCT ( 'afe1', 'afe1', '', ( #256 ) ) ;
#234 = DIRECTION ( 'NONE',  ( 0.000000000000000000, 0.000000000000000000, 1.000000000000000000 ) ) ;
#235 = ORIENTED_EDGE ( 'NONE', *, *, #362, .F. ) ;
#236 = AXIS2_PLACEMENT_3D ( 'NONE', #367, #254, #192 ) ;
#237 = FACE_OUTER_BOUND ( 'NONE', #60, .T. ) ;
#238 = ORIENTED_EDGE ( 'NONE', *, *, #73, .T. ) ;
#239 = FACE_OUTER_BOUND ( 'NONE', #56, .T. ) ;
#240 = DIRECTION ( 'NONE',  ( 1.000000000000000000, 0.000000000000000000, -0.000000000000000000 ) ) ;
#241 = VECTOR ( 'NONE', #1, 1000.000000000000000 ) ;
#242 = ORIENTED_EDGE ( 'NONE', *, *, #126, .F. ) ;
#243 = PERSON ( 'NEURÈENÝ', 'NEURÈENÝ', 'NEURÈENÝ', ('NEURÈENÝ'), ('NEURÈENÝ'), ('NEURÈENÝ') ) ;
#244 = ORIENTED_EDGE ( 'NONE', *, *, #297, .T. ) ;
#245 = CARTESIAN_POINT ( 'NONE',  ( 0.000000000000000000, 0.000000000000000000, 5.000000000000000000 ) ) ;
#246 = AXIS2_PLACEMENT_3D ( 'NONE', #39, #62, #216 ) ;
#247 = ORIENTED_EDGE ( 'NONE', *, *, #35, .T. ) ;
#248 = DIRECTION ( 'NONE',  ( 1.000000000000000000, 0.000000000000000000, 0.000000000000000000 ) ) ;
#249 = ORIENTED_EDGE ( 'NONE', *, *, #339, .T. ) ;
#250 = DIRECTION ( 'NONE',  ( 0.000000000000000000, 0.000000000000000000, 1.000000000000000000 ) ) ;
#251 =( NAMED_UNIT ( * ) SI_UNIT ( $, .STERADIAN. ) SOLID_ANGLE_UNIT ( ) );
#252 = ADVANCED_FACE ( 'NONE', ( #146 ), #290, .T. ) ;
#253 = CIRCLE ( 'NONE', #291, 0.5000000000000004441 ) ;
#254 = DIRECTION ( 'NONE',  ( -0.000000000000000000, -0.000000000000000000, -1.000000000000000000 ) ) ;
#255 = CARTESIAN_POINT ( 'NONE',  ( 5.000000000000000000, 6.123233995736766282E-16, 5.500000000000005329 ) ) ;
#256 = MECHANICAL_CONTEXT ( 'NONE', #31, 'mechanical' ) ;
#257 = DIRECTION ( 'NONE',  ( 0.000000000000000000, 0.000000000000000000, 1.000000000000000000 ) ) ;
#258 = AXIS2_PLACEMENT_3D ( 'NONE', #285, #230, #220 ) ;
#259 = DIRECTION ( 'NONE',  ( 1.000000000000000000, 0.000000000000000000, -0.000000000000000000 ) ) ;
#260 = CARTESIAN_POINT ( 'NONE',  ( 0.000000000000000000, 0.000000000000000000, 5.000000000000000000 ) ) ;
#261 = ORIENTED_EDGE ( 'NONE', *, *, #280, .F. ) ;
#262 = DATE_TIME_ROLE ( 'creation_date' ) ;
#263 = CARTESIAN_POINT ( 'NONE',  ( 8.000000000000000000, 9.797174393178825657E-16, 5.000000000000000000 ) ) ;
#264 = AXIS2_PLACEMENT_3D ( 'NONE', #137, #135, #81 ) ;
#265 = LOCAL_TIME ( 17, 4, 59.00000000000000000, #191 ) ;
#266 = DIRECTION ( 'NONE',  ( -0.000000000000000000, -0.000000000000000000, -1.000000000000000000 ) ) ;
#267 = APPROVAL ( #310, 'NEURÈENÝ' ) ;
#268 = FACE_BOUND ( 'NONE', #213, .T. ) ;
#269 = ORIENTED_EDGE ( 'NONE', *, *, #65, .F. ) ;
#270 = ADVANCED_FACE ( 'NONE', ( #239 ), #353, .T. ) ;
#271 = EDGE_LOOP ( 'NONE', ( #85, #358, #184, #69 ) ) ;
#272 = CIRCLE ( 'NONE', #72, 8.000000000000000000 ) ;
#273 = CIRCLE ( 'NONE', #93, 8.000000000000000000 ) ;
#274 = ORIENTED_EDGE ( 'NONE', *, *, #211, .F. ) ;
#275 = DIRECTION ( 'NONE',  ( 0.000000000000000000, 0.000000000000000000, 1.000000000000000000 ) ) ;
#276 = DIRECTION ( 'NONE',  ( 1.000000000000000000, 0.000000000000000000, 0.000000000000000000 ) ) ;
#277 = AXIS2_PLACEMENT_3D ( 'NONE', #245, #11, #248 ) ;
#278 = CC_DESIGN_SECURITY_CLASSIFICATION ( #133, ( #318 ) ) ;
#279 = CYLINDRICAL_SURFACE ( 'NONE', #162, 2.750000000000000000 ) ;
#280 = EDGE_CURVE ( 'NONE', #120, #152, #272, .T. ) ;
#281 = CARTESIAN_POINT ( 'NONE',  ( -8.000000000000000000, 0.000000000000000000, 5.000000000000000000 ) ) ;
#282 = CARTESIAN_POINT ( 'NONE',  ( -5.500000000000000000, 6.735557395310442023E-16, 5.500000000000005329 ) ) ;
#283 = DIRECTION ( 'NONE',  ( 0.000000000000000000, 0.000000000000000000, 1.000000000000000000 ) ) ;
#284 = APPROVAL_PERSON_ORGANIZATION ( #106, #324, #309 ) ;
#285 = CARTESIAN_POINT ( 'NONE',  ( 0.000000000000000000, 0.000000000000000000, 0.000000000000000000 ) ) ;
#286 = DIRECTION ( 'NONE',  ( 1.000000000000000000, 0.000000000000000000, -0.000000000000000000 ) ) ;
#287 = DIRECTION ( 'NONE',  ( 0.000000000000000000, 0.000000000000000000, 1.000000000000000000 ) ) ;
#288 = PERSON_AND_ORGANIZATION_ROLE ( 'creator' ) ;
#289 = DIRECTION ( 'NONE',  ( 1.000000000000000000, 0.000000000000000000, 0.000000000000000000 ) ) ;
#290 = CYLINDRICAL_SURFACE ( 'NONE', #176, 8.000000000000000000 ) ;
#291 = AXIS2_PLACEMENT_3D ( 'NONE', #282, #105, #307 ) ;
#292 = DIRECTION ( 'NONE',  ( 1.000000000000000000, 0.000000000000000000, 0.000000000000000000 ) ) ;
#293 = ADVANCED_FACE ( 'NONE', ( #134 ), #43, .F. ) ;
#294 = VERTEX_POINT ( 'NONE', #9 ) ;
#295 = VERTEX_POINT ( 'NONE', #331 ) ;
#296 = LOCAL_TIME ( 17, 4, 59.00000000000000000, #118 ) ;
#297 = EDGE_CURVE ( 'NONE', #325, #380, #59, .T. ) ;
#298 = CARTESIAN_POINT ( 'NONE',  ( -8.000000000000000000, 0.000000000000000000, 5.000000000000000000 ) ) ;
#299 = EDGE_CURVE ( 'NONE', #325, #152, #68, .T. ) ;
#300 = VERTEX_POINT ( 'NONE', #255 ) ;
#301 = DIRECTION ( 'NONE',  ( 0.000000000000000000, 0.000000000000000000, -1.000000000000000000 ) ) ;
#302 = AXIS2_PLACEMENT_3D ( 'NONE', #169, #172, #289 ) ;
#303 = LOCAL_TIME ( 17, 4, 59.00000000000000000, #163 ) ;
#304 = DIRECTION ( 'NONE',  ( -0.000000000000000000, -0.000000000000000000, -1.000000000000000000 ) ) ;
#305 = DIRECTION ( 'NONE',  ( -0.000000000000000000, -0.000000000000000000, -1.000000000000000000 ) ) ;
#306 =( LENGTH_UNIT ( ) NAMED_UNIT ( * ) SI_UNIT ( .MILLI., .METRE. ) );
#307 = DIRECTION ( 'NONE',  ( -1.000000000000000000, 1.224646799147351482E-16, 0.000000000000000000 ) ) ;
#308 = AXIS2_PLACEMENT_3D ( 'NONE', #110, #257, #369 ) ;
#309 = APPROVAL_ROLE ( '' ) ;
#310 = APPROVAL_STATUS ( 'not_yet_approved' ) ;
#311 = DIRECTION ( 'NONE',  ( 1.000000000000000000, 0.000000000000000000, 0.000000000000000000 ) ) ;
#312 = PERSON_AND_ORGANIZATION_ROLE ( 'design_owner' ) ;
#313 = MANIFOLD_SOLID_BREP ( 'Odebrat vysunutím3', #341 ) ;
#314 = AXIS2_PLACEMENT_3D ( 'NONE', #366, #223, #361 ) ;
#315 = ORIENTED_EDGE ( 'NONE', *, *, #89, .T. ) ;
#316 = AXIS2_PLACEMENT_3D ( 'NONE', #111, #228, #374 ) ;
#317 = ADVANCED_FACE ( 'NONE', ( #185 ), #104, .T. ) ;
#318 = PRODUCT_DEFINITION_FORMATION_WITH_SPECIFIED_SOURCE ( 'LIBOVOLNÝ', '', #233, .NOT_KNOWN. ) ;
#319 = ORIENTED_EDGE ( 'NONE', *, *, #211, .T. ) ;
#320 = DIRECTION ( 'NONE',  ( 0.000000000000000000, 0.000000000000000000, 1.000000000000000000 ) ) ;
#321 = EDGE_CURVE ( 'NONE', #186, #300, #115, .T. ) ;
#322 = DIRECTION ( 'NONE',  ( 0.000000000000000000, 0.000000000000000000, 1.000000000000000000 ) ) ;
#323 = DIRECTION ( 'NONE',  ( 1.000000000000000000, 0.000000000000000000, 0.000000000000000000 ) ) ;
#324 = APPROVAL ( #194, 'NEURÈENÝ' ) ;
#325 = VERTEX_POINT ( 'NONE', #298 ) ;
#326 = ORIENTED_EDGE ( 'NONE', *, *, #5, .F. ) ;
#327 = ADVANCED_FACE ( 'NONE', ( #45 ), #279, .F. ) ;
#328 = AXIS2_PLACEMENT_3D ( 'NONE', #49, #250, #165 ) ;
#329 = ORIENTED_EDGE ( 'NONE', *, *, #364, .T. ) ;
#330 = EDGE_CURVE ( 'NONE', #154, #8, #365, .T. ) ;
#331 = CARTESIAN_POINT ( 'NONE',  ( -5.500000000000000000, 6.735557395310442023E-16, 5.000000000000002665 ) ) ;
#332 = ORIENTED_EDGE ( 'NONE', *, *, #364, .F. ) ;
#333 = CARTESIAN_POINT ( 'NONE',  ( 0.000000000000000000, 0.000000000000000000, 255.0000000000000000 ) ) ;
#334 = VECTOR ( 'NONE', #160, 1000.000000000000000 ) ;
#335 = CARTESIAN_POINT ( 'NONE',  ( 0.000000000000000000, 0.000000000000000000, 255.0000000000000000 ) ) ;
#336 = DIRECTION ( 'NONE',  ( 1.000000000000000000, 0.000000000000000000, 0.000000000000000000 ) ) ;
#337 = PERSON_AND_ORGANIZATION_ROLE ( 'creator' ) ;
#338 = CARTESIAN_POINT ( 'NONE',  ( 0.000000000000000000, 0.000000000000000000, 5.000000000000000000 ) ) ;
#339 = EDGE_CURVE ( 'NONE', #41, #186, #127, .T. ) ;
#340 = CALENDAR_DATE ( 2022, 8, 7 ) ;
#341 = CLOSED_SHELL ( 'NONE', ( #293, #128, #7, #270, #252, #131, #209, #317, #98, #219, #327 ) ) ;
#342 = APPROVAL_PERSON_ORGANIZATION ( #196, #96, #139 ) ;
#343 = COORDINATED_UNIVERSAL_TIME_OFFSET ( 1, 0, .AHEAD. ) ;
#344 = CARTESIAN_POINT ( 'NONE',  ( 5.000000000000000000, 6.123233995736766282E-16, 255.0000000000000000 ) ) ;
#345 = PERSON_AND_ORGANIZATION ( #243, #34 ) ;
#346 = ADVANCED_BREP_SHAPE_REPRESENTATION ( 'afe1', ( #313, #316 ), #16 ) ;
#347 = APPROVAL_STATUS ( 'not_yet_approved' ) ;
#348 = CARTESIAN_POINT ( 'NONE',  ( 2.750000000000000000, 3.367778697655221012E-16, 255.0000000000000000 ) ) ;
#349 = CIRCLE ( 'NONE', #151, 5.000000000000000000 ) ;
#350 = EDGE_LOOP ( 'NONE', ( #67, #32 ) ) ;
#351 = CC_DESIGN_APPROVAL ( #324, ( #133 ) ) ;
#352 = CARTESIAN_POINT ( 'NONE',  ( 0.000000000000000000, 0.000000000000000000, 0.000000000000000000 ) ) ;
#353 = CYLINDRICAL_SURFACE ( 'NONE', #27, 8.000000000000000000 ) ;
#354 = CC_DESIGN_PERSON_AND_ORGANIZATION_ASSIGNMENT ( #225, #312, ( #233 ) ) ;
#355 = CARTESIAN_POINT ( 'NONE',  ( 5.500000000000000000, 0.000000000000000000, 5.000000000000002665 ) ) ;
#356 = EDGE_LOOP ( 'NONE', ( #124, #329, #24, #274 ) ) ;
#357 = SHAPE_DEFINITION_REPRESENTATION ( #182, #346 ) ;
#358 = ORIENTED_EDGE ( 'NONE', *, *, #297, .F. ) ;
#359 = ORIENTED_EDGE ( 'NONE', *, *, #40, .F. ) ;
#360 = CIRCLE ( 'NONE', #132, 2.750000000000000000 ) ;
#361 = DIRECTION ( 'NONE',  ( -1.000000000000000000, 0.000000000000000000, 0.000000000000000000 ) ) ;
#362 = EDGE_CURVE ( 'NONE', #113, #41, #349, .T. ) ;
#363 = DIRECTION ( 'NONE',  ( -1.000000000000000000, 0.000000000000000000, 0.000000000000000000 ) ) ;
#364 = EDGE_CURVE ( 'NONE', #154, #294, #70, .T. ) ;
#365 = CIRCLE ( 'NONE', #214, 2.750000000000000000 ) ;
#366 = CARTESIAN_POINT ( 'NONE',  ( 0.000000000000000000, 0.000000000000000000, 255.0000000000000000 ) ) ;
#367 = CARTESIAN_POINT ( 'NONE',  ( 0.000000000000000000, 0.000000000000000000, 255.0000000000000000 ) ) ;
#368 = PERSON_AND_ORGANIZATION ( #243, #34 ) ;
#369 = DIRECTION ( 'NONE',  ( 1.000000000000000000, 0.000000000000000000, 0.000000000000000000 ) ) ;
#370 = CC_DESIGN_PERSON_AND_ORGANIZATION_ASSIGNMENT ( #231, #288, ( #183 ) ) ;
#371 = APPLICATION_PROTOCOL_DEFINITION ( 'international standard', 'config_control_design', 1994, #86 ) ;
#372 = VECTOR ( 'NONE', #218, 1000.000000000000000 ) ;
#373 = DIRECTION ( 'NONE',  ( 1.000000000000000000, 0.000000000000000000, 0.000000000000000000 ) ) ;
#374 = DIRECTION ( 'NONE',  ( 1.000000000000000000, 0.000000000000000000, 0.000000000000000000 ) ) ;
#375 = LINE ( 'NONE', #174, #241 ) ;
#376 = SECURITY_CLASSIFICATION_LEVEL ( 'unclassified' ) ;
#377 = ORIENTED_EDGE ( 'NONE', *, *, #89, .F. ) ;
#378 = DIRECTION ( 'NONE',  ( -0.000000000000000000, -0.000000000000000000, -1.000000000000000000 ) ) ;
#379 = AXIS2_PLACEMENT_3D ( 'NONE', #107, #14, #50 ) ;
#380 = VERTEX_POINT ( 'NONE', #158 ) ;
#381 = LOCAL_TIME ( 17, 4, 59.00000000000000000, #199 ) ;
ENDSEC;
END-ISO-10303-21;
