ISO-10303-21;
HEADER;
FILE_DESCRIPTION (( 'STEP AP203' ),
    '1' );
FILE_NAME ('a059.STEP',
    '2022-07-08T14:22:20',
    ( '' ),
    ( '' ),
    'SwSTEP 2.0',
    'SolidWorks 2019',
    '' );
FILE_SCHEMA (( 'CONFIG_CONTROL_DESIGN' ));
ENDSEC;

DATA;
#1 = PERSON_AND_ORGANIZATION ( #36, #65 ) ;
#2 = AXIS2_PLACEMENT_3D ( 'NONE', #247, #221, #101 ) ;
#3 = APPROVAL_PERSON_ORGANIZATION ( #252, #187, #301 ) ;
#4 = DIRECTION ( 'NONE',  ( 0.000000000000000000, -1.000000000000000000, 0.000000000000000000 ) ) ;
#5 = DIRECTION ( 'NONE',  ( 0.000000000000000000, 0.000000000000000000, 1.000000000000000000 ) ) ;
#6 = CYLINDRICAL_SURFACE ( 'NONE', #98, 5.000000000000000000 ) ;
#7 = PERSON_AND_ORGANIZATION ( #36, #65 ) ;
#8 = ADVANCED_FACE ( 'NONE', ( #359 ), #292, .T. ) ;
#9 = PERSON_AND_ORGANIZATION ( #36, #65 ) ;
#10 = FACE_OUTER_BOUND ( 'NONE', #155, .T. ) ;
#11 = CARTESIAN_POINT ( 'NONE',  ( 0.000000000000000000, 0.000000000000000000, 7.000000000000000000 ) ) ;
#12 = AXIS2_PLACEMENT_3D ( 'NONE', #82, #77, #276 ) ;
#13 = DIRECTION ( 'NONE',  ( 0.000000000000000000, 0.000000000000000000, 1.000000000000000000 ) ) ;
#14 = DIRECTION ( 'NONE',  ( -1.000000000000000000, 0.000000000000000000, 0.000000000000000000 ) ) ;
#15 = VERTEX_POINT ( 'NONE', #202 ) ;
#16 = ORIENTED_EDGE ( 'NONE', *, *, #108, .F. ) ;
#17 = APPROVAL_ROLE ( '' ) ;
#18 = AXIS2_PLACEMENT_3D ( 'NONE', #210, #360, #121 ) ;
#19 = CARTESIAN_POINT ( 'NONE',  ( 0.000000000000000000, 0.000000000000000000, 507.0000000000000000 ) ) ;
#20 = LINE ( 'NONE', #113, #330 ) ;
#21 = ORIENTED_EDGE ( 'NONE', *, *, #344, .T. ) ;
#22 = UNCERTAINTY_MEASURE_WITH_UNIT (LENGTH_MEASURE( 1.000000000000000082E-05 ), #174, 'distance_accuracy_value', 'NONE');
#23 = ADVANCED_FACE ( 'NONE', ( #122, #142 ), #265, .T. ) ;
#24 = CARTESIAN_POINT ( 'NONE',  ( -11.00000000000000000, 0.000000000000000000, 7.000000000000000000 ) ) ;
#25 = ORIENTED_EDGE ( 'NONE', *, *, #242, .T. ) ;
#26 = CIRCLE ( 'NONE', #73, 5.000000000000000000 ) ;
#27 = ORIENTED_EDGE ( 'NONE', *, *, #342, .T. ) ;
#28 = ADVANCED_FACE ( 'NONE', ( #294, #147 ), #327, .F. ) ;
#29 = EDGE_CURVE ( 'NONE', #197, #81, #35, .T. ) ;
#30 = CARTESIAN_POINT ( 'NONE',  ( 0.000000000000000000, 0.000000000000000000, 0.000000000000000000 ) ) ;
#31 = DIRECTION ( 'NONE',  ( -1.000000000000000000, 0.000000000000000000, 0.000000000000000000 ) ) ;
#32 = AXIS2_PLACEMENT_3D ( 'NONE', #196, #313, #44 ) ;
#33 = CARTESIAN_POINT ( 'NONE',  ( 0.000000000000000000, 0.000000000000000000, 0.000000000000000000 ) ) ;
#34 = CARTESIAN_POINT ( 'NONE',  ( 0.000000000000000000, 0.000000000000000000, 7.000000000000000000 ) ) ;
#35 = LINE ( 'NONE', #57, #325 ) ;
#36 = PERSON ( 'NEURÈENÝ', 'NEURÈENÝ', 'NEURÈENÝ', ('NEURÈENÝ'), ('NEURÈENÝ'), ('NEURÈENÝ') ) ;
#37 = DIRECTION ( 'NONE',  ( 0.000000000000000000, 0.000000000000000000, 1.000000000000000000 ) ) ;
#38 = APPROVAL_DATE_TIME ( #104, #298 ) ;
#39 = AXIS2_PLACEMENT_3D ( 'NONE', #151, #87, #358 ) ;
#40 = ORIENTED_EDGE ( 'NONE', *, *, #271, .F. ) ;
#41 = EDGE_LOOP ( 'NONE', ( #116, #70 ) ) ;
#42 = PERSON_AND_ORGANIZATION_ROLE ( 'design_supplier' ) ;
#43 = CIRCLE ( 'NONE', #212, 11.00000000000000000 ) ;
#44 = DIRECTION ( 'NONE',  ( 1.000000000000000000, 0.000000000000000000, 0.000000000000000000 ) ) ;
#45 = VERTEX_POINT ( 'NONE', #54 ) ;
#46 = DIRECTION ( 'NONE',  ( 1.000000000000000000, 0.000000000000000000, 0.000000000000000000 ) ) ;
#47 = ORIENTED_EDGE ( 'NONE', *, *, #342, .F. ) ;
#48 = DIRECTION ( 'NONE',  ( 1.000000000000000000, 0.000000000000000000, 0.000000000000000000 ) ) ;
#49 = ORIENTED_EDGE ( 'NONE', *, *, #281, .F. ) ;
#50 = DIRECTION ( 'NONE',  ( 0.000000000000000000, 0.000000000000000000, 1.000000000000000000 ) ) ;
#51 =( GEOMETRIC_REPRESENTATION_CONTEXT ( 3 ) GLOBAL_UNCERTAINTY_ASSIGNED_CONTEXT ( ( #22 ) ) GLOBAL_UNIT_ASSIGNED_CONTEXT ( ( #174, #205, #356 ) ) REPRESENTATION_CONTEXT ( 'NONE', 'WORKASPACE' ) );
#52 = DIRECTION ( 'NONE',  ( -0.000000000000000000, -0.000000000000000000, -1.000000000000000000 ) ) ;
#53 = FACE_OUTER_BOUND ( 'NONE', #348, .T. ) ;
#54 = CARTESIAN_POINT ( 'NONE',  ( -5.000000000000000000, 0.000000000000000000, 507.0000000000000000 ) ) ;
#55 = ORIENTED_EDGE ( 'NONE', *, *, #239, .T. ) ;
#56 = DIRECTION ( 'NONE',  ( 1.000000000000000000, 0.000000000000000000, 0.000000000000000000 ) ) ;
#57 = CARTESIAN_POINT ( 'NONE',  ( 5.000000000000000000, 6.123233995736766282E-16, 507.0000000000000000 ) ) ;
#58 = AXIS2_PLACEMENT_3D ( 'NONE', #324, #52, #173 ) ;
#59 = CARTESIAN_POINT ( 'NONE',  ( 11.00000000000000000, 1.347111479062088405E-15, 7.000000000000000000 ) ) ;
#60 = PRODUCT ( 'a059', 'a059', '', ( #381 ) ) ;
#61 = PERSON_AND_ORGANIZATION_ROLE ( 'creator' ) ;
#62 = APPROVAL_STATUS ( 'not_yet_approved' ) ;
#63 = CARTESIAN_POINT ( 'NONE',  ( -7.000000000000000888, 0.000000000000000000, 7.699999999999985079 ) ) ;
#64 = AXIS2_PLACEMENT_3D ( 'NONE', #156, #125, #306 ) ;
#65 = ORGANIZATION ( 'NEURÈENÝ', 'NEURÈENÝ', '' ) ;
#66 = DATE_AND_TIME ( #375, #146 ) ;
#67 = MANIFOLD_SOLID_BREP ( 'Odebrat vysunutím3', #246 ) ;
#68 = DIRECTION ( 'NONE',  ( 1.000000000000000000, 0.000000000000000000, 0.000000000000000000 ) ) ;
#69 = APPLICATION_CONTEXT ( 'configuration controlled 3d designs of mechanical parts and assemblies' ) ;
#70 = ORIENTED_EDGE ( 'NONE', *, *, #285, .T. ) ;
#71 = DESIGN_CONTEXT ( 'detailed design', #69, 'design' ) ;
#72 = VERTEX_POINT ( 'NONE', #290 ) ;
#73 = AXIS2_PLACEMENT_3D ( 'NONE', #248, #180, #303 ) ;
#74 = EDGE_CURVE ( 'NONE', #371, #90, #203, .T. ) ;
#75 = CARTESIAN_POINT ( 'NONE',  ( 0.000000000000000000, 0.000000000000000000, 0.000000000000000000 ) ) ;
#76 = EDGE_LOOP ( 'NONE', ( #379, #374, #232, #235 ) ) ;
#77 = DIRECTION ( 'NONE',  ( -0.000000000000000000, -0.000000000000000000, -1.000000000000000000 ) ) ;
#78 = ORIENTED_EDGE ( 'NONE', *, *, #136, .F. ) ;
#79 = ADVANCED_FACE ( 'NONE', ( #266 ), #6, .F. ) ;
#80 = VECTOR ( 'NONE', #283, 1000.000000000000000 ) ;
#81 = VERTEX_POINT ( 'NONE', #120 ) ;
#82 = CARTESIAN_POINT ( 'NONE',  ( 0.000000000000000000, 0.000000000000000000, 507.0000000000000000 ) ) ;
#83 = ORIENTED_EDGE ( 'NONE', *, *, #242, .F. ) ;
#84 = ORIENTED_EDGE ( 'NONE', *, *, #107, .F. ) ;
#85 = AXIS2_PLACEMENT_3D ( 'NONE', #370, #326, #115 ) ;
#86 = LOCAL_TIME ( 16, 22, 20.00000000000000000, #195 ) ;
#87 = DIRECTION ( 'NONE',  ( 0.000000000000000000, 0.000000000000000000, 1.000000000000000000 ) ) ;
#88 = ORIENTED_EDGE ( 'NONE', *, *, #220, .F. ) ;
#89 = DIRECTION ( 'NONE',  ( 0.000000000000000000, 0.000000000000000000, -1.000000000000000000 ) ) ;
#90 = VERTEX_POINT ( 'NONE', #59 ) ;
#91 = CARTESIAN_POINT ( 'NONE',  ( 0.000000000000000000, 0.000000000000000000, 0.000000000000000000 ) ) ;
#92 = CIRCLE ( 'NONE', #279, 7.700000000000001066 ) ;
#93 = CARTESIAN_POINT ( 'NONE',  ( 0.000000000000000000, 0.000000000000000000, 0.000000000000000000 ) ) ;
#94 = EDGE_CURVE ( 'NONE', #351, #194, #198, .T. ) ;
#95 = COORDINATED_UNIVERSAL_TIME_OFFSET ( 1, 0, .AHEAD. ) ;
#96 = CARTESIAN_POINT ( 'NONE',  ( -7.700000000000001066, 9.429780353434621002E-16, 6.999999999999992006 ) ) ;
#97 = APPLICATION_CONTEXT ( 'configuration controlled 3d designs of mechanical parts and assemblies' ) ;
#98 = AXIS2_PLACEMENT_3D ( 'NONE', #241, #361, #143 ) ;
#99 = LINE ( 'NONE', #299, #314 ) ;
#100 = ORIENTED_EDGE ( 'NONE', *, *, #213, .T. ) ;
#101 = DIRECTION ( 'NONE',  ( -1.000000000000000000, 0.000000000000000000, 0.000000000000000000 ) ) ;
#102 = ORIENTED_EDGE ( 'NONE', *, *, #281, .T. ) ;
#103 = AXIS2_PLACEMENT_3D ( 'NONE', #91, #5, #211 ) ;
#104 = DATE_AND_TIME ( #268, #264 ) ;
#105 = AXIS2_PLACEMENT_3D ( 'NONE', #30, #50, #295 ) ;
#106 = ORIENTED_EDGE ( 'NONE', *, *, #329, .T. ) ;
#107 = EDGE_CURVE ( 'NONE', #254, #224, #233, .T. ) ;
#108 = EDGE_CURVE ( 'NONE', #81, #72, #26, .T. ) ;
#109 = DIRECTION ( 'NONE',  ( 1.000000000000000000, 0.000000000000000000, 0.000000000000000000 ) ) ;
#110 = EDGE_LOOP ( 'NONE', ( #369, #380, #25, #114 ) ) ;
#111 = DIRECTION ( 'NONE',  ( 0.000000000000000000, 0.000000000000000000, 1.000000000000000000 ) ) ;
#112 = AXIS2_PLACEMENT_3D ( 'NONE', #286, #310, #48 ) ;
#113 = CARTESIAN_POINT ( 'NONE',  ( 7.000000000000000888, 8.572527594031474176E-16, 507.0000000000000000 ) ) ;
#114 = ORIENTED_EDGE ( 'NONE', *, *, #329, .F. ) ;
#115 = DIRECTION ( 'NONE',  ( 1.000000000000000000, 0.000000000000000000, 0.000000000000000000 ) ) ;
#116 = ORIENTED_EDGE ( 'NONE', *, *, #94, .T. ) ;
#117 = ORIENTED_EDGE ( 'NONE', *, *, #368, .F. ) ;
#118 = AXIS2_PLACEMENT_3D ( 'NONE', #354, #4, #89 ) ;
#119 = CC_DESIGN_SECURITY_CLASSIFICATION ( #204, ( #251 ) ) ;
#120 = CARTESIAN_POINT ( 'NONE',  ( 5.000000000000000000, 6.123233995736766282E-16, 0.000000000000000000 ) ) ;
#121 = DIRECTION ( 'NONE',  ( 1.000000000000000000, 0.000000000000000000, 0.000000000000000000 ) ) ;
#122 = FACE_BOUND ( 'NONE', #192, .T. ) ;
#123 = AXIS2_PLACEMENT_3D ( 'NONE', #93, #183, #68 ) ;
#124 = DIRECTION ( 'NONE',  ( 1.000000000000000000, 0.000000000000000000, -0.000000000000000000 ) ) ;
#125 = DIRECTION ( 'NONE',  ( 0.000000000000000000, 0.000000000000000000, 1.000000000000000000 ) ) ;
#126 = CYLINDRICAL_SURFACE ( 'NONE', #2, 11.00000000000000000 ) ;
#127 = LINE ( 'NONE', #253, #372 ) ;
#128 = ORIENTED_EDGE ( 'NONE', *, *, #29, .T. ) ;
#129 = AXIS2_PLACEMENT_3D ( 'NONE', #75, #111, #345 ) ;
#130 = PERSON_AND_ORGANIZATION ( #36, #65 ) ;
#131 = ADVANCED_FACE ( 'NONE', ( #244, #10 ), #215, .T. ) ;
#132 = FACE_OUTER_BOUND ( 'NONE', #76, .T. ) ;
#133 = ORIENTED_EDGE ( 'NONE', *, *, #285, .F. ) ;
#134 = ADVANCED_FACE ( 'NONE', ( #217 ), #219, .F. ) ;
#135 = EDGE_LOOP ( 'NONE', ( #21, #341 ) ) ;
#136 = EDGE_CURVE ( 'NONE', #224, #201, #99, .T. ) ;
#137 = EDGE_LOOP ( 'NONE', ( #163, #167, #106, #280 ) ) ;
#138 = AXIS2_PLACEMENT_3D ( 'NONE', #323, #148, #141 ) ;
#139 = CARTESIAN_POINT ( 'NONE',  ( -7.000000000000000888, 0.000000000000000000, 507.0000000000000000 ) ) ;
#140 = ORIENTED_EDGE ( 'NONE', *, *, #320, .T. ) ;
#141 = DIRECTION ( 'NONE',  ( -1.000000000000000000, 1.224646799147351975E-16, 0.000000000000000000 ) ) ;
#142 = FACE_OUTER_BOUND ( 'NONE', #135, .T. ) ;
#143 = DIRECTION ( 'NONE',  ( -1.000000000000000000, 0.000000000000000000, 0.000000000000000000 ) ) ;
#144 = CARTESIAN_POINT ( 'NONE',  ( 7.700000000000001066, 0.000000000000000000, 6.999999999999992006 ) ) ;
#145 = CIRCLE ( 'NONE', #293, 5.000000000000000000 ) ;
#146 = LOCAL_TIME ( 16, 22, 20.00000000000000000, #95 ) ;
#147 = FACE_OUTER_BOUND ( 'NONE', #190, .T. ) ;
#148 = DIRECTION ( 'NONE',  ( 1.224646799147353207E-16, 1.000000000000000000, -0.000000000000000000 ) ) ;
#149 = DIRECTION ( 'NONE',  ( 1.000000000000000000, 0.000000000000000000, 0.000000000000000000 ) ) ;
#150 = DATE_AND_TIME ( #312, #86 ) ;
#151 = CARTESIAN_POINT ( 'NONE',  ( 0.000000000000000000, 0.000000000000000000, 507.0000000000000000 ) ) ;
#152 = PERSON_AND_ORGANIZATION ( #36, #65 ) ;
#153 = AXIS2_PLACEMENT_3D ( 'NONE', #230, #234, #171 ) ;
#154 = CC_DESIGN_PERSON_AND_ORGANIZATION_ASSIGNMENT ( #130, #343, ( #204 ) ) ;
#155 = EDGE_LOOP ( 'NONE', ( #321, #140 ) ) ;
#156 = CARTESIAN_POINT ( 'NONE',  ( 0.000000000000000000, 0.000000000000000000, 7.699999999999985079 ) ) ;
#157 = APPROVAL_DATE_TIME ( #66, #187 ) ;
#158 = ORIENTED_EDGE ( 'NONE', *, *, #206, .T. ) ;
#159 = CYLINDRICAL_SURFACE ( 'NONE', #175, 7.000000000000000888 ) ;
#160 = AXIS2_PLACEMENT_3D ( 'NONE', #273, #13, #269 ) ;
#161 = CC_DESIGN_APPROVAL ( #298, ( #261 ) ) ;
#162 = DIRECTION ( 'NONE',  ( 0.000000000000000000, 0.000000000000000000, 1.000000000000000000 ) ) ;
#163 = ORIENTED_EDGE ( 'NONE', *, *, #282, .F. ) ;
#164 = CYLINDRICAL_SURFACE ( 'NONE', #12, 7.000000000000000888 ) ;
#165 = CC_DESIGN_DATE_AND_TIME_ASSIGNMENT ( #297, #270, ( #261 ) ) ;
#166 = EDGE_LOOP ( 'NONE', ( #229, #100, #353, #158 ) ) ;
#167 = ORIENTED_EDGE ( 'NONE', *, *, #74, .F. ) ;
#168 = AXIS2_PLACEMENT_3D ( 'NONE', #34, #177, #149 ) ;
#169 = LINE ( 'NONE', #24, #80 ) ;
#170 = FACE_OUTER_BOUND ( 'NONE', #258, .T. ) ;
#171 = DIRECTION ( 'NONE',  ( 1.000000000000000000, 0.000000000000000000, 0.000000000000000000 ) ) ;
#172 = ORIENTED_EDGE ( 'NONE', *, *, #344, .F. ) ;
#173 = DIRECTION ( 'NONE',  ( 1.000000000000000000, 0.000000000000000000, 0.000000000000000000 ) ) ;
#174 =( LENGTH_UNIT ( ) NAMED_UNIT ( * ) SI_UNIT ( .MILLI., .METRE. ) );
#175 = AXIS2_PLACEMENT_3D ( 'NONE', #186, #302, #304 ) ;
#176 = CC_DESIGN_APPROVAL ( #245, ( #251 ) ) ;
#177 = DIRECTION ( 'NONE',  ( 0.000000000000000000, 0.000000000000000000, 1.000000000000000000 ) ) ;
#178 = PERSON_AND_ORGANIZATION ( #36, #65 ) ;
#179 = ADVANCED_FACE ( 'NONE', ( #366 ), #126, .T. ) ;
#180 = DIRECTION ( 'NONE',  ( -0.000000000000000000, -0.000000000000000000, -1.000000000000000000 ) ) ;
#181 = APPROVAL_DATE_TIME ( #150, #245 ) ;
#182 = CIRCLE ( 'NONE', #378, 5.000000000000000000 ) ;
#183 = DIRECTION ( 'NONE',  ( -0.000000000000000000, -0.000000000000000000, -1.000000000000000000 ) ) ;
#184 = COORDINATED_UNIVERSAL_TIME_OFFSET ( 1, 0, .AHEAD. ) ;
#185 = CARTESIAN_POINT ( 'NONE',  ( 0.000000000000000000, 0.000000000000000000, 507.0000000000000000 ) ) ;
#186 = CARTESIAN_POINT ( 'NONE',  ( 0.000000000000000000, 0.000000000000000000, 507.0000000000000000 ) ) ;
#187 = APPROVAL ( #62, 'NEURÈENÝ' ) ;
#188 = DIRECTION ( 'NONE',  ( 1.000000000000000000, 0.000000000000000000, 0.000000000000000000 ) ) ;
#189 = AXIS2_PLACEMENT_3D ( 'NONE', #185, #275, #14 ) ;
#190 = EDGE_LOOP ( 'NONE', ( #287, #83 ) ) ;
#191 = CARTESIAN_POINT ( 'NONE',  ( 7.000000000000000888, 8.572527594031474176E-16, 507.0000000000000000 ) ) ;
#192 = EDGE_LOOP ( 'NONE', ( #49, #311 ) ) ;
#193 = APPROVAL_STATUS ( 'not_yet_approved' ) ;
#194 = VERTEX_POINT ( 'NONE', #96 ) ;
#195 = COORDINATED_UNIVERSAL_TIME_OFFSET ( 1, 0, .AHEAD. ) ;
#196 = CARTESIAN_POINT ( 'NONE',  ( 0.000000000000000000, 0.000000000000000000, 7.699999999999985079 ) ) ;
#197 = VERTEX_POINT ( 'NONE', #339 ) ;
#198 = CIRCLE ( 'NONE', #58, 7.700000000000001066 ) ;
#199 = DIRECTION ( 'NONE',  ( 0.000000000000000000, 0.000000000000000000, 1.000000000000000000 ) ) ;
#200 = DIRECTION ( 'NONE',  ( -0.000000000000000000, -0.000000000000000000, -1.000000000000000000 ) ) ;
#201 = VERTEX_POINT ( 'NONE', #63 ) ;
#202 = CARTESIAN_POINT ( 'NONE',  ( -11.00000000000000000, 0.000000000000000000, 0.000000000000000000 ) ) ;
#203 = CIRCLE ( 'NONE', #168, 11.00000000000000000 ) ;
#204 = SECURITY_CLASSIFICATION ( '', '', #218 ) ;
#205 =( NAMED_UNIT ( * ) PLANE_ANGLE_UNIT ( ) SI_UNIT ( $, .RADIAN. ) );
#206 = EDGE_CURVE ( 'NONE', #72, #81, #288, .T. ) ;
#207 = CARTESIAN_POINT ( 'NONE',  ( 0.000000000000000000, 0.000000000000000000, 7.000000000000000000 ) ) ;
#208 = DIRECTION ( 'NONE',  ( 0.000000000000000000, 0.000000000000000000, 1.000000000000000000 ) ) ;
#209 = ADVANCED_FACE ( 'NONE', ( #332 ), #159, .T. ) ;
#210 = CARTESIAN_POINT ( 'NONE',  ( 0.000000000000000000, 0.000000000000000000, 7.699999999999985079 ) ) ;
#211 = DIRECTION ( 'NONE',  ( 1.000000000000000000, 0.000000000000000000, -0.000000000000000000 ) ) ;
#212 = AXIS2_PLACEMENT_3D ( 'NONE', #33, #208, #56 ) ;
#213 = EDGE_CURVE ( 'NONE', #197, #45, #182, .T. ) ;
#214 = COORDINATED_UNIVERSAL_TIME_OFFSET ( 1, 0, .AHEAD. ) ;
#215 = PLANE ( 'NONE',  #226 ) ;
#216 = CALENDAR_DATE ( 2022, 8, 7 ) ;
#217 = FACE_OUTER_BOUND ( 'NONE', #260, .T. ) ;
#218 = SECURITY_CLASSIFICATION_LEVEL ( 'unclassified' ) ;
#219 = CYLINDRICAL_SURFACE ( 'NONE', #189, 5.000000000000000000 ) ;
#220 = EDGE_CURVE ( 'NONE', #331, #201, #238, .T. ) ;
#221 = DIRECTION ( 'NONE',  ( -0.000000000000000000, -0.000000000000000000, -1.000000000000000000 ) ) ;
#222 = ORIENTED_EDGE ( 'NONE', *, *, #136, .T. ) ;
#223 = CARTESIAN_POINT ( 'NONE',  ( 0.000000000000000000, 0.000000000000000000, 507.0000000000000000 ) ) ;
#224 = VERTEX_POINT ( 'NONE', #139 ) ;
#225 = CC_DESIGN_PERSON_AND_ORGANIZATION_ASSIGNMENT ( #1, #328, ( #60 ) ) ;
#226 = AXIS2_PLACEMENT_3D ( 'NONE', #11, #162, #124 ) ;
#227 = APPROVAL_STATUS ( 'not_yet_approved' ) ;
#228 = CC_DESIGN_PERSON_AND_ORGANIZATION_ASSIGNMENT ( #178, #42, ( #251 ) ) ;
#229 = ORIENTED_EDGE ( 'NONE', *, *, #29, .F. ) ;
#230 = CARTESIAN_POINT ( 'NONE',  ( 0.000000000000000000, 0.000000000000000000, 7.699999999999985079 ) ) ;
#231 = ORIENTED_EDGE ( 'NONE', *, *, #206, .F. ) ;
#232 = ORIENTED_EDGE ( 'NONE', *, *, #94, .F. ) ;
#233 = CIRCLE ( 'NONE', #160, 7.000000000000000888 ) ;
#234 = DIRECTION ( 'NONE',  ( 0.000000000000000000, 0.000000000000000000, 1.000000000000000000 ) ) ;
#235 = ORIENTED_EDGE ( 'NONE', *, *, #347, .F. ) ;
#236 = CC_DESIGN_PERSON_AND_ORGANIZATION_ASSIGNMENT ( #9, #365, ( #261 ) ) ;
#237 = APPLICATION_PROTOCOL_DEFINITION ( 'international standard', 'config_control_design', 1994, #97 ) ;
#238 = CIRCLE ( 'NONE', #64, 7.000000000000000888 ) ;
#239 = EDGE_CURVE ( 'NONE', #201, #331, #267, .T. ) ;
#240 = DIRECTION ( 'NONE',  ( 0.000000000000000000, 0.000000000000000000, -1.000000000000000000 ) ) ;
#241 = CARTESIAN_POINT ( 'NONE',  ( 0.000000000000000000, 0.000000000000000000, 507.0000000000000000 ) ) ;
#242 = EDGE_CURVE ( 'NONE', #319, #15, #274, .T. ) ;
#243 = AXIS2_PLACEMENT_3D ( 'NONE', #207, #263, #31 ) ;
#244 = FACE_BOUND ( 'NONE', #41, .T. ) ;
#245 = APPROVAL ( #227, 'NEURÈENÝ' ) ;
#246 = CLOSED_SHELL ( 'NONE', ( #134, #322, #209, #179, #8, #131, #28, #317, #23, #357, #79 ) ) ;
#247 = CARTESIAN_POINT ( 'NONE',  ( 0.000000000000000000, 0.000000000000000000, 7.000000000000000000 ) ) ;
#248 = CARTESIAN_POINT ( 'NONE',  ( 0.000000000000000000, 0.000000000000000000, 0.000000000000000000 ) ) ;
#249 = APPROVAL_ROLE ( '' ) ;
#250 = CIRCLE ( 'NONE', #85, 7.000000000000000888 ) ;
#251 = PRODUCT_DEFINITION_FORMATION_WITH_SPECIFIED_SOURCE ( 'LIBOVOLNÝ', '', #60, .NOT_KNOWN. ) ;
#252 = PERSON_AND_ORGANIZATION ( #36, #65 ) ;
#253 = CARTESIAN_POINT ( 'NONE',  ( 11.00000000000000000, 1.347111479062088405E-15, 7.000000000000000000 ) ) ;
#254 = VERTEX_POINT ( 'NONE', #191 ) ;
#255 = LINE ( 'NONE', #349, #350 ) ;
#256 = EDGE_LOOP ( 'NONE', ( #231, #16 ) ) ;
#257 = DIRECTION ( 'NONE',  ( 0.000000000000000000, 0.000000000000000000, -1.000000000000000000 ) ) ;
#258 = EDGE_LOOP ( 'NONE', ( #47, #172, #222, #55 ) ) ;
#259 = CIRCLE ( 'NONE', #138, 0.7000000000000000666 ) ;
#260 = EDGE_LOOP ( 'NONE', ( #102, #128, #296, #40 ) ) ;
#261 = PRODUCT_DEFINITION ( 'NEZNÁMÝ', '', #251, #71 ) ;
#262 = CARTESIAN_POINT ( 'NONE',  ( -11.00000000000000000, 0.000000000000000000, 7.000000000000000000 ) ) ;
#263 = DIRECTION ( 'NONE',  ( -0.000000000000000000, -0.000000000000000000, -1.000000000000000000 ) ) ;
#264 = LOCAL_TIME ( 16, 22, 20.00000000000000000, #184 ) ;
#265 = PLANE ( 'NONE',  #39 ) ;
#266 = FACE_OUTER_BOUND ( 'NONE', #166, .T. ) ;
#267 = CIRCLE ( 'NONE', #153, 7.000000000000000888 ) ;
#268 = CALENDAR_DATE ( 2022, 8, 7 ) ;
#269 = DIRECTION ( 'NONE',  ( 1.000000000000000000, 0.000000000000000000, 0.000000000000000000 ) ) ;
#270 = DATE_TIME_ROLE ( 'creation_date' ) ;
#271 = EDGE_CURVE ( 'NONE', #45, #72, #255, .T. ) ;
#272 = SHAPE_DEFINITION_REPRESENTATION ( #363, #338 ) ;
#273 = CARTESIAN_POINT ( 'NONE',  ( 0.000000000000000000, 0.000000000000000000, 507.0000000000000000 ) ) ;
#274 = CIRCLE ( 'NONE', #129, 11.00000000000000000 ) ;
#275 = DIRECTION ( 'NONE',  ( 0.000000000000000000, 0.000000000000000000, -1.000000000000000000 ) ) ;
#276 = DIRECTION ( 'NONE',  ( -1.000000000000000000, 0.000000000000000000, 0.000000000000000000 ) ) ;
#277 = ORIENTED_EDGE ( 'NONE', *, *, #220, .T. ) ;
#278 = PERSON_AND_ORGANIZATION ( #36, #65 ) ;
#279 = AXIS2_PLACEMENT_3D ( 'NONE', #307, #318, #46 ) ;
#280 = ORIENTED_EDGE ( 'NONE', *, *, #362, .T. ) ;
#281 = EDGE_CURVE ( 'NONE', #45, #197, #145, .T. ) ;
#282 = EDGE_CURVE ( 'NONE', #90, #319, #127, .T. ) ;
#283 = DIRECTION ( 'NONE',  ( -0.000000000000000000, -0.000000000000000000, -1.000000000000000000 ) ) ;
#284 = CARTESIAN_POINT ( 'NONE',  ( 11.00000000000000000, 1.347111479062088405E-15, 0.000000000000000000 ) ) ;
#285 = EDGE_CURVE ( 'NONE', #194, #351, #92, .T. ) ;
#286 = CARTESIAN_POINT ( 'NONE',  ( 0.000000000000000000, 0.000000000000000000, 7.000000000000000000 ) ) ;
#287 = ORIENTED_EDGE ( 'NONE', *, *, #362, .F. ) ;
#288 = CIRCLE ( 'NONE', #123, 5.000000000000000000 ) ;
#289 = CC_DESIGN_APPROVAL ( #187, ( #204 ) ) ;
#290 = CARTESIAN_POINT ( 'NONE',  ( -5.000000000000000000, 0.000000000000000000, 0.000000000000000000 ) ) ;
#291 = APPLICATION_PROTOCOL_DEFINITION ( 'international standard', 'config_control_design', 1994, #69 ) ;
#292 = CYLINDRICAL_SURFACE ( 'NONE', #243, 11.00000000000000000 ) ;
#293 = AXIS2_PLACEMENT_3D ( 'NONE', #19, #199, #109 ) ;
#294 = FACE_BOUND ( 'NONE', #256, .T. ) ;
#295 = DIRECTION ( 'NONE',  ( 1.000000000000000000, 0.000000000000000000, 0.000000000000000000 ) ) ;
#296 = ORIENTED_EDGE ( 'NONE', *, *, #108, .T. ) ;
#297 = DATE_AND_TIME ( #216, #373 ) ;
#298 = APPROVAL ( #193, 'NEURÈENÝ' ) ;
#299 = CARTESIAN_POINT ( 'NONE',  ( -7.000000000000000888, 0.000000000000000000, 507.0000000000000000 ) ) ;
#300 = TOROIDAL_SURFACE ( 'NONE', #18, 7.700000000000001066, 0.6999999999999999556 ) ;
#301 = APPROVAL_ROLE ( '' ) ;
#302 = DIRECTION ( 'NONE',  ( -0.000000000000000000, -0.000000000000000000, -1.000000000000000000 ) ) ;
#303 = DIRECTION ( 'NONE',  ( 1.000000000000000000, 0.000000000000000000, 0.000000000000000000 ) ) ;
#304 = DIRECTION ( 'NONE',  ( -1.000000000000000000, 0.000000000000000000, 0.000000000000000000 ) ) ;
#305 = CIRCLE ( 'NONE', #118, 0.7000000000000000666 ) ;
#306 = DIRECTION ( 'NONE',  ( 1.000000000000000000, 0.000000000000000000, 0.000000000000000000 ) ) ;
#307 = CARTESIAN_POINT ( 'NONE',  ( 0.000000000000000000, 0.000000000000000000, 7.000000000000000000 ) ) ;
#308 = ORIENTED_EDGE ( 'NONE', *, *, #347, .T. ) ;
#309 = DATE_TIME_ROLE ( 'classification_date' ) ;
#310 = DIRECTION ( 'NONE',  ( 0.000000000000000000, 0.000000000000000000, 1.000000000000000000 ) ) ;
#311 = ORIENTED_EDGE ( 'NONE', *, *, #213, .F. ) ;
#312 = CALENDAR_DATE ( 2022, 8, 7 ) ;
#313 = DIRECTION ( 'NONE',  ( 0.000000000000000000, 0.000000000000000000, 1.000000000000000000 ) ) ;
#314 = VECTOR ( 'NONE', #335, 1000.000000000000000 ) ;
#315 = EDGE_LOOP ( 'NONE', ( #84, #27, #277, #78 ) ) ;
#316 = LOCAL_TIME ( 16, 22, 20.00000000000000000, #214 ) ;
#317 = ADVANCED_FACE ( 'NONE', ( #170 ), #164, .T. ) ;
#318 = DIRECTION ( 'NONE',  ( -0.000000000000000000, -0.000000000000000000, -1.000000000000000000 ) ) ;
#319 = VERTEX_POINT ( 'NONE', #284 ) ;
#320 = EDGE_CURVE ( 'NONE', #90, #371, #367, .T. ) ;
#321 = ORIENTED_EDGE ( 'NONE', *, *, #74, .T. ) ;
#322 = ADVANCED_FACE ( 'NONE', ( #132 ), #355, .F. ) ;
#323 = CARTESIAN_POINT ( 'NONE',  ( -7.700000000000001066, 9.429780353434621002E-16, 7.699999999999985079 ) ) ;
#324 = CARTESIAN_POINT ( 'NONE',  ( 0.000000000000000000, 0.000000000000000000, 7.000000000000000000 ) ) ;
#325 = VECTOR ( 'NONE', #240, 1000.000000000000000 ) ;
#326 = DIRECTION ( 'NONE',  ( 0.000000000000000000, 0.000000000000000000, 1.000000000000000000 ) ) ;
#327 = PLANE ( 'NONE',  #103 ) ;
#328 = PERSON_AND_ORGANIZATION_ROLE ( 'design_owner' ) ;
#329 = EDGE_CURVE ( 'NONE', #371, #15, #169, .T. ) ;
#330 = VECTOR ( 'NONE', #200, 1000.000000000000000 ) ;
#331 = VERTEX_POINT ( 'NONE', #376 ) ;
#332 = FACE_OUTER_BOUND ( 'NONE', #315, .T. ) ;
#333 = CC_DESIGN_PERSON_AND_ORGANIZATION_ASSIGNMENT ( #7, #61, ( #251 ) ) ;
#334 = DATE_AND_TIME ( #336, #316 ) ;
#335 = DIRECTION ( 'NONE',  ( -0.000000000000000000, -0.000000000000000000, -1.000000000000000000 ) ) ;
#336 = CALENDAR_DATE ( 2022, 8, 7 ) ;
#337 = APPROVAL_PERSON_ORGANIZATION ( #152, #298, #249 ) ;
#338 = ADVANCED_BREP_SHAPE_REPRESENTATION ( 'a059', ( #67, #105 ), #51 ) ;
#339 = CARTESIAN_POINT ( 'NONE',  ( 5.000000000000000000, 6.123233995736766282E-16, 507.0000000000000000 ) ) ;
#340 = CC_DESIGN_DATE_AND_TIME_ASSIGNMENT ( #334, #309, ( #204 ) ) ;
#341 = ORIENTED_EDGE ( 'NONE', *, *, #107, .T. ) ;
#342 = EDGE_CURVE ( 'NONE', #254, #331, #20, .T. ) ;
#343 = PERSON_AND_ORGANIZATION_ROLE ( 'classification_officer' ) ;
#344 = EDGE_CURVE ( 'NONE', #224, #254, #250, .T. ) ;
#345 = DIRECTION ( 'NONE',  ( 1.000000000000000000, 0.000000000000000000, 0.000000000000000000 ) ) ;
#346 = DIRECTION ( 'NONE',  ( -0.000000000000000000, -0.000000000000000000, -1.000000000000000000 ) ) ;
#347 = EDGE_CURVE ( 'NONE', #331, #351, #305, .T. ) ;
#348 = EDGE_LOOP ( 'NONE', ( #117, #88, #308, #133 ) ) ;
#349 = CARTESIAN_POINT ( 'NONE',  ( -5.000000000000000000, 0.000000000000000000, 507.0000000000000000 ) ) ;
#350 = VECTOR ( 'NONE', #257, 1000.000000000000000 ) ;
#351 = VERTEX_POINT ( 'NONE', #144 ) ;
#352 = APPROVAL_PERSON_ORGANIZATION ( #278, #245, #17 ) ;
#353 = ORIENTED_EDGE ( 'NONE', *, *, #271, .T. ) ;
#354 = CARTESIAN_POINT ( 'NONE',  ( 7.700000000000001066, 0.000000000000000000, 7.699999999999985079 ) ) ;
#355 = TOROIDAL_SURFACE ( 'NONE', #32, 7.700000000000001066, 0.6999999999999999556 ) ;
#356 =( NAMED_UNIT ( * ) SI_UNIT ( $, .STERADIAN. ) SOLID_ANGLE_UNIT ( ) );
#357 = ADVANCED_FACE ( 'NONE', ( #53 ), #300, .F. ) ;
#358 = DIRECTION ( 'NONE',  ( 1.000000000000000000, 0.000000000000000000, -0.000000000000000000 ) ) ;
#359 = FACE_OUTER_BOUND ( 'NONE', #137, .T. ) ;
#360 = DIRECTION ( 'NONE',  ( 0.000000000000000000, 0.000000000000000000, 1.000000000000000000 ) ) ;
#361 = DIRECTION ( 'NONE',  ( 0.000000000000000000, 0.000000000000000000, -1.000000000000000000 ) ) ;
#362 = EDGE_CURVE ( 'NONE', #15, #319, #43, .T. ) ;
#363 = PRODUCT_DEFINITION_SHAPE ( 'NONE', 'NONE',  #261 ) ;
#364 = COORDINATED_UNIVERSAL_TIME_OFFSET ( 1, 0, .AHEAD. ) ;
#365 = PERSON_AND_ORGANIZATION_ROLE ( 'creator' ) ;
#366 = FACE_OUTER_BOUND ( 'NONE', #110, .T. ) ;
#367 = CIRCLE ( 'NONE', #112, 11.00000000000000000 ) ;
#368 = EDGE_CURVE ( 'NONE', #201, #194, #259, .T. ) ;
#369 = ORIENTED_EDGE ( 'NONE', *, *, #320, .F. ) ;
#370 = CARTESIAN_POINT ( 'NONE',  ( 0.000000000000000000, 0.000000000000000000, 507.0000000000000000 ) ) ;
#371 = VERTEX_POINT ( 'NONE', #262 ) ;
#372 = VECTOR ( 'NONE', #346, 1000.000000000000000 ) ;
#373 = LOCAL_TIME ( 16, 22, 20.00000000000000000, #364 ) ;
#374 = ORIENTED_EDGE ( 'NONE', *, *, #368, .T. ) ;
#375 = CALENDAR_DATE ( 2022, 8, 7 ) ;
#376 = CARTESIAN_POINT ( 'NONE',  ( 7.000000000000000888, 8.572527594031474176E-16, 7.699999999999985079 ) ) ;
#377 = PRODUCT_RELATED_PRODUCT_CATEGORY ( 'detail', '', ( #60 ) ) ;
#378 = AXIS2_PLACEMENT_3D ( 'NONE', #223, #37, #188 ) ;
#379 = ORIENTED_EDGE ( 'NONE', *, *, #239, .F. ) ;
#380 = ORIENTED_EDGE ( 'NONE', *, *, #282, .T. ) ;
#381 = MECHANICAL_CONTEXT ( 'NONE', #97, 'mechanical' ) ;
ENDSEC;
END-ISO-10303-21;
