ISO-10303-21;
HEADER;
FILE_DESCRIPTION (( 'STEP AP203' ),
    '1' );
FILE_NAME ('bbd3.STEP',
    '2022-07-08T15:21:01',
    ( '' ),
    ( '' ),
    'SwSTEP 2.0',
    'SolidWorks 2019',
    '' );
FILE_SCHEMA (( 'CONFIG_CONTROL_DESIGN' ));
ENDSEC;

DATA;
#1 = AXIS2_PLACEMENT_3D ( 'NONE', #338, #81, #363 ) ;
#2 = EDGE_LOOP ( 'NONE', ( #267, #270, #99, #290 ) ) ;
#3 = ORIENTED_EDGE ( 'NONE', *, *, #222, .T. ) ;
#4 = CC_DESIGN_PERSON_AND_ORGANIZATION_ASSIGNMENT ( #153, #94, ( #72 ) ) ;
#5 = ADVANCED_BREP_SHAPE_REPRESENTATION ( 'bbd3', ( #166, #82 ), #55 ) ;
#6 = VERTEX_POINT ( 'NONE', #214 ) ;
#7 = ORIENTED_EDGE ( 'NONE', *, *, #184, .F. ) ;
#8 = ORIENTED_EDGE ( 'NONE', *, *, #222, .F. ) ;
#9 = DIRECTION ( 'NONE',  ( 1.000000000000000000, 0.000000000000000000, 0.000000000000000000 ) ) ;
#10 = CC_DESIGN_PERSON_AND_ORGANIZATION_ASSIGNMENT ( #377, #57, ( #194 ) ) ;
#11 = CARTESIAN_POINT ( 'NONE',  ( 0.000000000000000000, 0.000000000000000000, 5.000000000000000000 ) ) ;
#12 = DIRECTION ( 'NONE',  ( -1.000000000000000000, 0.000000000000000000, 0.000000000000000000 ) ) ;
#13 = AXIS2_PLACEMENT_3D ( 'NONE', #309, #123, #311 ) ;
#14 = DIRECTION ( 'NONE',  ( 0.000000000000000000, 0.000000000000000000, 1.000000000000000000 ) ) ;
#15 = DIRECTION ( 'NONE',  ( 1.000000000000000000, 0.000000000000000000, 0.000000000000000000 ) ) ;
#16 = DIRECTION ( 'NONE',  ( -0.000000000000000000, -0.000000000000000000, -1.000000000000000000 ) ) ;
#17 = CARTESIAN_POINT ( 'NONE',  ( -7.000000000000000000, 0.000000000000000000, 5.000000000000000000 ) ) ;
#18 = CARTESIAN_POINT ( 'NONE',  ( 0.000000000000000000, 0.000000000000000000, 0.000000000000000000 ) ) ;
#19 = DIRECTION ( 'NONE',  ( 1.000000000000000000, 0.000000000000000000, 0.000000000000000000 ) ) ;
#20 = FACE_OUTER_BOUND ( 'NONE', #355, .T. ) ;
#21 = CIRCLE ( 'NONE', #33, 4.000000000000000000 ) ;
#22 = APPLICATION_CONTEXT ( 'configuration controlled 3d designs of mechanical parts and assemblies' ) ;
#23 = DATE_TIME_ROLE ( 'classification_date' ) ;
#24 = ADVANCED_FACE ( 'NONE', ( #65 ), #112, .T. ) ;
#25 = APPROVAL_STATUS ( 'not_yet_approved' ) ;
#26 = CC_DESIGN_PERSON_AND_ORGANIZATION_ASSIGNMENT ( #343, #86, ( #194 ) ) ;
#27 = CARTESIAN_POINT ( 'NONE',  ( 0.000000000000000000, 0.000000000000000000, 130.0000000000000000 ) ) ;
#28 = DIRECTION ( 'NONE',  ( 0.000000000000000000, 0.000000000000000000, 1.000000000000000000 ) ) ;
#29 = DIRECTION ( 'NONE',  ( 1.000000000000000000, 0.000000000000000000, -0.000000000000000000 ) ) ;
#30 = ORIENTED_EDGE ( 'NONE', *, *, #301, .T. ) ;
#31 = ORIENTED_EDGE ( 'NONE', *, *, #280, .F. ) ;
#32 = ORIENTED_EDGE ( 'NONE', *, *, #301, .F. ) ;
#33 = AXIS2_PLACEMENT_3D ( 'NONE', #229, #273, #248 ) ;
#34 = SECURITY_CLASSIFICATION ( '', '', #122 ) ;
#35 = ORGANIZATION ( 'NEURÈENÝ', 'NEURÈENÝ', '' ) ;
#36 = SHAPE_DEFINITION_REPRESENTATION ( #128, #5 ) ;
#37 = EDGE_LOOP ( 'NONE', ( #158, #360, #218, #349 ) ) ;
#38 = APPROVAL ( #259, 'NEURÈENÝ' ) ;
#39 = EDGE_CURVE ( 'NONE', #6, #323, #141, .T. ) ;
#40 = ORIENTED_EDGE ( 'NONE', *, *, #268, .F. ) ;
#41 = AXIS2_PLACEMENT_3D ( 'NONE', #27, #258, #92 ) ;
#42 = CARTESIAN_POINT ( 'NONE',  ( 0.000000000000000000, 0.000000000000000000, 5.000000000000000000 ) ) ;
#43 = CARTESIAN_POINT ( 'NONE',  ( -7.000000000000000000, 0.000000000000000000, 0.000000000000000000 ) ) ;
#44 = ADVANCED_FACE ( 'NONE', ( #138 ), #225, .F. ) ;
#45 = CARTESIAN_POINT ( 'NONE',  ( 2.500000000000000000, 3.061616997868383141E-16, 130.0000000000000000 ) ) ;
#46 = CARTESIAN_POINT ( 'NONE',  ( 0.000000000000000000, 0.000000000000000000, 130.0000000000000000 ) ) ;
#47 = CARTESIAN_POINT ( 'NONE',  ( 2.500000000000000000, 3.061616997868383141E-16, 130.0000000000000000 ) ) ;
#48 = DIRECTION ( 'NONE',  ( -0.000000000000000000, -0.000000000000000000, -1.000000000000000000 ) ) ;
#49 = AXIS2_PLACEMENT_3D ( 'NONE', #299, #223, #118 ) ;
#50 = FACE_OUTER_BOUND ( 'NONE', #66, .T. ) ;
#51 = CARTESIAN_POINT ( 'NONE',  ( 0.000000000000000000, 0.000000000000000000, 0.000000000000000000 ) ) ;
#52 = DIRECTION ( 'NONE',  ( 0.000000000000000000, 0.000000000000000000, 1.000000000000000000 ) ) ;
#53 = DIRECTION ( 'NONE',  ( 1.224646799147353207E-16, 1.000000000000000000, -0.000000000000000000 ) ) ;
#54 = DATE_AND_TIME ( #307, #64 ) ;
#55 =( GEOMETRIC_REPRESENTATION_CONTEXT ( 3 ) GLOBAL_UNCERTAINTY_ASSIGNED_CONTEXT ( ( #133 ) ) GLOBAL_UNIT_ASSIGNED_CONTEXT ( ( #84, #211, #61 ) ) REPRESENTATION_CONTEXT ( 'NONE', 'WORKASPACE' ) );
#56 = EDGE_CURVE ( 'NONE', #190, #192, #202, .T. ) ;
#57 = PERSON_AND_ORGANIZATION_ROLE ( 'design_supplier' ) ;
#58 = DIRECTION ( 'NONE',  ( 0.000000000000000000, 0.000000000000000000, 1.000000000000000000 ) ) ;
#59 = CARTESIAN_POINT ( 'NONE',  ( -7.000000000000000000, 0.000000000000000000, 5.000000000000000000 ) ) ;
#60 = ORIENTED_EDGE ( 'NONE', *, *, #282, .T. ) ;
#61 =( NAMED_UNIT ( * ) SI_UNIT ( $, .STERADIAN. ) SOLID_ANGLE_UNIT ( ) );
#62 = VERTEX_POINT ( 'NONE', #251 ) ;
#63 = AXIS2_PLACEMENT_3D ( 'NONE', #224, #103, #332 ) ;
#64 = LOCAL_TIME ( 17, 21, 1.000000000000000000, #341 ) ;
#65 = FACE_OUTER_BOUND ( 'NONE', #287, .T. ) ;
#66 = EDGE_LOOP ( 'NONE', ( #156, #328 ) ) ;
#67 = CC_DESIGN_PERSON_AND_ORGANIZATION_ASSIGNMENT ( #239, #254, ( #163 ) ) ;
#68 = AXIS2_PLACEMENT_3D ( 'NONE', #169, #337, #253 ) ;
#69 = EDGE_CURVE ( 'NONE', #312, #134, #135, .T. ) ;
#70 = ORIENTED_EDGE ( 'NONE', *, *, #268, .T. ) ;
#71 = EDGE_LOOP ( 'NONE', ( #136, #95, #90, #32 ) ) ;
#72 = PRODUCT_DEFINITION ( 'NEZNÁMÝ', '', #194, #359 ) ;
#73 = LINE ( 'NONE', #298, #148 ) ;
#74 = AXIS2_PLACEMENT_3D ( 'NONE', #197, #327, #226 ) ;
#75 = CARTESIAN_POINT ( 'NONE',  ( 4.500000000000000888, 0.000000000000000000, 5.000000000000002665 ) ) ;
#76 = PLANE ( 'NONE',  #304 ) ;
#77 = CARTESIAN_POINT ( 'NONE',  ( 0.000000000000000000, 0.000000000000000000, 5.500000000000005329 ) ) ;
#78 = CARTESIAN_POINT ( 'NONE',  ( 0.000000000000000000, 0.000000000000000000, 5.000000000000000000 ) ) ;
#79 = DIRECTION ( 'NONE',  ( -0.000000000000000000, -0.000000000000000000, -1.000000000000000000 ) ) ;
#80 = AXIS2_PLACEMENT_3D ( 'NONE', #154, #58, #29 ) ;
#81 = DIRECTION ( 'NONE',  ( 0.000000000000000000, 0.000000000000000000, 1.000000000000000000 ) ) ;
#82 = AXIS2_PLACEMENT_3D ( 'NONE', #127, #28, #19 ) ;
#83 = LINE ( 'NONE', #279, #107 ) ;
#84 =( LENGTH_UNIT ( ) NAMED_UNIT ( * ) SI_UNIT ( .MILLI., .METRE. ) );
#85 = CARTESIAN_POINT ( 'NONE',  ( 4.000000000000000000, 4.898587196589412829E-16, 130.0000000000000000 ) ) ;
#86 = PERSON_AND_ORGANIZATION_ROLE ( 'creator' ) ;
#87 = EDGE_CURVE ( 'NONE', #62, #220, #83, .T. ) ;
#88 = APPROVAL_ROLE ( '' ) ;
#89 = AXIS2_PLACEMENT_3D ( 'NONE', #11, #296, #139 ) ;
#90 = ORIENTED_EDGE ( 'NONE', *, *, #186, .T. ) ;
#91 = COORDINATED_UNIVERSAL_TIME_OFFSET ( 1, 0, .AHEAD. ) ;
#92 = DIRECTION ( 'NONE',  ( 1.000000000000000000, 0.000000000000000000, 0.000000000000000000 ) ) ;
#93 = ORIENTED_EDGE ( 'NONE', *, *, #100, .T. ) ;
#94 = PERSON_AND_ORGANIZATION_ROLE ( 'creator' ) ;
#95 = ORIENTED_EDGE ( 'NONE', *, *, #308, .F. ) ;
#96 = CIRCLE ( 'NONE', #365, 2.500000000000000000 ) ;
#97 = VERTEX_POINT ( 'NONE', #43 ) ;
#98 = ADVANCED_FACE ( 'NONE', ( #303, #106 ), #76, .T. ) ;
#99 = ORIENTED_EDGE ( 'NONE', *, *, #221, .T. ) ;
#100 = EDGE_CURVE ( 'NONE', #97, #220, #347, .T. ) ;
#101 = AXIS2_PLACEMENT_3D ( 'NONE', #18, #200, #15 ) ;
#102 = EDGE_LOOP ( 'NONE', ( #31, #7 ) ) ;
#103 = DIRECTION ( 'NONE',  ( -0.000000000000000000, -0.000000000000000000, -1.000000000000000000 ) ) ;
#104 = ORIENTED_EDGE ( 'NONE', *, *, #379, .F. ) ;
#105 = DIRECTION ( 'NONE',  ( 0.000000000000000000, 0.000000000000000000, 1.000000000000000000 ) ) ;
#106 = FACE_OUTER_BOUND ( 'NONE', #381, .T. ) ;
#107 = VECTOR ( 'NONE', #79, 1000.000000000000000 ) ;
#108 = CC_DESIGN_SECURITY_CLASSIFICATION ( #34, ( #194 ) ) ;
#109 = DIRECTION ( 'NONE',  ( 1.000000000000000000, 0.000000000000000000, 0.000000000000000000 ) ) ;
#110 = DIRECTION ( 'NONE',  ( -1.000000000000000000, 0.000000000000000000, 0.000000000000000000 ) ) ;
#111 = DIRECTION ( 'NONE',  ( 0.000000000000000000, 0.000000000000000000, -1.000000000000000000 ) ) ;
#112 = CYLINDRICAL_SURFACE ( 'NONE', #116, 7.000000000000000000 ) ;
#113 = APPROVAL ( #205, 'NEURÈENÝ' ) ;
#114 = EDGE_CURVE ( 'NONE', #351, #190, #21, .T. ) ;
#115 = CARTESIAN_POINT ( 'NONE',  ( 0.000000000000000000, 0.000000000000000000, 130.0000000000000000 ) ) ;
#116 = AXIS2_PLACEMENT_3D ( 'NONE', #306, #16, #110 ) ;
#117 = COORDINATED_UNIVERSAL_TIME_OFFSET ( 1, 0, .AHEAD. ) ;
#118 = DIRECTION ( 'NONE',  ( -1.000000000000000000, 0.000000000000000000, 0.000000000000000000 ) ) ;
#119 = ADVANCED_FACE ( 'NONE', ( #255 ), #333, .T. ) ;
#120 = APPROVAL_ROLE ( '' ) ;
#121 = DIRECTION ( 'NONE',  ( 0.000000000000000000, 0.000000000000000000, -1.000000000000000000 ) ) ;
#122 = SECURITY_CLASSIFICATION_LEVEL ( 'unclassified' ) ;
#123 = DIRECTION ( 'NONE',  ( 0.000000000000000000, 0.000000000000000000, 1.000000000000000000 ) ) ;
#124 = PERSON_AND_ORGANIZATION ( #274, #35 ) ;
#125 = CIRCLE ( 'NONE', #357, 7.000000000000000000 ) ;
#126 = LINE ( 'NONE', #59, #160 ) ;
#127 = CARTESIAN_POINT ( 'NONE',  ( 0.000000000000000000, 0.000000000000000000, 0.000000000000000000 ) ) ;
#128 = PRODUCT_DEFINITION_SHAPE ( 'NONE', 'NONE',  #72 ) ;
#129 = EDGE_LOOP ( 'NONE', ( #161, #215, #242, #70 ) ) ;
#130 = AXIS2_PLACEMENT_3D ( 'NONE', #42, #272, #9 ) ;
#131 = ORIENTED_EDGE ( 'NONE', *, *, #159, .F. ) ;
#132 = EDGE_LOOP ( 'NONE', ( #40, #317, #8, #265 ) ) ;
#133 = UNCERTAINTY_MEASURE_WITH_UNIT (LENGTH_MEASURE( 1.000000000000000082E-05 ), #84, 'distance_accuracy_value', 'NONE');
#134 = VERTEX_POINT ( 'NONE', #339 ) ;
#135 = CIRCLE ( 'NONE', #101, 2.500000000000000000 ) ;
#136 = ORIENTED_EDGE ( 'NONE', *, *, #39, .F. ) ;
#137 = FACE_OUTER_BOUND ( 'NONE', #132, .T. ) ;
#138 = FACE_OUTER_BOUND ( 'NONE', #2, .T. ) ;
#139 = DIRECTION ( 'NONE',  ( 1.000000000000000000, 0.000000000000000000, 0.000000000000000000 ) ) ;
#140 = FACE_OUTER_BOUND ( 'NONE', #129, .T. ) ;
#141 = CIRCLE ( 'NONE', #319, 0.5000000000000004441 ) ;
#142 = LOCAL_TIME ( 17, 21, 1.000000000000000000, #348 ) ;
#143 = ADVANCED_FACE ( 'NONE', ( #364 ), #373, .T. ) ;
#144 = DIRECTION ( 'NONE',  ( 1.000000000000000000, 0.000000000000000000, 0.000000000000000000 ) ) ;
#145 = DIRECTION ( 'NONE',  ( -0.000000000000000000, -0.000000000000000000, -1.000000000000000000 ) ) ;
#146 = DIRECTION ( 'NONE',  ( 0.000000000000000000, 0.000000000000000000, 1.000000000000000000 ) ) ;
#147 = ADVANCED_FACE ( 'NONE', ( #140 ), #232, .T. ) ;
#148 = VECTOR ( 'NONE', #111, 1000.000000000000000 ) ;
#149 = CALENDAR_DATE ( 2022, 8, 7 ) ;
#150 = CC_DESIGN_APPROVAL ( #113, ( #194 ) ) ;
#151 = PLANE ( 'NONE',  #80 ) ;
#152 = PERSON_AND_ORGANIZATION ( #274, #35 ) ;
#153 = PERSON_AND_ORGANIZATION ( #274, #35 ) ;
#154 = CARTESIAN_POINT ( 'NONE',  ( 0.000000000000000000, 0.000000000000000000, 0.000000000000000000 ) ) ;
#155 = CIRCLE ( 'NONE', #41, 2.500000000000000000 ) ;
#156 = ORIENTED_EDGE ( 'NONE', *, *, #379, .T. ) ;
#157 = ORIENTED_EDGE ( 'NONE', *, *, #236, .F. ) ;
#158 = ORIENTED_EDGE ( 'NONE', *, *, #288, .F. ) ;
#159 = EDGE_CURVE ( 'NONE', #351, #6, #170, .T. ) ;
#160 = VECTOR ( 'NONE', #284, 1000.000000000000000 ) ;
#161 = ORIENTED_EDGE ( 'NONE', *, *, #56, .F. ) ;
#162 = CIRCLE ( 'NONE', #130, 7.000000000000000000 ) ;
#163 = PRODUCT ( 'bbd3', 'bbd3', '', ( #257 ) ) ;
#164 = ORIENTED_EDGE ( 'NONE', *, *, #87, .F. ) ;
#165 = ORIENTED_EDGE ( 'NONE', *, *, #196, .T. ) ;
#166 = MANIFOLD_SOLID_BREP ( 'Odebrat vysunutím3', #352 ) ;
#167 = AXIS2_PLACEMENT_3D ( 'NONE', #51, #146, #371 ) ;
#168 = DIRECTION ( 'NONE',  ( 1.000000000000000000, 0.000000000000000000, 0.000000000000000000 ) ) ;
#169 = CARTESIAN_POINT ( 'NONE',  ( 0.000000000000000000, 0.000000000000000000, 130.0000000000000000 ) ) ;
#170 = LINE ( 'NONE', #275, #340 ) ;
#171 = ADVANCED_FACE ( 'NONE', ( #173 ), #245, .F. ) ;
#172 = EDGE_CURVE ( 'NONE', #190, #351, #206, .T. ) ;
#173 = FACE_OUTER_BOUND ( 'NONE', #71, .T. ) ;
#174 = AXIS2_PLACEMENT_3D ( 'NONE', #115, #228, #361 ) ;
#175 = CARTESIAN_POINT ( 'NONE',  ( 0.000000000000000000, 0.000000000000000000, 0.000000000000000000 ) ) ;
#176 = DIRECTION ( 'NONE',  ( -1.000000000000000000, 1.224646799147351482E-16, 0.000000000000000000 ) ) ;
#177 = CARTESIAN_POINT ( 'NONE',  ( 0.000000000000000000, 0.000000000000000000, 5.500000000000005329 ) ) ;
#178 = CARTESIAN_POINT ( 'NONE',  ( 0.000000000000000000, 0.000000000000000000, 130.0000000000000000 ) ) ;
#179 = DIRECTION ( 'NONE',  ( 1.000000000000000000, 0.000000000000000000, 0.000000000000000000 ) ) ;
#180 = CALENDAR_DATE ( 2022, 8, 7 ) ;
#181 = ORIENTED_EDGE ( 'NONE', *, *, #308, .T. ) ;
#182 = CALENDAR_DATE ( 2022, 8, 7 ) ;
#183 = ADVANCED_FACE ( 'NONE', ( #260, #20 ), #151, .F. ) ;
#184 = EDGE_CURVE ( 'NONE', #326, #189, #155, .T. ) ;
#185 = LOCAL_TIME ( 17, 21, 1.000000000000000000, #117 ) ;
#186 = EDGE_CURVE ( 'NONE', #192, #266, #256, .T. ) ;
#187 = ORIENTED_EDGE ( 'NONE', *, *, #56, .T. ) ;
#188 = AXIS2_PLACEMENT_3D ( 'NONE', #78, #198, #12 ) ;
#189 = VERTEX_POINT ( 'NONE', #316 ) ;
#190 = VERTEX_POINT ( 'NONE', #234 ) ;
#191 = CYLINDRICAL_SURFACE ( 'NONE', #74, 2.500000000000000000 ) ;
#192 = VERTEX_POINT ( 'NONE', #344 ) ;
#193 = AXIS2_PLACEMENT_3D ( 'NONE', #262, #264, #212 ) ;
#194 = PRODUCT_DEFINITION_FORMATION_WITH_SPECIFIED_SOURCE ( 'LIBOVOLNÝ', '', #163, .NOT_KNOWN. ) ;
#195 = CARTESIAN_POINT ( 'NONE',  ( -4.000000000000000000, 0.000000000000000000, 130.0000000000000000 ) ) ;
#196 = EDGE_CURVE ( 'NONE', #292, #97, #126, .T. ) ;
#197 = CARTESIAN_POINT ( 'NONE',  ( 0.000000000000000000, 0.000000000000000000, 130.0000000000000000 ) ) ;
#198 = DIRECTION ( 'NONE',  ( -0.000000000000000000, -0.000000000000000000, -1.000000000000000000 ) ) ;
#199 = CARTESIAN_POINT ( 'NONE',  ( 7.000000000000000000, 8.572527594031473190E-16, 0.000000000000000000 ) ) ;
#200 = DIRECTION ( 'NONE',  ( -0.000000000000000000, -0.000000000000000000, -1.000000000000000000 ) ) ;
#201 = LINE ( 'NONE', #45, #240 ) ;
#202 = LINE ( 'NONE', #85, #277 ) ;
#203 = APPROVAL_DATE_TIME ( #372, #300 ) ;
#204 = APPLICATION_CONTEXT ( 'configuration controlled 3d designs of mechanical parts and assemblies' ) ;
#205 = APPROVAL_STATUS ( 'not_yet_approved' ) ;
#206 = CIRCLE ( 'NONE', #193, 4.000000000000000000 ) ;
#207 = CC_DESIGN_APPROVAL ( #38, ( #34 ) ) ;
#208 = ADVANCED_FACE ( 'NONE', ( #336, #50 ), #302, .T. ) ;
#209 = CARTESIAN_POINT ( 'NONE',  ( 4.500000000000000888, 0.000000000000000000, 5.500000000000005329 ) ) ;
#210 = ORIENTED_EDGE ( 'NONE', *, *, #100, .F. ) ;
#211 =( NAMED_UNIT ( * ) PLANE_ANGLE_UNIT ( ) SI_UNIT ( $, .RADIAN. ) );
#212 = DIRECTION ( 'NONE',  ( 1.000000000000000000, 0.000000000000000000, 0.000000000000000000 ) ) ;
#213 = APPROVAL_DATE_TIME ( #321, #38 ) ;
#214 = CARTESIAN_POINT ( 'NONE',  ( -4.000000000000000000, 0.000000000000000000, 5.500000000000005329 ) ) ;
#215 = ORIENTED_EDGE ( 'NONE', *, *, #114, .F. ) ;
#216 = AXIS2_PLACEMENT_3D ( 'NONE', #46, #342, #331 ) ;
#217 = LOCAL_TIME ( 17, 21, 1.000000000000000000, #91 ) ;
#218 = ORIENTED_EDGE ( 'NONE', *, *, #353, .T. ) ;
#219 = CARTESIAN_POINT ( 'NONE',  ( -2.500000000000000000, 0.000000000000000000, 0.000000000000000000 ) ) ;
#220 = VERTEX_POINT ( 'NONE', #199 ) ;
#221 = EDGE_CURVE ( 'NONE', #134, #312, #96, .T. ) ;
#222 = EDGE_CURVE ( 'NONE', #266, #323, #230, .T. ) ;
#223 = DIRECTION ( 'NONE',  ( -0.000000000000000000, -0.000000000000000000, -1.000000000000000000 ) ) ;
#224 = CARTESIAN_POINT ( 'NONE',  ( 0.000000000000000000, 0.000000000000000000, 5.000000000000000000 ) ) ;
#225 = CYLINDRICAL_SURFACE ( 'NONE', #68, 2.500000000000000000 ) ;
#226 = DIRECTION ( 'NONE',  ( -1.000000000000000000, 0.000000000000000000, 0.000000000000000000 ) ) ;
#227 = CARTESIAN_POINT ( 'NONE',  ( -4.500000000000000888, 5.510910596163089556E-16, 5.500000000000005329 ) ) ;
#228 = DIRECTION ( 'NONE',  ( 0.000000000000000000, 0.000000000000000000, 1.000000000000000000 ) ) ;
#229 = CARTESIAN_POINT ( 'NONE',  ( 0.000000000000000000, 0.000000000000000000, 130.0000000000000000 ) ) ;
#230 = CIRCLE ( 'NONE', #89, 4.500000000000000888 ) ;
#231 = PERSON_AND_ORGANIZATION ( #274, #35 ) ;
#232 = CYLINDRICAL_SURFACE ( 'NONE', #216, 4.000000000000000000 ) ;
#233 = APPROVAL_DATE_TIME ( #54, #113 ) ;
#234 = CARTESIAN_POINT ( 'NONE',  ( 4.000000000000000000, 4.898587196589412829E-16, 130.0000000000000000 ) ) ;
#235 = APPLICATION_PROTOCOL_DEFINITION ( 'international standard', 'config_control_design', 1994, #204 ) ;
#236 = EDGE_CURVE ( 'NONE', #62, #292, #125, .T. ) ;
#237 = ORIENTED_EDGE ( 'NONE', *, *, #69, .F. ) ;
#238 = DATE_AND_TIME ( #315, #185 ) ;
#239 = PERSON_AND_ORGANIZATION ( #274, #35 ) ;
#240 = VECTOR ( 'NONE', #305, 1000.000000000000000 ) ;
#241 = EDGE_LOOP ( 'NONE', ( #237, #246 ) ) ;
#242 = ORIENTED_EDGE ( 'NONE', *, *, #159, .T. ) ;
#243 = CC_DESIGN_DATE_AND_TIME_ASSIGNMENT ( #238, #375, ( #72 ) ) ;
#244 = ORIENTED_EDGE ( 'NONE', *, *, #87, .T. ) ;
#245 = TOROIDAL_SURFACE ( 'NONE', #13, 4.500000000000000888, 0.5000000000000000000 ) ;
#246 = ORIENTED_EDGE ( 'NONE', *, *, #221, .F. ) ;
#247 = CARTESIAN_POINT ( 'NONE',  ( 0.000000000000000000, 0.000000000000000000, 5.000000000000000000 ) ) ;
#248 = DIRECTION ( 'NONE',  ( 1.000000000000000000, 0.000000000000000000, 0.000000000000000000 ) ) ;
#249 = CIRCLE ( 'NONE', #1, 7.000000000000000000 ) ;
#250 = APPROVAL_PERSON_ORGANIZATION ( #231, #113, #120 ) ;
#251 = CARTESIAN_POINT ( 'NONE',  ( 7.000000000000000000, 8.572527594031473190E-16, 5.000000000000000000 ) ) ;
#252 = CARTESIAN_POINT ( 'NONE',  ( 0.000000000000000000, 0.000000000000000000, 5.000000000000000000 ) ) ;
#253 = DIRECTION ( 'NONE',  ( -1.000000000000000000, 0.000000000000000000, 0.000000000000000000 ) ) ;
#254 = PERSON_AND_ORGANIZATION_ROLE ( 'design_owner' ) ;
#255 = FACE_OUTER_BOUND ( 'NONE', #291, .T. ) ;
#256 = CIRCLE ( 'NONE', #285, 0.5000000000000004441 ) ;
#257 = MECHANICAL_CONTEXT ( 'NONE', #204, 'mechanical' ) ;
#258 = DIRECTION ( 'NONE',  ( 0.000000000000000000, 0.000000000000000000, 1.000000000000000000 ) ) ;
#259 = APPROVAL_STATUS ( 'not_yet_approved' ) ;
#260 = FACE_BOUND ( 'NONE', #241, .T. ) ;
#261 = APPLICATION_PROTOCOL_DEFINITION ( 'international standard', 'config_control_design', 1994, #22 ) ;
#262 = CARTESIAN_POINT ( 'NONE',  ( 0.000000000000000000, 0.000000000000000000, 130.0000000000000000 ) ) ;
#263 = CIRCLE ( 'NONE', #174, 2.500000000000000000 ) ;
#264 = DIRECTION ( 'NONE',  ( 0.000000000000000000, 0.000000000000000000, 1.000000000000000000 ) ) ;
#265 = ORIENTED_EDGE ( 'NONE', *, *, #186, .F. ) ;
#266 = VERTEX_POINT ( 'NONE', #75 ) ;
#267 = ORIENTED_EDGE ( 'NONE', *, *, #280, .T. ) ;
#268 = EDGE_CURVE ( 'NONE', #6, #192, #324, .T. ) ;
#269 = EDGE_LOOP ( 'NONE', ( #325, #187, #181, #131 ) ) ;
#270 = ORIENTED_EDGE ( 'NONE', *, *, #288, .T. ) ;
#271 = AXIS2_PLACEMENT_3D ( 'NONE', #77, #105, #144 ) ;
#272 = DIRECTION ( 'NONE',  ( 0.000000000000000000, 0.000000000000000000, 1.000000000000000000 ) ) ;
#273 = DIRECTION ( 'NONE',  ( 0.000000000000000000, 0.000000000000000000, 1.000000000000000000 ) ) ;
#274 = PERSON ( 'NEURÈENÝ', 'NEURÈENÝ', 'NEURÈENÝ', ('NEURÈENÝ'), ('NEURÈENÝ'), ('NEURÈENÝ') ) ;
#275 = CARTESIAN_POINT ( 'NONE',  ( -4.000000000000000000, 0.000000000000000000, 130.0000000000000000 ) ) ;
#276 = CARTESIAN_POINT ( 'NONE',  ( 0.000000000000000000, 0.000000000000000000, 5.500000000000005329 ) ) ;
#277 = VECTOR ( 'NONE', #145, 1000.000000000000000 ) ;
#278 = DIRECTION ( 'NONE',  ( 1.000000000000000000, 0.000000000000000000, -0.000000000000000000 ) ) ;
#279 = CARTESIAN_POINT ( 'NONE',  ( 7.000000000000000000, 8.572527594031473190E-16, 5.000000000000000000 ) ) ;
#280 = EDGE_CURVE ( 'NONE', #189, #326, #263, .T. ) ;
#281 = TOROIDAL_SURFACE ( 'NONE', #330, 4.500000000000000888, 0.5000000000000000000 ) ;
#282 = EDGE_CURVE ( 'NONE', #220, #97, #249, .T. ) ;
#283 = DATE_AND_TIME ( #180, #217 ) ;
#284 = DIRECTION ( 'NONE',  ( -0.000000000000000000, -0.000000000000000000, -1.000000000000000000 ) ) ;
#285 = AXIS2_PLACEMENT_3D ( 'NONE', #209, #376, #121 ) ;
#286 = LOCAL_TIME ( 17, 21, 1.000000000000000000, #350 ) ;
#287 = EDGE_LOOP ( 'NONE', ( #157, #244, #60, #346 ) ) ;
#288 = EDGE_CURVE ( 'NONE', #326, #134, #201, .T. ) ;
#289 = APPROVAL_PERSON_ORGANIZATION ( #152, #38, #88 ) ;
#290 = ORIENTED_EDGE ( 'NONE', *, *, #353, .F. ) ;
#291 = EDGE_LOOP ( 'NONE', ( #164, #104, #165, #93 ) ) ;
#292 = VERTEX_POINT ( 'NONE', #17 ) ;
#293 = CARTESIAN_POINT ( 'NONE',  ( -4.500000000000000888, 5.510910596163088569E-16, 5.000000000000002665 ) ) ;
#294 = CIRCLE ( 'NONE', #63, 4.500000000000000888 ) ;
#295 = DIRECTION ( 'NONE',  ( 0.000000000000000000, 0.000000000000000000, 1.000000000000000000 ) ) ;
#296 = DIRECTION ( 'NONE',  ( -0.000000000000000000, -0.000000000000000000, -1.000000000000000000 ) ) ;
#297 = DIRECTION ( 'NONE',  ( 1.000000000000000000, 0.000000000000000000, -0.000000000000000000 ) ) ;
#298 = CARTESIAN_POINT ( 'NONE',  ( -2.500000000000000000, 0.000000000000000000, 130.0000000000000000 ) ) ;
#299 = CARTESIAN_POINT ( 'NONE',  ( 0.000000000000000000, 0.000000000000000000, 130.0000000000000000 ) ) ;
#300 = APPROVAL ( #25, 'NEURÈENÝ' ) ;
#301 = EDGE_CURVE ( 'NONE', #323, #266, #294, .T. ) ;
#302 = PLANE ( 'NONE',  #374 ) ;
#303 = FACE_BOUND ( 'NONE', #102, .T. ) ;
#304 = AXIS2_PLACEMENT_3D ( 'NONE', #178, #295, #297 ) ;
#305 = DIRECTION ( 'NONE',  ( 0.000000000000000000, 0.000000000000000000, -1.000000000000000000 ) ) ;
#306 = CARTESIAN_POINT ( 'NONE',  ( 0.000000000000000000, 0.000000000000000000, 5.000000000000000000 ) ) ;
#307 = CALENDAR_DATE ( 2022, 8, 7 ) ;
#308 = EDGE_CURVE ( 'NONE', #192, #6, #313, .T. ) ;
#309 = CARTESIAN_POINT ( 'NONE',  ( 0.000000000000000000, 0.000000000000000000, 5.500000000000005329 ) ) ;
#310 = PERSON_AND_ORGANIZATION ( #274, #35 ) ;
#311 = DIRECTION ( 'NONE',  ( 1.000000000000000000, 0.000000000000000000, 0.000000000000000000 ) ) ;
#312 = VERTEX_POINT ( 'NONE', #219 ) ;
#313 = CIRCLE ( 'NONE', #271, 4.000000000000000000 ) ;
#314 = APPROVAL_PERSON_ORGANIZATION ( #124, #300, #378 ) ;
#315 = CALENDAR_DATE ( 2022, 8, 7 ) ;
#316 = CARTESIAN_POINT ( 'NONE',  ( -2.500000000000000000, 0.000000000000000000, 130.0000000000000000 ) ) ;
#317 = ORIENTED_EDGE ( 'NONE', *, *, #39, .T. ) ;
#318 = DIRECTION ( 'NONE',  ( 0.000000000000000000, 0.000000000000000000, 1.000000000000000000 ) ) ;
#319 = AXIS2_PLACEMENT_3D ( 'NONE', #227, #53, #176 ) ;
#320 = ORIENTED_EDGE ( 'NONE', *, *, #282, .F. ) ;
#321 = DATE_AND_TIME ( #182, #142 ) ;
#322 = EDGE_LOOP ( 'NONE', ( #3, #30 ) ) ;
#323 = VERTEX_POINT ( 'NONE', #293 ) ;
#324 = CIRCLE ( 'NONE', #367, 4.000000000000000000 ) ;
#325 = ORIENTED_EDGE ( 'NONE', *, *, #172, .F. ) ;
#326 = VERTEX_POINT ( 'NONE', #47 ) ;
#327 = DIRECTION ( 'NONE',  ( 0.000000000000000000, 0.000000000000000000, -1.000000000000000000 ) ) ;
#328 = ORIENTED_EDGE ( 'NONE', *, *, #236, .T. ) ;
#329 = DIRECTION ( 'NONE',  ( -0.000000000000000000, -0.000000000000000000, -1.000000000000000000 ) ) ;
#330 = AXIS2_PLACEMENT_3D ( 'NONE', #276, #318, #179 ) ;
#331 = DIRECTION ( 'NONE',  ( -1.000000000000000000, 0.000000000000000000, 0.000000000000000000 ) ) ;
#332 = DIRECTION ( 'NONE',  ( 1.000000000000000000, 0.000000000000000000, 0.000000000000000000 ) ) ;
#333 = CYLINDRICAL_SURFACE ( 'NONE', #188, 7.000000000000000000 ) ;
#334 = ADVANCED_FACE ( 'NONE', ( #369 ), #191, .F. ) ;
#335 = CC_DESIGN_PERSON_AND_ORGANIZATION_ASSIGNMENT ( #310, #345, ( #34 ) ) ;
#336 = FACE_BOUND ( 'NONE', #322, .T. ) ;
#337 = DIRECTION ( 'NONE',  ( 0.000000000000000000, 0.000000000000000000, -1.000000000000000000 ) ) ;
#338 = CARTESIAN_POINT ( 'NONE',  ( 0.000000000000000000, 0.000000000000000000, 0.000000000000000000 ) ) ;
#339 = CARTESIAN_POINT ( 'NONE',  ( 2.500000000000000000, 3.061616997868383141E-16, 0.000000000000000000 ) ) ;
#340 = VECTOR ( 'NONE', #48, 1000.000000000000000 ) ;
#341 = COORDINATED_UNIVERSAL_TIME_OFFSET ( 1, 0, .AHEAD. ) ;
#342 = DIRECTION ( 'NONE',  ( -0.000000000000000000, -0.000000000000000000, -1.000000000000000000 ) ) ;
#343 = PERSON_AND_ORGANIZATION ( #274, #35 ) ;
#344 = CARTESIAN_POINT ( 'NONE',  ( 4.000000000000000000, 4.898587196589412829E-16, 5.500000000000005329 ) ) ;
#345 = PERSON_AND_ORGANIZATION_ROLE ( 'classification_officer' ) ;
#346 = ORIENTED_EDGE ( 'NONE', *, *, #196, .F. ) ;
#347 = CIRCLE ( 'NONE', #167, 7.000000000000000000 ) ;
#348 = COORDINATED_UNIVERSAL_TIME_OFFSET ( 1, 0, .AHEAD. ) ;
#349 = ORIENTED_EDGE ( 'NONE', *, *, #69, .T. ) ;
#350 = COORDINATED_UNIVERSAL_TIME_OFFSET ( 1, 0, .AHEAD. ) ;
#351 = VERTEX_POINT ( 'NONE', #195 ) ;
#352 = CLOSED_SHELL ( 'NONE', ( #44, #380, #143, #24, #119, #208, #183, #147, #98, #171, #334 ) ) ;
#353 = EDGE_CURVE ( 'NONE', #189, #312, #73, .T. ) ;
#354 = PRODUCT_RELATED_PRODUCT_CATEGORY ( 'detail', '', ( #163 ) ) ;
#355 = EDGE_LOOP ( 'NONE', ( #210, #320 ) ) ;
#356 = ORIENTED_EDGE ( 'NONE', *, *, #114, .T. ) ;
#357 = AXIS2_PLACEMENT_3D ( 'NONE', #252, #52, #366 ) ;
#358 = CC_DESIGN_APPROVAL ( #300, ( #72 ) ) ;
#359 = DESIGN_CONTEXT ( 'detailed design', #22, 'design' ) ;
#360 = ORIENTED_EDGE ( 'NONE', *, *, #184, .T. ) ;
#361 = DIRECTION ( 'NONE',  ( 1.000000000000000000, 0.000000000000000000, 0.000000000000000000 ) ) ;
#362 = ORIENTED_EDGE ( 'NONE', *, *, #172, .T. ) ;
#363 = DIRECTION ( 'NONE',  ( 1.000000000000000000, 0.000000000000000000, 0.000000000000000000 ) ) ;
#364 = FACE_OUTER_BOUND ( 'NONE', #269, .T. ) ;
#365 = AXIS2_PLACEMENT_3D ( 'NONE', #175, #329, #168 ) ;
#366 = DIRECTION ( 'NONE',  ( 1.000000000000000000, 0.000000000000000000, 0.000000000000000000 ) ) ;
#367 = AXIS2_PLACEMENT_3D ( 'NONE', #177, #370, #109 ) ;
#368 = CC_DESIGN_DATE_AND_TIME_ASSIGNMENT ( #283, #23, ( #34 ) ) ;
#369 = FACE_OUTER_BOUND ( 'NONE', #37, .T. ) ;
#370 = DIRECTION ( 'NONE',  ( 0.000000000000000000, 0.000000000000000000, 1.000000000000000000 ) ) ;
#371 = DIRECTION ( 'NONE',  ( 1.000000000000000000, 0.000000000000000000, 0.000000000000000000 ) ) ;
#372 = DATE_AND_TIME ( #149, #286 ) ;
#373 = CYLINDRICAL_SURFACE ( 'NONE', #49, 4.000000000000000000 ) ;
#374 = AXIS2_PLACEMENT_3D ( 'NONE', #247, #14, #278 ) ;
#375 = DATE_TIME_ROLE ( 'creation_date' ) ;
#376 = DIRECTION ( 'NONE',  ( 0.000000000000000000, -1.000000000000000000, 0.000000000000000000 ) ) ;
#377 = PERSON_AND_ORGANIZATION ( #274, #35 ) ;
#378 = APPROVAL_ROLE ( '' ) ;
#379 = EDGE_CURVE ( 'NONE', #292, #62, #162, .T. ) ;
#380 = ADVANCED_FACE ( 'NONE', ( #137 ), #281, .F. ) ;
#381 = EDGE_LOOP ( 'NONE', ( #356, #362 ) ) ;
ENDSEC;
END-ISO-10303-21;
