ISO-10303-21;
HEADER;
FILE_DESCRIPTION (( 'STEP AP203' ),
    '1' );
FILE_NAME ('272e.STEP',
    '2022-07-08T15:26:33',
    ( '' ),
    ( '' ),
    'SwSTEP 2.0',
    'SolidWorks 2019',
    '' );
FILE_SCHEMA (( 'CONFIG_CONTROL_DESIGN' ));
ENDSEC;

DATA;
#1 = ORIENTED_EDGE ( 'NONE', *, *, #175, .T. ) ;
#2 = COORDINATED_UNIVERSAL_TIME_OFFSET ( 1, 0, .AHEAD. ) ;
#3 = ORIENTED_EDGE ( 'NONE', *, *, #29, .T. ) ;
#4 = COORDINATED_UNIVERSAL_TIME_OFFSET ( 1, 0, .AHEAD. ) ;
#5 = PRODUCT_RELATED_PRODUCT_CATEGORY ( 'detail', '', ( #260 ) ) ;
#6 = DIRECTION ( 'NONE',  ( 1.000000000000000000, 0.000000000000000000, 0.000000000000000000 ) ) ;
#7 = VECTOR ( 'NONE', #232, 1000.000000000000000 ) ;
#8 = FACE_OUTER_BOUND ( 'NONE', #221, .T. ) ;
#9 = DIRECTION ( 'NONE',  ( -1.000000000000000000, 0.000000000000000000, 0.000000000000000000 ) ) ;
#10 = CIRCLE ( 'NONE', #229, 4.500000000000000888 ) ;
#11 = CARTESIAN_POINT ( 'NONE',  ( 0.000000000000000000, 0.000000000000000000, 5.500000000000005329 ) ) ;
#12 = VERTEX_POINT ( 'NONE', #58 ) ;
#13 = AXIS2_PLACEMENT_3D ( 'NONE', #230, #374, #207 ) ;
#14 = CARTESIAN_POINT ( 'NONE',  ( -4.500000000000000888, 5.510910596163088569E-16, 5.000000000000002665 ) ) ;
#15 = ORIENTED_EDGE ( 'NONE', *, *, #176, .T. ) ;
#16 = AXIS2_PLACEMENT_3D ( 'NONE', #131, #373, #257 ) ;
#17 = CC_DESIGN_DATE_AND_TIME_ASSIGNMENT ( #263, #65, ( #362 ) ) ;
#18 = CARTESIAN_POINT ( 'NONE',  ( 0.000000000000000000, 0.000000000000000000, 0.000000000000000000 ) ) ;
#19 = AXIS2_PLACEMENT_3D ( 'NONE', #187, #122, #308 ) ;
#20 = FACE_OUTER_BOUND ( 'NONE', #93, .T. ) ;
#21 = VERTEX_POINT ( 'NONE', #318 ) ;
#22 = DIRECTION ( 'NONE',  ( -0.000000000000000000, -0.000000000000000000, -1.000000000000000000 ) ) ;
#23 = CARTESIAN_POINT ( 'NONE',  ( 7.000000000000000000, 8.572527594031473190E-16, 0.000000000000000000 ) ) ;
#24 =( NAMED_UNIT ( * ) SI_UNIT ( $, .STERADIAN. ) SOLID_ANGLE_UNIT ( ) );
#25 = CIRCLE ( 'NONE', #242, 2.100000000000000089 ) ;
#26 = APPROVAL_DATE_TIME ( #269, #292 ) ;
#27 = CARTESIAN_POINT ( 'NONE',  ( -2.100000000000000089, 0.000000000000000000, 0.000000000000000000 ) ) ;
#28 = CC_DESIGN_PERSON_AND_ORGANIZATION_ASSIGNMENT ( #240, #146, ( #362 ) ) ;
#29 = EDGE_CURVE ( 'NONE', #152, #12, #351, .T. ) ;
#30 = APPROVAL_PERSON_ORGANIZATION ( #323, #96, #270 ) ;
#31 = CYLINDRICAL_SURFACE ( 'NONE', #275, 7.000000000000000000 ) ;
#32 = AXIS2_PLACEMENT_3D ( 'NONE', #366, #376, #343 ) ;
#33 = PERSON_AND_ORGANIZATION_ROLE ( 'design_owner' ) ;
#34 = DIRECTION ( 'NONE',  ( 0.000000000000000000, 0.000000000000000000, 1.000000000000000000 ) ) ;
#35 = ADVANCED_FACE ( 'NONE', ( #320, #297 ), #265, .T. ) ;
#36 = ORIENTED_EDGE ( 'NONE', *, *, #183, .T. ) ;
#37 = SECURITY_CLASSIFICATION_LEVEL ( 'unclassified' ) ;
#38 = MANIFOLD_SOLID_BREP ( 'Odebrat vysunutím3', #186 ) ;
#39 = CC_DESIGN_SECURITY_CLASSIFICATION ( #330, ( #212 ) ) ;
#40 = VERTEX_POINT ( 'NONE', #133 ) ;
#41 = DIRECTION ( 'NONE',  ( 0.000000000000000000, 0.000000000000000000, 1.000000000000000000 ) ) ;
#42 = DIRECTION ( 'NONE',  ( 1.000000000000000000, 0.000000000000000000, 0.000000000000000000 ) ) ;
#43 = VERTEX_POINT ( 'NONE', #239 ) ;
#44 = CYLINDRICAL_SURFACE ( 'NONE', #51, 2.100000000000000089 ) ;
#45 = EDGE_CURVE ( 'NONE', #145, #312, #377, .T. ) ;
#46 = DIRECTION ( 'NONE',  ( -0.000000000000000000, -0.000000000000000000, -1.000000000000000000 ) ) ;
#47 = VECTOR ( 'NONE', #46, 1000.000000000000000 ) ;
#48 = ORIENTED_EDGE ( 'NONE', *, *, #176, .F. ) ;
#49 = EDGE_CURVE ( 'NONE', #21, #12, #233, .T. ) ;
#50 = CIRCLE ( 'NONE', #216, 2.100000000000000089 ) ;
#51 = AXIS2_PLACEMENT_3D ( 'NONE', #72, #336, #9 ) ;
#52 = APPROVAL_PERSON_ORGANIZATION ( #178, #292, #88 ) ;
#53 = ORIENTED_EDGE ( 'NONE', *, *, #241, .F. ) ;
#54 = ORIENTED_EDGE ( 'NONE', *, *, #120, .F. ) ;
#55 = CARTESIAN_POINT ( 'NONE',  ( 0.000000000000000000, 0.000000000000000000, 455.0000000000000000 ) ) ;
#56 = EDGE_CURVE ( 'NONE', #43, #300, #92, .T. ) ;
#57 = FACE_OUTER_BOUND ( 'NONE', #293, .T. ) ;
#58 = CARTESIAN_POINT ( 'NONE',  ( 4.500000000000000888, 0.000000000000000000, 5.000000000000002665 ) ) ;
#59 = AXIS2_PLACEMENT_3D ( 'NONE', #274, #311, #337 ) ;
#60 = PERSON_AND_ORGANIZATION ( #279, #236 ) ;
#61 = DIRECTION ( 'NONE',  ( 0.000000000000000000, 0.000000000000000000, 1.000000000000000000 ) ) ;
#62 = DIRECTION ( 'NONE',  ( 0.000000000000000000, 0.000000000000000000, 1.000000000000000000 ) ) ;
#63 = MECHANICAL_CONTEXT ( 'NONE', #340, 'mechanical' ) ;
#64 = CARTESIAN_POINT ( 'NONE',  ( -7.000000000000000000, 0.000000000000000000, 5.000000000000000000 ) ) ;
#65 = DATE_TIME_ROLE ( 'creation_date' ) ;
#66 = VERTEX_POINT ( 'NONE', #23 ) ;
#67 = ORIENTED_EDGE ( 'NONE', *, *, #319, .F. ) ;
#68 = VECTOR ( 'NONE', #364, 1000.000000000000000 ) ;
#69 = CARTESIAN_POINT ( 'NONE',  ( 0.000000000000000000, 0.000000000000000000, 455.0000000000000000 ) ) ;
#70 = DIRECTION ( 'NONE',  ( -0.000000000000000000, -0.000000000000000000, -1.000000000000000000 ) ) ;
#71 = DIRECTION ( 'NONE',  ( 1.000000000000000000, 0.000000000000000000, -0.000000000000000000 ) ) ;
#72 = CARTESIAN_POINT ( 'NONE',  ( 0.000000000000000000, 0.000000000000000000, 455.0000000000000000 ) ) ;
#73 = ORIENTED_EDGE ( 'NONE', *, *, #350, .F. ) ;
#74 = CARTESIAN_POINT ( 'NONE',  ( 7.000000000000000000, 8.572527594031473190E-16, 5.000000000000000000 ) ) ;
#75 = ORIENTED_EDGE ( 'NONE', *, *, #99, .T. ) ;
#76 = CARTESIAN_POINT ( 'NONE',  ( 0.000000000000000000, 0.000000000000000000, 455.0000000000000000 ) ) ;
#77 = VECTOR ( 'NONE', #22, 1000.000000000000000 ) ;
#78 = VERTEX_POINT ( 'NONE', #27 ) ;
#79 = CC_DESIGN_DATE_AND_TIME_ASSIGNMENT ( #89, #234, ( #330 ) ) ;
#80 = DIRECTION ( 'NONE',  ( 1.000000000000000000, 0.000000000000000000, 0.000000000000000000 ) ) ;
#81 = CARTESIAN_POINT ( 'NONE',  ( 0.000000000000000000, 0.000000000000000000, 5.000000000000000000 ) ) ;
#82 = APPLICATION_PROTOCOL_DEFINITION ( 'international standard', 'config_control_design', 1994, #340 ) ;
#83 = DIRECTION ( 'NONE',  ( -0.000000000000000000, -0.000000000000000000, -1.000000000000000000 ) ) ;
#84 = CIRCLE ( 'NONE', #223, 4.000000000000000000 ) ;
#85 = CALENDAR_DATE ( 2022, 8, 7 ) ;
#86 = DIRECTION ( 'NONE',  ( 1.000000000000000000, 0.000000000000000000, -0.000000000000000000 ) ) ;
#87 = EDGE_CURVE ( 'NONE', #145, #40, #255, .T. ) ;
#88 = APPROVAL_ROLE ( '' ) ;
#89 = DATE_AND_TIME ( #381, #247 ) ;
#90 =( GEOMETRIC_REPRESENTATION_CONTEXT ( 3 ) GLOBAL_UNCERTAINTY_ASSIGNED_CONTEXT ( ( #104 ) ) GLOBAL_UNIT_ASSIGNED_CONTEXT ( ( #291, #346, #24 ) ) REPRESENTATION_CONTEXT ( 'NONE', 'WORKASPACE' ) );
#91 = CIRCLE ( 'NONE', #154, 7.000000000000000000 ) ;
#92 = CIRCLE ( 'NONE', #173, 7.000000000000000000 ) ;
#93 = EDGE_LOOP ( 'NONE', ( #53, #254, #1, #157 ) ) ;
#94 = DIRECTION ( 'NONE',  ( 0.000000000000000000, 0.000000000000000000, 1.000000000000000000 ) ) ;
#95 = LOCAL_TIME ( 17, 26, 33.00000000000000000, #301 ) ;
#96 = APPROVAL ( #259, 'NEURÈENÝ' ) ;
#97 = FACE_BOUND ( 'NONE', #370, .T. ) ;
#98 = EDGE_LOOP ( 'NONE', ( #159, #185, #199, #281 ) ) ;
#99 = EDGE_CURVE ( 'NONE', #192, #338, #177, .T. ) ;
#100 = CARTESIAN_POINT ( 'NONE',  ( 0.000000000000000000, 0.000000000000000000, 5.500000000000005329 ) ) ;
#101 = ORIENTED_EDGE ( 'NONE', *, *, #241, .T. ) ;
#102 = CARTESIAN_POINT ( 'NONE',  ( 7.000000000000000000, 8.572527594031473190E-16, 5.000000000000000000 ) ) ;
#103 = CIRCLE ( 'NONE', #19, 7.000000000000000000 ) ;
#104 = UNCERTAINTY_MEASURE_WITH_UNIT (LENGTH_MEASURE( 1.000000000000000082E-05 ), #291, 'distance_accuracy_value', 'NONE');
#105 = VERTEX_POINT ( 'NONE', #352 ) ;
#106 = DIRECTION ( 'NONE',  ( -0.000000000000000000, -0.000000000000000000, -1.000000000000000000 ) ) ;
#107 = ORIENTED_EDGE ( 'NONE', *, *, #319, .T. ) ;
#108 = CIRCLE ( 'NONE', #321, 4.000000000000000000 ) ;
#109 = ORIENTED_EDGE ( 'NONE', *, *, #142, .T. ) ;
#110 = APPROVAL ( #174, 'NEURÈENÝ' ) ;
#111 = LOCAL_TIME ( 17, 26, 33.00000000000000000, #360 ) ;
#112 = DIRECTION ( 'NONE',  ( -1.000000000000000000, 0.000000000000000000, 0.000000000000000000 ) ) ;
#113 = AXIS2_PLACEMENT_3D ( 'NONE', #314, #165, #169 ) ;
#114 = CARTESIAN_POINT ( 'NONE',  ( 0.000000000000000000, 0.000000000000000000, 5.000000000000000000 ) ) ;
#115 = CARTESIAN_POINT ( 'NONE',  ( 0.000000000000000000, 0.000000000000000000, 5.500000000000005329 ) ) ;
#116 = COORDINATED_UNIVERSAL_TIME_OFFSET ( 1, 0, .AHEAD. ) ;
#117 = TOROIDAL_SURFACE ( 'NONE', #163, 4.500000000000000888, 0.5000000000000000000 ) ;
#118 = DIRECTION ( 'NONE',  ( 1.000000000000000000, 0.000000000000000000, 0.000000000000000000 ) ) ;
#119 = DATE_AND_TIME ( #85, #332 ) ;
#120 = EDGE_CURVE ( 'NONE', #21, #150, #108, .T. ) ;
#121 = CALENDAR_DATE ( 2022, 8, 7 ) ;
#122 = DIRECTION ( 'NONE',  ( 0.000000000000000000, 0.000000000000000000, 1.000000000000000000 ) ) ;
#123 = FACE_OUTER_BOUND ( 'NONE', #127, .T. ) ;
#124 = ORIENTED_EDGE ( 'NONE', *, *, #183, .F. ) ;
#125 = LINE ( 'NONE', #64, #190 ) ;
#126 = DIRECTION ( 'NONE',  ( 0.000000000000000000, 0.000000000000000000, 1.000000000000000000 ) ) ;
#127 = EDGE_LOOP ( 'NONE', ( #48, #54, #341, #261 ) ) ;
#128 = CC_DESIGN_APPROVAL ( #110, ( #330 ) ) ;
#129 = DIRECTION ( 'NONE',  ( -0.000000000000000000, -0.000000000000000000, -1.000000000000000000 ) ) ;
#130 = ORIENTED_EDGE ( 'NONE', *, *, #324, .F. ) ;
#131 = CARTESIAN_POINT ( 'NONE',  ( 0.000000000000000000, 0.000000000000000000, 455.0000000000000000 ) ) ;
#132 = FACE_OUTER_BOUND ( 'NONE', #299, .T. ) ;
#133 = CARTESIAN_POINT ( 'NONE',  ( 2.100000000000000089, 2.571758278209441464E-16, 0.000000000000000000 ) ) ;
#134 = DIRECTION ( 'NONE',  ( 0.000000000000000000, 0.000000000000000000, 1.000000000000000000 ) ) ;
#135 = CC_DESIGN_PERSON_AND_ORGANIZATION_ASSIGNMENT ( #237, #33, ( #260 ) ) ;
#136 = CYLINDRICAL_SURFACE ( 'NONE', #16, 4.000000000000000000 ) ;
#137 = ADVANCED_FACE ( 'NONE', ( #140 ), #31, .T. ) ;
#138 = CARTESIAN_POINT ( 'NONE',  ( 0.000000000000000000, 0.000000000000000000, 455.0000000000000000 ) ) ;
#139 = DIRECTION ( 'NONE',  ( 1.000000000000000000, 0.000000000000000000, 0.000000000000000000 ) ) ;
#140 = FACE_OUTER_BOUND ( 'NONE', #166, .T. ) ;
#141 = PERSON_AND_ORGANIZATION ( #279, #236 ) ;
#142 = EDGE_CURVE ( 'NONE', #338, #192, #195, .T. ) ;
#143 = DIRECTION ( 'NONE',  ( 1.000000000000000000, 0.000000000000000000, 0.000000000000000000 ) ) ;
#144 = APPROVAL_DATE_TIME ( #298, #96 ) ;
#145 = VERTEX_POINT ( 'NONE', #222 ) ;
#146 = PERSON_AND_ORGANIZATION_ROLE ( 'creator' ) ;
#147 = ORIENTED_EDGE ( 'NONE', *, *, #120, .T. ) ;
#148 = AXIS2_PLACEMENT_3D ( 'NONE', #305, #126, #71 ) ;
#149 = ADVANCED_FACE ( 'NONE', ( #244 ), #44, .F. ) ;
#150 = VERTEX_POINT ( 'NONE', #283 ) ;
#151 = DIRECTION ( 'NONE',  ( 1.000000000000000000, 0.000000000000000000, 0.000000000000000000 ) ) ;
#152 = VERTEX_POINT ( 'NONE', #14 ) ;
#153 = DIRECTION ( 'NONE',  ( -0.000000000000000000, -0.000000000000000000, -1.000000000000000000 ) ) ;
#154 = AXIS2_PLACEMENT_3D ( 'NONE', #180, #41, #6 ) ;
#155 = FACE_OUTER_BOUND ( 'NONE', #372, .T. ) ;
#156 = CC_DESIGN_PERSON_AND_ORGANIZATION_ASSIGNMENT ( #141, #171, ( #330 ) ) ;
#157 = ORIENTED_EDGE ( 'NONE', *, *, #220, .T. ) ;
#158 = PLANE ( 'NONE',  #148 ) ;
#159 = ORIENTED_EDGE ( 'NONE', *, *, #288, .T. ) ;
#160 = AXIS2_PLACEMENT_3D ( 'NONE', #258, #295, #203 ) ;
#161 = DIRECTION ( 'NONE',  ( -0.000000000000000000, -0.000000000000000000, -1.000000000000000000 ) ) ;
#162 = ORIENTED_EDGE ( 'NONE', *, *, #380, .T. ) ;
#163 = AXIS2_PLACEMENT_3D ( 'NONE', #11, #250, #151 ) ;
#164 = EDGE_CURVE ( 'NONE', #150, #21, #84, .T. ) ;
#165 = DIRECTION ( 'NONE',  ( 0.000000000000000000, 0.000000000000000000, -1.000000000000000000 ) ) ;
#166 = EDGE_LOOP ( 'NONE', ( #181, #101, #325, #170 ) ) ;
#167 = PLANE ( 'NONE',  #309 ) ;
#168 = DIRECTION ( 'NONE',  ( 1.000000000000000000, 0.000000000000000000, 0.000000000000000000 ) ) ;
#169 = DIRECTION ( 'NONE',  ( -1.000000000000000000, 0.000000000000000000, 0.000000000000000000 ) ) ;
#170 = ORIENTED_EDGE ( 'NONE', *, *, #175, .F. ) ;
#171 = PERSON_AND_ORGANIZATION_ROLE ( 'classification_officer' ) ;
#172 = DIRECTION ( 'NONE',  ( 1.000000000000000000, 0.000000000000000000, 0.000000000000000000 ) ) ;
#173 = AXIS2_PLACEMENT_3D ( 'NONE', #238, #61, #80 ) ;
#174 = APPROVAL_STATUS ( 'not_yet_approved' ) ;
#175 = EDGE_CURVE ( 'NONE', #43, #105, #125, .T. ) ;
#176 = EDGE_CURVE ( 'NONE', #150, #152, #290, .T. ) ;
#177 = CIRCLE ( 'NONE', #273, 4.000000000000000000 ) ;
#178 = PERSON_AND_ORGANIZATION ( #279, #236 ) ;
#179 = AXIS2_PLACEMENT_3D ( 'NONE', #114, #106, #112 ) ;
#180 = CARTESIAN_POINT ( 'NONE',  ( 0.000000000000000000, 0.000000000000000000, 5.000000000000000000 ) ) ;
#181 = ORIENTED_EDGE ( 'NONE', *, *, #248, .F. ) ;
#182 = PERSON_AND_ORGANIZATION_ROLE ( 'creator' ) ;
#183 = EDGE_CURVE ( 'NONE', #192, #150, #335, .T. ) ;
#184 = FACE_OUTER_BOUND ( 'NONE', #347, .T. ) ;
#185 = ORIENTED_EDGE ( 'NONE', *, *, #87, .T. ) ;
#186 = CLOSED_SHELL ( 'NONE', ( #149, #204, #345, #137, #349, #35, #209, #282, #303, #276, #334 ) ) ;
#187 = CARTESIAN_POINT ( 'NONE',  ( 0.000000000000000000, 0.000000000000000000, 0.000000000000000000 ) ) ;
#188 = DESIGN_CONTEXT ( 'detailed design', #344, 'design' ) ;
#189 = ORIENTED_EDGE ( 'NONE', *, *, #87, .F. ) ;
#190 = VECTOR ( 'NONE', #365, 1000.000000000000000 ) ;
#191 = CARTESIAN_POINT ( 'NONE',  ( 0.000000000000000000, 0.000000000000000000, 5.500000000000005329 ) ) ;
#192 = VERTEX_POINT ( 'NONE', #367 ) ;
#193 = CARTESIAN_POINT ( 'NONE',  ( 0.000000000000000000, 0.000000000000000000, 0.000000000000000000 ) ) ;
#194 = ORIENTED_EDGE ( 'NONE', *, *, #225, .T. ) ;
#195 = CIRCLE ( 'NONE', #210, 4.000000000000000000 ) ;
#196 = FACE_OUTER_BOUND ( 'NONE', #197, .T. ) ;
#197 = EDGE_LOOP ( 'NONE', ( #75, #109 ) ) ;
#198 = DIRECTION ( 'NONE',  ( 0.000000000000000000, 0.000000000000000000, 1.000000000000000000 ) ) ;
#199 = ORIENTED_EDGE ( 'NONE', *, *, #350, .T. ) ;
#200 = CYLINDRICAL_SURFACE ( 'NONE', #113, 2.100000000000000089 ) ;
#201 = CARTESIAN_POINT ( 'NONE',  ( 2.100000000000000089, 2.571758278209441464E-16, 455.0000000000000000 ) ) ;
#202 = FACE_BOUND ( 'NONE', #306, .T. ) ;
#203 = DIRECTION ( 'NONE',  ( 0.000000000000000000, 0.000000000000000000, -1.000000000000000000 ) ) ;
#204 = ADVANCED_FACE ( 'NONE', ( #184 ), #271, .F. ) ;
#205 = CARTESIAN_POINT ( 'NONE',  ( 0.000000000000000000, 0.000000000000000000, 455.0000000000000000 ) ) ;
#206 = SHAPE_DEFINITION_REPRESENTATION ( #267, #287 ) ;
#207 = DIRECTION ( 'NONE',  ( 1.000000000000000000, 0.000000000000000000, 0.000000000000000000 ) ) ;
#208 = CALENDAR_DATE ( 2022, 8, 7 ) ;
#209 = ADVANCED_FACE ( 'NONE', ( #97, #155 ), #158, .F. ) ;
#210 = AXIS2_PLACEMENT_3D ( 'NONE', #205, #62, #143 ) ;
#211 = APPROVAL_DATE_TIME ( #119, #110 ) ;
#212 = PRODUCT_DEFINITION_FORMATION_WITH_SPECIFIED_SOURCE ( 'LIBOVOLNÝ', '', #260, .NOT_KNOWN. ) ;
#213 = PERSON_AND_ORGANIZATION ( #279, #236 ) ;
#214 = ORIENTED_EDGE ( 'NONE', *, *, #45, .T. ) ;
#215 = DIRECTION ( 'NONE',  ( 0.000000000000000000, 0.000000000000000000, 1.000000000000000000 ) ) ;
#216 = AXIS2_PLACEMENT_3D ( 'NONE', #193, #339, #313 ) ;
#217 = ORIENTED_EDGE ( 'NONE', *, *, #56, .T. ) ;
#218 = DIRECTION ( 'NONE',  ( 1.000000000000000000, 0.000000000000000000, 0.000000000000000000 ) ) ;
#219 = CARTESIAN_POINT ( 'NONE',  ( -4.000000000000000000, 0.000000000000000000, 455.0000000000000000 ) ) ;
#220 = EDGE_CURVE ( 'NONE', #105, #66, #103, .T. ) ;
#221 = EDGE_LOOP ( 'NONE', ( #67, #245, #36, #302 ) ) ;
#222 = CARTESIAN_POINT ( 'NONE',  ( 2.100000000000000089, 2.571758278209441464E-16, 455.0000000000000000 ) ) ;
#223 = AXIS2_PLACEMENT_3D ( 'NONE', #100, #272, #218 ) ;
#224 = LINE ( 'NONE', #280, #68 ) ;
#225 = EDGE_CURVE ( 'NONE', #312, #78, #224, .T. ) ;
#226 = ORIENTED_EDGE ( 'NONE', *, *, #164, .F. ) ;
#227 = CYLINDRICAL_SURFACE ( 'NONE', #179, 7.000000000000000000 ) ;
#228 = ORIENTED_EDGE ( 'NONE', *, *, #45, .F. ) ;
#229 = AXIS2_PLACEMENT_3D ( 'NONE', #81, #161, #296 ) ;
#230 = CARTESIAN_POINT ( 'NONE',  ( 0.000000000000000000, 0.000000000000000000, 5.000000000000000000 ) ) ;
#231 = DIRECTION ( 'NONE',  ( 1.000000000000000000, 0.000000000000000000, -0.000000000000000000 ) ) ;
#232 = DIRECTION ( 'NONE',  ( 0.000000000000000000, 0.000000000000000000, -1.000000000000000000 ) ) ;
#233 = CIRCLE ( 'NONE', #160, 0.5000000000000004441 ) ;
#234 = DATE_TIME_ROLE ( 'classification_date' ) ;
#235 = DIRECTION ( 'NONE',  ( 0.000000000000000000, 0.000000000000000000, 1.000000000000000000 ) ) ;
#236 = ORGANIZATION ( 'NEURÈENÝ', 'NEURÈENÝ', '' ) ;
#237 = PERSON_AND_ORGANIZATION ( #279, #236 ) ;
#238 = CARTESIAN_POINT ( 'NONE',  ( 0.000000000000000000, 0.000000000000000000, 5.000000000000000000 ) ) ;
#239 = CARTESIAN_POINT ( 'NONE',  ( -7.000000000000000000, 0.000000000000000000, 5.000000000000000000 ) ) ;
#240 = PERSON_AND_ORGANIZATION ( #279, #236 ) ;
#241 = EDGE_CURVE ( 'NONE', #300, #66, #252, .T. ) ;
#242 = AXIS2_PLACEMENT_3D ( 'NONE', #18, #129, #253 ) ;
#243 = AXIS2_PLACEMENT_3D ( 'NONE', #363, #215, #307 ) ;
#244 = FACE_OUTER_BOUND ( 'NONE', #98, .T. ) ;
#245 = ORIENTED_EDGE ( 'NONE', *, *, #99, .F. ) ;
#246 = CYLINDRICAL_SURFACE ( 'NONE', #315, 4.000000000000000000 ) ;
#247 = LOCAL_TIME ( 17, 26, 33.00000000000000000, #4 ) ;
#248 = EDGE_CURVE ( 'NONE', #300, #43, #91, .T. ) ;
#249 = ORIENTED_EDGE ( 'NONE', *, *, #380, .F. ) ;
#250 = DIRECTION ( 'NONE',  ( 0.000000000000000000, 0.000000000000000000, 1.000000000000000000 ) ) ;
#251 = ORIENTED_EDGE ( 'NONE', *, *, #248, .T. ) ;
#252 = LINE ( 'NONE', #102, #47 ) ;
#253 = DIRECTION ( 'NONE',  ( 1.000000000000000000, 0.000000000000000000, 0.000000000000000000 ) ) ;
#254 = ORIENTED_EDGE ( 'NONE', *, *, #56, .F. ) ;
#255 = LINE ( 'NONE', #201, #7 ) ;
#256 = DIRECTION ( 'NONE',  ( 0.000000000000000000, 0.000000000000000000, 1.000000000000000000 ) ) ;
#257 = DIRECTION ( 'NONE',  ( -1.000000000000000000, 0.000000000000000000, 0.000000000000000000 ) ) ;
#258 = CARTESIAN_POINT ( 'NONE',  ( 4.500000000000000888, 0.000000000000000000, 5.500000000000005329 ) ) ;
#259 = APPROVAL_STATUS ( 'not_yet_approved' ) ;
#260 = PRODUCT ( '272e', '272e', '', ( #63 ) ) ;
#261 = ORIENTED_EDGE ( 'NONE', *, *, #29, .F. ) ;
#262 = LOCAL_TIME ( 17, 26, 33.00000000000000000, #2 ) ;
#263 = DATE_AND_TIME ( #208, #111 ) ;
#264 = CIRCLE ( 'NONE', #32, 2.100000000000000089 ) ;
#265 = PLANE ( 'NONE',  #342 ) ;
#266 = PERSON_AND_ORGANIZATION ( #279, #236 ) ;
#267 = PRODUCT_DEFINITION_SHAPE ( 'NONE', 'NONE',  #362 ) ;
#268 = EDGE_CURVE ( 'NONE', #66, #105, #331, .T. ) ;
#269 = DATE_AND_TIME ( #121, #262 ) ;
#270 = APPROVAL_ROLE ( '' ) ;
#271 = TOROIDAL_SURFACE ( 'NONE', #375, 4.500000000000000888, 0.5000000000000000000 ) ;
#272 = DIRECTION ( 'NONE',  ( 0.000000000000000000, 0.000000000000000000, 1.000000000000000000 ) ) ;
#273 = AXIS2_PLACEMENT_3D ( 'NONE', #138, #134, #172 ) ;
#274 = CARTESIAN_POINT ( 'NONE',  ( -4.500000000000000888, 5.510910596163089556E-16, 5.500000000000005329 ) ) ;
#275 = AXIS2_PLACEMENT_3D ( 'NONE', #354, #83, #355 ) ;
#276 = ADVANCED_FACE ( 'NONE', ( #123 ), #117, .F. ) ;
#277 = DIRECTION ( 'NONE',  ( -1.000000000000000000, 0.000000000000000000, 0.000000000000000000 ) ) ;
#278 = CC_DESIGN_APPROVAL ( #96, ( #212 ) ) ;
#279 = PERSON ( 'NEURÈENÝ', 'NEURÈENÝ', 'NEURÈENÝ', ('NEURÈENÝ'), ('NEURÈENÝ'), ('NEURÈENÝ') ) ;
#280 = CARTESIAN_POINT ( 'NONE',  ( -2.100000000000000089, 0.000000000000000000, 455.0000000000000000 ) ) ;
#281 = ORIENTED_EDGE ( 'NONE', *, *, #225, .F. ) ;
#282 = ADVANCED_FACE ( 'NONE', ( #8 ), #246, .T. ) ;
#283 = CARTESIAN_POINT ( 'NONE',  ( -4.000000000000000000, 0.000000000000000000, 5.500000000000005329 ) ) ;
#284 = AXIS2_PLACEMENT_3D ( 'NONE', #55, #357, #168 ) ;
#285 = EDGE_LOOP ( 'NONE', ( #368, #3 ) ) ;
#286 = CC_DESIGN_PERSON_AND_ORGANIZATION_ASSIGNMENT ( #266, #304, ( #212 ) ) ;
#287 = ADVANCED_BREP_SHAPE_REPRESENTATION ( '272e', ( #38, #289 ), #90 ) ;
#288 = EDGE_CURVE ( 'NONE', #312, #145, #264, .T. ) ;
#289 = AXIS2_PLACEMENT_3D ( 'NONE', #358, #34, #139 ) ;
#290 = CIRCLE ( 'NONE', #59, 0.5000000000000004441 ) ;
#291 =( LENGTH_UNIT ( ) NAMED_UNIT ( * ) SI_UNIT ( .MILLI., .METRE. ) );
#292 = APPROVAL ( #356, 'NEURÈENÝ' ) ;
#293 = EDGE_LOOP ( 'NONE', ( #189, #214, #194, #162 ) ) ;
#294 = ORIENTED_EDGE ( 'NONE', *, *, #268, .F. ) ;
#295 = DIRECTION ( 'NONE',  ( 0.000000000000000000, -1.000000000000000000, 0.000000000000000000 ) ) ;
#296 = DIRECTION ( 'NONE',  ( 1.000000000000000000, 0.000000000000000000, 0.000000000000000000 ) ) ;
#297 = FACE_OUTER_BOUND ( 'NONE', #317, .T. ) ;
#298 = DATE_AND_TIME ( #328, #95 ) ;
#299 = EDGE_LOOP ( 'NONE', ( #310, #107, #147, #124 ) ) ;
#300 = VERTEX_POINT ( 'NONE', #74 ) ;
#301 = COORDINATED_UNIVERSAL_TIME_OFFSET ( 1, 0, .AHEAD. ) ;
#302 = ORIENTED_EDGE ( 'NONE', *, *, #164, .T. ) ;
#303 = ADVANCED_FACE ( 'NONE', ( #202, #196 ), #167, .T. ) ;
#304 = PERSON_AND_ORGANIZATION_ROLE ( 'design_supplier' ) ;
#305 = CARTESIAN_POINT ( 'NONE',  ( 0.000000000000000000, 0.000000000000000000, 0.000000000000000000 ) ) ;
#306 = EDGE_LOOP ( 'NONE', ( #378, #228 ) ) ;
#307 = DIRECTION ( 'NONE',  ( 1.000000000000000000, 0.000000000000000000, 0.000000000000000000 ) ) ;
#308 = DIRECTION ( 'NONE',  ( 1.000000000000000000, 0.000000000000000000, 0.000000000000000000 ) ) ;
#309 = AXIS2_PLACEMENT_3D ( 'NONE', #76, #198, #231 ) ;
#310 = ORIENTED_EDGE ( 'NONE', *, *, #142, .F. ) ;
#311 = DIRECTION ( 'NONE',  ( 1.224646799147353207E-16, 1.000000000000000000, -0.000000000000000000 ) ) ;
#312 = VERTEX_POINT ( 'NONE', #316 ) ;
#313 = DIRECTION ( 'NONE',  ( 1.000000000000000000, 0.000000000000000000, 0.000000000000000000 ) ) ;
#314 = CARTESIAN_POINT ( 'NONE',  ( 0.000000000000000000, 0.000000000000000000, 455.0000000000000000 ) ) ;
#315 = AXIS2_PLACEMENT_3D ( 'NONE', #69, #153, #277 ) ;
#316 = CARTESIAN_POINT ( 'NONE',  ( -2.100000000000000089, 0.000000000000000000, 455.0000000000000000 ) ) ;
#317 = EDGE_LOOP ( 'NONE', ( #217, #251 ) ) ;
#318 = CARTESIAN_POINT ( 'NONE',  ( 4.000000000000000000, 4.898587196589412829E-16, 5.500000000000005329 ) ) ;
#319 = EDGE_CURVE ( 'NONE', #338, #21, #369, .T. ) ;
#320 = FACE_BOUND ( 'NONE', #285, .T. ) ;
#321 = AXIS2_PLACEMENT_3D ( 'NONE', #115, #235, #118 ) ;
#322 = CARTESIAN_POINT ( 'NONE',  ( 0.000000000000000000, 0.000000000000000000, 5.000000000000000000 ) ) ;
#323 = PERSON_AND_ORGANIZATION ( #279, #236 ) ;
#324 = EDGE_CURVE ( 'NONE', #12, #152, #10, .T. ) ;
#325 = ORIENTED_EDGE ( 'NONE', *, *, #268, .T. ) ;
#326 = APPROVAL_PERSON_ORGANIZATION ( #60, #110, #353 ) ;
#327 = ORIENTED_EDGE ( 'NONE', *, *, #220, .F. ) ;
#328 = CALENDAR_DATE ( 2022, 8, 7 ) ;
#329 = CC_DESIGN_PERSON_AND_ORGANIZATION_ASSIGNMENT ( #213, #182, ( #212 ) ) ;
#330 = SECURITY_CLASSIFICATION ( '', '', #37 ) ;
#331 = CIRCLE ( 'NONE', #243, 7.000000000000000000 ) ;
#332 = LOCAL_TIME ( 17, 26, 33.00000000000000000, #116 ) ;
#333 = ORIENTED_EDGE ( 'NONE', *, *, #49, .F. ) ;
#334 = ADVANCED_FACE ( 'NONE', ( #57 ), #200, .F. ) ;
#335 = LINE ( 'NONE', #219, #361 ) ;
#336 = DIRECTION ( 'NONE',  ( 0.000000000000000000, 0.000000000000000000, -1.000000000000000000 ) ) ;
#337 = DIRECTION ( 'NONE',  ( -1.000000000000000000, 1.224646799147351482E-16, 0.000000000000000000 ) ) ;
#338 = VERTEX_POINT ( 'NONE', #371 ) ;
#339 = DIRECTION ( 'NONE',  ( -0.000000000000000000, -0.000000000000000000, -1.000000000000000000 ) ) ;
#340 = APPLICATION_CONTEXT ( 'configuration controlled 3d designs of mechanical parts and assemblies' ) ;
#341 = ORIENTED_EDGE ( 'NONE', *, *, #49, .T. ) ;
#342 = AXIS2_PLACEMENT_3D ( 'NONE', #322, #256, #86 ) ;
#343 = DIRECTION ( 'NONE',  ( 1.000000000000000000, 0.000000000000000000, 0.000000000000000000 ) ) ;
#344 = APPLICATION_CONTEXT ( 'configuration controlled 3d designs of mechanical parts and assemblies' ) ;
#345 = ADVANCED_FACE ( 'NONE', ( #132 ), #136, .T. ) ;
#346 =( NAMED_UNIT ( * ) PLANE_ANGLE_UNIT ( ) SI_UNIT ( $, .RADIAN. ) );
#347 = EDGE_LOOP ( 'NONE', ( #226, #15, #130, #333 ) ) ;
#348 = CARTESIAN_POINT ( 'NONE',  ( 4.000000000000000000, 4.898587196589412829E-16, 455.0000000000000000 ) ) ;
#349 = ADVANCED_FACE ( 'NONE', ( #20 ), #227, .T. ) ;
#350 = EDGE_CURVE ( 'NONE', #40, #78, #50, .T. ) ;
#351 = CIRCLE ( 'NONE', #13, 4.500000000000000888 ) ;
#352 = CARTESIAN_POINT ( 'NONE',  ( -7.000000000000000000, 0.000000000000000000, 0.000000000000000000 ) ) ;
#353 = APPROVAL_ROLE ( '' ) ;
#354 = CARTESIAN_POINT ( 'NONE',  ( 0.000000000000000000, 0.000000000000000000, 5.000000000000000000 ) ) ;
#355 = DIRECTION ( 'NONE',  ( -1.000000000000000000, 0.000000000000000000, 0.000000000000000000 ) ) ;
#356 = APPROVAL_STATUS ( 'not_yet_approved' ) ;
#357 = DIRECTION ( 'NONE',  ( 0.000000000000000000, 0.000000000000000000, 1.000000000000000000 ) ) ;
#358 = CARTESIAN_POINT ( 'NONE',  ( 0.000000000000000000, 0.000000000000000000, 0.000000000000000000 ) ) ;
#359 = CC_DESIGN_APPROVAL ( #292, ( #362 ) ) ;
#360 = COORDINATED_UNIVERSAL_TIME_OFFSET ( 1, 0, .AHEAD. ) ;
#361 = VECTOR ( 'NONE', #70, 1000.000000000000000 ) ;
#362 = PRODUCT_DEFINITION ( 'NEZNÁMÝ', '', #212, #188 ) ;
#363 = CARTESIAN_POINT ( 'NONE',  ( 0.000000000000000000, 0.000000000000000000, 0.000000000000000000 ) ) ;
#364 = DIRECTION ( 'NONE',  ( 0.000000000000000000, 0.000000000000000000, -1.000000000000000000 ) ) ;
#365 = DIRECTION ( 'NONE',  ( -0.000000000000000000, -0.000000000000000000, -1.000000000000000000 ) ) ;
#366 = CARTESIAN_POINT ( 'NONE',  ( 0.000000000000000000, 0.000000000000000000, 455.0000000000000000 ) ) ;
#367 = CARTESIAN_POINT ( 'NONE',  ( -4.000000000000000000, 0.000000000000000000, 455.0000000000000000 ) ) ;
#368 = ORIENTED_EDGE ( 'NONE', *, *, #324, .T. ) ;
#369 = LINE ( 'NONE', #348, #77 ) ;
#370 = EDGE_LOOP ( 'NONE', ( #249, #73 ) ) ;
#371 = CARTESIAN_POINT ( 'NONE',  ( 4.000000000000000000, 4.898587196589412829E-16, 455.0000000000000000 ) ) ;
#372 = EDGE_LOOP ( 'NONE', ( #327, #294 ) ) ;
#373 = DIRECTION ( 'NONE',  ( -0.000000000000000000, -0.000000000000000000, -1.000000000000000000 ) ) ;
#374 = DIRECTION ( 'NONE',  ( -0.000000000000000000, -0.000000000000000000, -1.000000000000000000 ) ) ;
#375 = AXIS2_PLACEMENT_3D ( 'NONE', #191, #94, #42 ) ;
#376 = DIRECTION ( 'NONE',  ( 0.000000000000000000, 0.000000000000000000, 1.000000000000000000 ) ) ;
#377 = CIRCLE ( 'NONE', #284, 2.100000000000000089 ) ;
#378 = ORIENTED_EDGE ( 'NONE', *, *, #288, .F. ) ;
#379 = APPLICATION_PROTOCOL_DEFINITION ( 'international standard', 'config_control_design', 1994, #344 ) ;
#380 = EDGE_CURVE ( 'NONE', #78, #40, #25, .T. ) ;
#381 = CALENDAR_DATE ( 2022, 8, 7 ) ;
ENDSEC;
END-ISO-10303-21;
