ISO-10303-21;
HEADER;
FILE_DESCRIPTION (( 'STEP AP203' ),
    '1' );
FILE_NAME ('03ba.STEP',
    '2022-07-08T14:28:51',
    ( '' ),
    ( '' ),
    'SwSTEP 2.0',
    'SolidWorks 2019',
    '' );
FILE_SCHEMA (( 'CONFIG_CONTROL_DESIGN' ));
ENDSEC;

DATA;
#1 = DIRECTION ( 'NONE',  ( 1.000000000000000000, 0.000000000000000000, -0.000000000000000000 ) ) ;
#2 = DIRECTION ( 'NONE',  ( -0.000000000000000000, -0.000000000000000000, -1.000000000000000000 ) ) ;
#3 = EDGE_CURVE ( 'NONE', #120, #46, #363, .T. ) ;
#4 = VECTOR ( 'NONE', #237, 1000.000000000000000 ) ;
#5 = CARTESIAN_POINT ( 'NONE',  ( 0.000000000000000000, 0.000000000000000000, 7.000000000000000000 ) ) ;
#6 = EDGE_CURVE ( 'NONE', #108, #251, #123, .T. ) ;
#7 = CIRCLE ( 'NONE', #226, 6.000000000000000888 ) ;
#8 = DIRECTION ( 'NONE',  ( 0.000000000000000000, 0.000000000000000000, 1.000000000000000000 ) ) ;
#9 = ORIENTED_EDGE ( 'NONE', *, *, #19, .F. ) ;
#10 = CARTESIAN_POINT ( 'NONE',  ( 4.250000000000000000, 5.204748896376250699E-16, 807.0000000000000000 ) ) ;
#11 = VERTEX_POINT ( 'NONE', #61 ) ;
#12 = COORDINATED_UNIVERSAL_TIME_OFFSET ( 1, 0, .AHEAD. ) ;
#13 = APPROVAL_DATE_TIME ( #51, #227 ) ;
#14 = CC_DESIGN_APPROVAL ( #83, ( #311 ) ) ;
#15 = CARTESIAN_POINT ( 'NONE',  ( 0.000000000000000000, 0.000000000000000000, 807.0000000000000000 ) ) ;
#16 = PERSON_AND_ORGANIZATION_ROLE ( 'design_owner' ) ;
#17 = CARTESIAN_POINT ( 'NONE',  ( 6.000000000000000888, 7.347880794884120722E-16, 807.0000000000000000 ) ) ;
#18 = EDGE_LOOP ( 'NONE', ( #159, #151, #356, #255 ) ) ;
#19 = EDGE_CURVE ( 'NONE', #99, #326, #329, .T. ) ;
#20 = TOROIDAL_SURFACE ( 'NONE', #113, 6.700000000000001066, 0.6999999999999999556 ) ;
#21 = ORIENTED_EDGE ( 'NONE', *, *, #43, .T. ) ;
#22 = COORDINATED_UNIVERSAL_TIME_OFFSET ( 1, 0, .AHEAD. ) ;
#23 = DIRECTION ( 'NONE',  ( -0.000000000000000000, -0.000000000000000000, -1.000000000000000000 ) ) ;
#24 = VECTOR ( 'NONE', #23, 1000.000000000000000 ) ;
#25 = EDGE_LOOP ( 'NONE', ( #291, #89 ) ) ;
#26 = ORIENTED_EDGE ( 'NONE', *, *, #43, .F. ) ;
#27 = PRODUCT_RELATED_PRODUCT_CATEGORY ( 'detail', '', ( #152 ) ) ;
#28 =( LENGTH_UNIT ( ) NAMED_UNIT ( * ) SI_UNIT ( .MILLI., .METRE. ) );
#29 = AXIS2_PLACEMENT_3D ( 'NONE', #54, #303, #147 ) ;
#30 = ORIENTED_EDGE ( 'NONE', *, *, #340, .F. ) ;
#31 = DIRECTION ( 'NONE',  ( 1.000000000000000000, 0.000000000000000000, 0.000000000000000000 ) ) ;
#32 = EDGE_LOOP ( 'NONE', ( #349, #79, #21, #314 ) ) ;
#33 = CARTESIAN_POINT ( 'NONE',  ( 0.000000000000000000, 0.000000000000000000, 7.000000000000000000 ) ) ;
#34 = AXIS2_PLACEMENT_3D ( 'NONE', #278, #229, #320 ) ;
#35 = FACE_OUTER_BOUND ( 'NONE', #234, .T. ) ;
#36 = ADVANCED_FACE ( 'NONE', ( #91 ), #187, .T. ) ;
#37 = CARTESIAN_POINT ( 'NONE',  ( 0.000000000000000000, 0.000000000000000000, 807.0000000000000000 ) ) ;
#38 = CLOSED_SHELL ( 'NONE', ( #191, #96, #246, #153, #36, #170, #75, #50, #142, #249, #299 ) ) ;
#39 = DIRECTION ( 'NONE',  ( -0.000000000000000000, -0.000000000000000000, -1.000000000000000000 ) ) ;
#40 = AXIS2_PLACEMENT_3D ( 'NONE', #366, #72, #194 ) ;
#41 = APPROVAL_DATE_TIME ( #370, #334 ) ;
#42 = LINE ( 'NONE', #285, #24 ) ;
#43 = EDGE_CURVE ( 'NONE', #326, #73, #270, .T. ) ;
#44 = APPROVAL_STATUS ( 'not_yet_approved' ) ;
#45 = DIRECTION ( 'NONE',  ( -0.000000000000000000, -0.000000000000000000, -1.000000000000000000 ) ) ;
#46 = VERTEX_POINT ( 'NONE', #296 ) ;
#47 = MECHANICAL_CONTEXT ( 'NONE', #279, 'mechanical' ) ;
#48 = CARTESIAN_POINT ( 'NONE',  ( -6.000000000000000888, 0.000000000000000000, 807.0000000000000000 ) ) ;
#49 = ORIENTED_EDGE ( 'NONE', *, *, #212, .F. ) ;
#50 = ADVANCED_FACE ( 'NONE', ( #361 ), #321, .T. ) ;
#51 = DATE_AND_TIME ( #374, #235 ) ;
#52 = ORIENTED_EDGE ( 'NONE', *, *, #121, .T. ) ;
#53 = DATE_TIME_ROLE ( 'classification_date' ) ;
#54 = CARTESIAN_POINT ( 'NONE',  ( 0.000000000000000000, 0.000000000000000000, 807.0000000000000000 ) ) ;
#55 = ORIENTED_EDGE ( 'NONE', *, *, #307, .F. ) ;
#56 = EDGE_CURVE ( 'NONE', #73, #317, #344, .T. ) ;
#57 = AXIS2_PLACEMENT_3D ( 'NONE', #37, #131, #138 ) ;
#58 = EDGE_LOOP ( 'NONE', ( #30, #49 ) ) ;
#59 = CARTESIAN_POINT ( 'NONE',  ( 0.000000000000000000, 0.000000000000000000, 807.0000000000000000 ) ) ;
#60 =( NAMED_UNIT ( * ) PLANE_ANGLE_UNIT ( ) SI_UNIT ( $, .RADIAN. ) );
#61 = CARTESIAN_POINT ( 'NONE',  ( -6.000000000000000888, 0.000000000000000000, 7.700000000000040146 ) ) ;
#62 = CC_DESIGN_APPROVAL ( #227, ( #206 ) ) ;
#63 = CC_DESIGN_PERSON_AND_ORGANIZATION_ASSIGNMENT ( #112, #205, ( #242 ) ) ;
#64 = CARTESIAN_POINT ( 'NONE',  ( 0.000000000000000000, 0.000000000000000000, 7.000000000000000000 ) ) ;
#65 = DIRECTION ( 'NONE',  ( 1.000000000000000000, 0.000000000000000000, 0.000000000000000000 ) ) ;
#66 = DIRECTION ( 'NONE',  ( -0.000000000000000000, -0.000000000000000000, -1.000000000000000000 ) ) ;
#67 = CC_DESIGN_DATE_AND_TIME_ASSIGNMENT ( #304, #263, ( #206 ) ) ;
#68 = APPROVAL_PERSON_ORGANIZATION ( #200, #334, #337 ) ;
#69 = CARTESIAN_POINT ( 'NONE',  ( -10.00000000000000000, 0.000000000000000000, 7.000000000000000000 ) ) ;
#70 = DIRECTION ( 'NONE',  ( 0.000000000000000000, 0.000000000000000000, 1.000000000000000000 ) ) ;
#71 = AXIS2_PLACEMENT_3D ( 'NONE', #365, #162, #133 ) ;
#72 = DIRECTION ( 'NONE',  ( -0.000000000000000000, -0.000000000000000000, -1.000000000000000000 ) ) ;
#73 = VERTEX_POINT ( 'NONE', #218 ) ;
#74 = CIRCLE ( 'NONE', #211, 10.00000000000000000 ) ;
#75 = ADVANCED_FACE ( 'NONE', ( #379, #129 ), #243, .F. ) ;
#76 = DIRECTION ( 'NONE',  ( 0.000000000000000000, 0.000000000000000000, 1.000000000000000000 ) ) ;
#77 = CALENDAR_DATE ( 2022, 8, 7 ) ;
#78 = CARTESIAN_POINT ( 'NONE',  ( -6.700000000000001066, 8.205133554287267548E-16, 7.700000000000040146 ) ) ;
#79 = ORIENTED_EDGE ( 'NONE', *, *, #19, .T. ) ;
#80 = APPROVAL_STATUS ( 'not_yet_approved' ) ;
#81 = CARTESIAN_POINT ( 'NONE',  ( 4.250000000000000000, 5.204748896376250699E-16, 807.0000000000000000 ) ) ;
#82 = VERTEX_POINT ( 'NONE', #300 ) ;
#83 = APPROVAL ( #312, 'NEURÈENÝ' ) ;
#84 = DIRECTION ( 'NONE',  ( -1.000000000000000000, 1.224646799147353454E-16, 0.000000000000000000 ) ) ;
#85 = ORIENTED_EDGE ( 'NONE', *, *, #221, .T. ) ;
#86 = DIRECTION ( 'NONE',  ( -0.000000000000000000, -0.000000000000000000, -1.000000000000000000 ) ) ;
#87 = LINE ( 'NONE', #305, #4 ) ;
#88 = AXIS2_PLACEMENT_3D ( 'NONE', #64, #124, #92 ) ;
#89 = ORIENTED_EDGE ( 'NONE', *, *, #221, .F. ) ;
#90 = EDGE_LOOP ( 'NONE', ( #155, #341 ) ) ;
#91 = FACE_OUTER_BOUND ( 'NONE', #18, .T. ) ;
#92 = DIRECTION ( 'NONE',  ( 1.000000000000000000, 0.000000000000000000, 0.000000000000000000 ) ) ;
#93 = DIRECTION ( 'NONE',  ( 0.000000000000000000, 0.000000000000000000, 1.000000000000000000 ) ) ;
#94 = ORGANIZATION ( 'NEURÈENÝ', 'NEURÈENÝ', '' ) ;
#95 = CARTESIAN_POINT ( 'NONE',  ( 0.000000000000000000, 0.000000000000000000, 0.000000000000000000 ) ) ;
#96 = ADVANCED_FACE ( 'NONE', ( #98 ), #20, .F. ) ;
#97 = CARTESIAN_POINT ( 'NONE',  ( -6.700000000000001066, 8.205133554287267548E-16, 7.000000000000020428 ) ) ;
#98 = FACE_OUTER_BOUND ( 'NONE', #288, .T. ) ;
#99 = VERTEX_POINT ( 'NONE', #10 ) ;
#100 = VECTOR ( 'NONE', #39, 1000.000000000000000 ) ;
#101 = CARTESIAN_POINT ( 'NONE',  ( 0.000000000000000000, 0.000000000000000000, 7.000000000000000000 ) ) ;
#102 = EDGE_CURVE ( 'NONE', #326, #99, #166, .T. ) ;
#103 = PERSON_AND_ORGANIZATION_ROLE ( 'creator' ) ;
#104 = DIRECTION ( 'NONE',  ( 0.000000000000000000, 0.000000000000000000, 1.000000000000000000 ) ) ;
#105 = TOROIDAL_SURFACE ( 'NONE', #126, 6.700000000000001066, 0.6999999999999999556 ) ;
#106 = APPROVAL_ROLE ( '' ) ;
#107 = DIRECTION ( 'NONE',  ( 1.000000000000000000, 0.000000000000000000, 0.000000000000000000 ) ) ;
#108 = VERTEX_POINT ( 'NONE', #69 ) ;
#109 = COORDINATED_UNIVERSAL_TIME_OFFSET ( 1, 0, .AHEAD. ) ;
#110 = EDGE_CURVE ( 'NONE', #46, #120, #372, .T. ) ;
#111 = ORIENTED_EDGE ( 'NONE', *, *, #3, .F. ) ;
#112 = PERSON_AND_ORGANIZATION ( #281, #94 ) ;
#113 = AXIS2_PLACEMENT_3D ( 'NONE', #368, #104, #248 ) ;
#114 = CARTESIAN_POINT ( 'NONE',  ( 6.000000000000000888, 7.347880794884120722E-16, 7.700000000000040146 ) ) ;
#115 = ORIENTED_EDGE ( 'NONE', *, *, #354, .T. ) ;
#116 = UNCERTAINTY_MEASURE_WITH_UNIT (LENGTH_MEASURE( 1.000000000000000082E-05 ), #28, 'distance_accuracy_value', 'NONE');
#117 = LOCAL_TIME ( 16, 28, 51.00000000000000000, #109 ) ;
#118 = ORIENTED_EDGE ( 'NONE', *, *, #369, .F. ) ;
#119 = DIRECTION ( 'NONE',  ( 0.000000000000000000, 0.000000000000000000, -1.000000000000000000 ) ) ;
#120 = VERTEX_POINT ( 'NONE', #97 ) ;
#121 = EDGE_CURVE ( 'NONE', #287, #258, #358, .T. ) ;
#122 = APPLICATION_PROTOCOL_DEFINITION ( 'international standard', 'config_control_design', 1994, #279 ) ;
#123 = CIRCLE ( 'NONE', #286, 10.00000000000000000 ) ;
#124 = DIRECTION ( 'NONE',  ( -0.000000000000000000, -0.000000000000000000, -1.000000000000000000 ) ) ;
#125 = DIRECTION ( 'NONE',  ( 0.000000000000000000, 0.000000000000000000, 1.000000000000000000 ) ) ;
#126 = AXIS2_PLACEMENT_3D ( 'NONE', #343, #144, #107 ) ;
#127 = CARTESIAN_POINT ( 'NONE',  ( 0.000000000000000000, 0.000000000000000000, 7.000000000000000000 ) ) ;
#128 = CC_DESIGN_DATE_AND_TIME_ASSIGNMENT ( #224, #53, ( #242 ) ) ;
#129 = FACE_OUTER_BOUND ( 'NONE', #58, .T. ) ;
#130 = AXIS2_PLACEMENT_3D ( 'NONE', #188, #192, #298 ) ;
#131 = DIRECTION ( 'NONE',  ( 0.000000000000000000, 0.000000000000000000, 1.000000000000000000 ) ) ;
#132 = CARTESIAN_POINT ( 'NONE',  ( 0.000000000000000000, 0.000000000000000000, 7.700000000000040146 ) ) ;
#133 = DIRECTION ( 'NONE',  ( 1.000000000000000000, 0.000000000000000000, 0.000000000000000000 ) ) ;
#134 = AXIS2_PLACEMENT_3D ( 'NONE', #367, #76, #175 ) ;
#135 = FACE_OUTER_BOUND ( 'NONE', #262, .T. ) ;
#136 = CC_DESIGN_PERSON_AND_ORGANIZATION_ASSIGNMENT ( #176, #230, ( #206 ) ) ;
#137 = ORIENTED_EDGE ( 'NONE', *, *, #110, .F. ) ;
#138 = DIRECTION ( 'NONE',  ( 1.000000000000000000, 0.000000000000000000, -0.000000000000000000 ) ) ;
#139 = EDGE_LOOP ( 'NONE', ( #199, #55, #245, #111 ) ) ;
#140 = DESIGN_CONTEXT ( 'detailed design', #239, 'design' ) ;
#141 = COORDINATED_UNIVERSAL_TIME_OFFSET ( 1, 0, .AHEAD. ) ;
#142 = ADVANCED_FACE ( 'NONE', ( #338, #35 ), #164, .T. ) ;
#143 = APPROVAL_DATE_TIME ( #228, #83 ) ;
#144 = DIRECTION ( 'NONE',  ( 0.000000000000000000, 0.000000000000000000, 1.000000000000000000 ) ) ;
#145 = CALENDAR_DATE ( 2022, 8, 7 ) ;
#146 = EDGE_LOOP ( 'NONE', ( #256, #201, #85, #26 ) ) ;
#147 = DIRECTION ( 'NONE',  ( -1.000000000000000000, 0.000000000000000000, 0.000000000000000000 ) ) ;
#148 = AXIS2_PLACEMENT_3D ( 'NONE', #101, #167, #220 ) ;
#149 = AXIS2_PLACEMENT_3D ( 'NONE', #250, #165, #252 ) ;
#150 = DIRECTION ( 'NONE',  ( 1.000000000000000000, 0.000000000000000000, 0.000000000000000000 ) ) ;
#151 = ORIENTED_EDGE ( 'NONE', *, *, #6, .F. ) ;
#152 = PRODUCT ( '03ba', '03ba', '', ( #47 ) ) ;
#153 = ADVANCED_FACE ( 'NONE', ( #135 ), #333, .T. ) ;
#154 = DIRECTION ( 'NONE',  ( 1.000000000000000000, 0.000000000000000000, 0.000000000000000000 ) ) ;
#155 = ORIENTED_EDGE ( 'NONE', *, *, #110, .T. ) ;
#156 = CC_DESIGN_PERSON_AND_ORGANIZATION_ASSIGNMENT ( #174, #16, ( #152 ) ) ;
#157 = CARTESIAN_POINT ( 'NONE',  ( 0.000000000000000000, 0.000000000000000000, 807.0000000000000000 ) ) ;
#158 = CIRCLE ( 'NONE', #195, 10.00000000000000000 ) ;
#159 = ORIENTED_EDGE ( 'NONE', *, *, #257, .F. ) ;
#160 = CARTESIAN_POINT ( 'NONE',  ( 0.000000000000000000, 0.000000000000000000, 0.000000000000000000 ) ) ;
#161 = DIRECTION ( 'NONE',  ( 1.000000000000000000, 0.000000000000000000, 0.000000000000000000 ) ) ;
#162 = DIRECTION ( 'NONE',  ( 0.000000000000000000, 0.000000000000000000, 1.000000000000000000 ) ) ;
#163 = VECTOR ( 'NONE', #316, 1000.000000000000000 ) ;
#164 = PLANE ( 'NONE',  #57 ) ;
#165 = DIRECTION ( 'NONE',  ( 0.000000000000000000, 0.000000000000000000, 1.000000000000000000 ) ) ;
#166 = CIRCLE ( 'NONE', #71, 4.250000000000000000 ) ;
#167 = DIRECTION ( 'NONE',  ( -0.000000000000000000, -0.000000000000000000, -1.000000000000000000 ) ) ;
#168 = CIRCLE ( 'NONE', #40, 4.250000000000000000 ) ;
#169 = LINE ( 'NONE', #48, #259 ) ;
#170 = ADVANCED_FACE ( 'NONE', ( #332, #362 ), #198, .T. ) ;
#171 = FACE_OUTER_BOUND ( 'NONE', #139, .T. ) ;
#172 = EDGE_LOOP ( 'NONE', ( #209, #193, #181, #310 ) ) ;
#173 = AXIS2_PLACEMENT_3D ( 'NONE', #132, #70, #297 ) ;
#174 = PERSON_AND_ORGANIZATION ( #281, #94 ) ;
#175 = DIRECTION ( 'NONE',  ( 1.000000000000000000, 0.000000000000000000, 0.000000000000000000 ) ) ;
#176 = PERSON_AND_ORGANIZATION ( #281, #94 ) ;
#177 = DIRECTION ( 'NONE',  ( 1.224646799147353207E-16, 1.000000000000000000, -0.000000000000000000 ) ) ;
#178 = EDGE_LOOP ( 'NONE', ( #240, #9 ) ) ;
#179 = AXIS2_PLACEMENT_3D ( 'NONE', #375, #267, #119 ) ;
#180 = ORIENTED_EDGE ( 'NONE', *, *, #327, .F. ) ;
#181 = ORIENTED_EDGE ( 'NONE', *, *, #307, .T. ) ;
#182 = EDGE_CURVE ( 'NONE', #11, #265, #273, .T. ) ;
#183 = ORIENTED_EDGE ( 'NONE', *, *, #257, .T. ) ;
#184 = AXIS2_PLACEMENT_3D ( 'NONE', #15, #45, #261 ) ;
#185 = DIRECTION ( 'NONE',  ( -0.000000000000000000, -0.000000000000000000, -1.000000000000000000 ) ) ;
#186 = CC_DESIGN_PERSON_AND_ORGANIZATION_ASSIGNMENT ( #315, #103, ( #311 ) ) ;
#187 = CYLINDRICAL_SURFACE ( 'NONE', #357, 10.00000000000000000 ) ;
#188 = CARTESIAN_POINT ( 'NONE',  ( 0.000000000000000000, 0.000000000000000000, 807.0000000000000000 ) ) ;
#189 = LOCAL_TIME ( 16, 28, 51.00000000000000000, #141 ) ;
#190 = ORIENTED_EDGE ( 'NONE', *, *, #182, .F. ) ;
#191 = ADVANCED_FACE ( 'NONE', ( #274 ), #223, .F. ) ;
#192 = DIRECTION ( 'NONE',  ( 0.000000000000000000, 0.000000000000000000, -1.000000000000000000 ) ) ;
#193 = ORIENTED_EDGE ( 'NONE', *, *, #241, .T. ) ;
#194 = DIRECTION ( 'NONE',  ( 1.000000000000000000, 0.000000000000000000, 0.000000000000000000 ) ) ;
#195 = AXIS2_PLACEMENT_3D ( 'NONE', #127, #269, #154 ) ;
#196 = PERSON_AND_ORGANIZATION ( #281, #94 ) ;
#197 = EDGE_CURVE ( 'NONE', #108, #351, #330, .T. ) ;
#198 = PLANE ( 'NONE',  #301 ) ;
#199 = ORIENTED_EDGE ( 'NONE', *, *, #324, .F. ) ;
#200 = PERSON_AND_ORGANIZATION ( #281, #94 ) ;
#201 = ORIENTED_EDGE ( 'NONE', *, *, #289, .T. ) ;
#202 = ADVANCED_BREP_SHAPE_REPRESENTATION ( '03ba', ( #322, #134 ), #222 ) ;
#203 = COORDINATED_UNIVERSAL_TIME_OFFSET ( 1, 0, .AHEAD. ) ;
#204 = FACE_OUTER_BOUND ( 'NONE', #32, .T. ) ;
#205 = PERSON_AND_ORGANIZATION_ROLE ( 'classification_officer' ) ;
#206 = PRODUCT_DEFINITION ( 'NEZNÁMÝ', '', #311, #140 ) ;
#207 = PERSON_AND_ORGANIZATION_ROLE ( 'design_supplier' ) ;
#208 = CARTESIAN_POINT ( 'NONE',  ( 10.00000000000000000, 1.224646799147353256E-15, 7.000000000000000000 ) ) ;
#209 = ORIENTED_EDGE ( 'NONE', *, *, #121, .F. ) ;
#210 = ORIENTED_EDGE ( 'NONE', *, *, #284, .T. ) ;
#211 = AXIS2_PLACEMENT_3D ( 'NONE', #276, #8, #254 ) ;
#212 = EDGE_CURVE ( 'NONE', #82, #351, #74, .T. ) ;
#213 = CARTESIAN_POINT ( 'NONE',  ( 0.000000000000000000, 0.000000000000000000, 807.0000000000000000 ) ) ;
#214 = DIRECTION ( 'NONE',  ( 0.000000000000000000, 0.000000000000000000, -1.000000000000000000 ) ) ;
#215 =( NAMED_UNIT ( * ) SI_UNIT ( $, .STERADIAN. ) SOLID_ANGLE_UNIT ( ) );
#216 = AXIS2_PLACEMENT_3D ( 'NONE', #376, #346, #150 ) ;
#217 = CARTESIAN_POINT ( 'NONE',  ( 0.000000000000000000, 0.000000000000000000, 7.000000000000000000 ) ) ;
#218 = CARTESIAN_POINT ( 'NONE',  ( -4.250000000000000000, 0.000000000000000000, 0.000000000000000000 ) ) ;
#219 = DIRECTION ( 'NONE',  ( 0.000000000000000000, 0.000000000000000000, 1.000000000000000000 ) ) ;
#220 = DIRECTION ( 'NONE',  ( 1.000000000000000000, 0.000000000000000000, 0.000000000000000000 ) ) ;
#221 = EDGE_CURVE ( 'NONE', #317, #73, #168, .T. ) ;
#222 =( GEOMETRIC_REPRESENTATION_CONTEXT ( 3 ) GLOBAL_UNCERTAINTY_ASSIGNED_CONTEXT ( ( #116 ) ) GLOBAL_UNIT_ASSIGNED_CONTEXT ( ( #28, #60, #215 ) ) REPRESENTATION_CONTEXT ( 'NONE', 'WORKASPACE' ) );
#223 = CYLINDRICAL_SURFACE ( 'NONE', #130, 4.250000000000000000 ) ;
#224 = DATE_AND_TIME ( #77, #117 ) ;
#225 = DIRECTION ( 'NONE',  ( -1.000000000000000000, 0.000000000000000000, 0.000000000000000000 ) ) ;
#226 = AXIS2_PLACEMENT_3D ( 'NONE', #157, #125, #31 ) ;
#227 = APPROVAL ( #80, 'NEURÈENÝ' ) ;
#228 = DATE_AND_TIME ( #277, #189 ) ;
#229 = DIRECTION ( 'NONE',  ( 0.000000000000000000, 0.000000000000000000, 1.000000000000000000 ) ) ;
#230 = PERSON_AND_ORGANIZATION_ROLE ( 'creator' ) ;
#231 = FACE_OUTER_BOUND ( 'NONE', #172, .T. ) ;
#232 = CALENDAR_DATE ( 2022, 8, 7 ) ;
#233 = CYLINDRICAL_SURFACE ( 'NONE', #29, 4.250000000000000000 ) ;
#234 = EDGE_LOOP ( 'NONE', ( #282, #52 ) ) ;
#235 = LOCAL_TIME ( 16, 28, 51.00000000000000000, #12 ) ;
#236 = PERSON_AND_ORGANIZATION ( #281, #94 ) ;
#237 = DIRECTION ( 'NONE',  ( -0.000000000000000000, -0.000000000000000000, -1.000000000000000000 ) ) ;
#238 = EDGE_LOOP ( 'NONE', ( #268, #118, #210, #260 ) ) ;
#239 = APPLICATION_CONTEXT ( 'configuration controlled 3d designs of mechanical parts and assemblies' ) ;
#240 = ORIENTED_EDGE ( 'NONE', *, *, #102, .F. ) ;
#241 = EDGE_CURVE ( 'NONE', #287, #265, #87, .T. ) ;
#242 = SECURITY_CLASSIFICATION ( '', '', #339 ) ;
#243 = PLANE ( 'NONE',  #308 ) ;
#244 = AXIS2_PLACEMENT_3D ( 'NONE', #59, #185, #290 ) ;
#245 = ORIENTED_EDGE ( 'NONE', *, *, #327, .T. ) ;
#246 = ADVANCED_FACE ( 'NONE', ( #231 ), #280, .T. ) ;
#247 = CIRCLE ( 'NONE', #34, 10.00000000000000000 ) ;
#248 = DIRECTION ( 'NONE',  ( 1.000000000000000000, 0.000000000000000000, 0.000000000000000000 ) ) ;
#249 = ADVANCED_FACE ( 'NONE', ( #171 ), #105, .F. ) ;
#250 = CARTESIAN_POINT ( 'NONE',  ( 0.000000000000000000, 0.000000000000000000, 807.0000000000000000 ) ) ;
#251 = VERTEX_POINT ( 'NONE', #208 ) ;
#252 = DIRECTION ( 'NONE',  ( 1.000000000000000000, 0.000000000000000000, 0.000000000000000000 ) ) ;
#253 = LOCAL_TIME ( 16, 28, 51.00000000000000000, #22 ) ;
#254 = DIRECTION ( 'NONE',  ( 1.000000000000000000, 0.000000000000000000, 0.000000000000000000 ) ) ;
#255 = ORIENTED_EDGE ( 'NONE', *, *, #340, .T. ) ;
#256 = ORIENTED_EDGE ( 'NONE', *, *, #102, .T. ) ;
#257 = EDGE_CURVE ( 'NONE', #251, #82, #42, .T. ) ;
#258 = VERTEX_POINT ( 'NONE', #309 ) ;
#259 = VECTOR ( 'NONE', #86, 1000.000000000000000 ) ;
#260 = ORIENTED_EDGE ( 'NONE', *, *, #182, .T. ) ;
#261 = DIRECTION ( 'NONE',  ( -1.000000000000000000, 0.000000000000000000, 0.000000000000000000 ) ) ;
#262 = EDGE_LOOP ( 'NONE', ( #347, #183, #364, #306 ) ) ;
#263 = DATE_TIME_ROLE ( 'creation_date' ) ;
#264 = CARTESIAN_POINT ( 'NONE',  ( 4.250000000000000000, 5.204748896376250699E-16, 0.000000000000000000 ) ) ;
#265 = VERTEX_POINT ( 'NONE', #114 ) ;
#266 = CIRCLE ( 'NONE', #179, 0.7000000000000000666 ) ;
#267 = DIRECTION ( 'NONE',  ( 0.000000000000000000, -1.000000000000000000, 0.000000000000000000 ) ) ;
#268 = ORIENTED_EDGE ( 'NONE', *, *, #241, .F. ) ;
#269 = DIRECTION ( 'NONE',  ( 0.000000000000000000, 0.000000000000000000, 1.000000000000000000 ) ) ;
#270 = LINE ( 'NONE', #271, #325 ) ;
#271 = CARTESIAN_POINT ( 'NONE',  ( -4.250000000000000000, 0.000000000000000000, 807.0000000000000000 ) ) ;
#272 = DIRECTION ( 'NONE',  ( 0.000000000000000000, 0.000000000000000000, 1.000000000000000000 ) ) ;
#273 = CIRCLE ( 'NONE', #173, 6.000000000000000888 ) ;
#274 = FACE_OUTER_BOUND ( 'NONE', #146, .T. ) ;
#275 = DIRECTION ( 'NONE',  ( 1.000000000000000000, 0.000000000000000000, -0.000000000000000000 ) ) ;
#276 = CARTESIAN_POINT ( 'NONE',  ( 0.000000000000000000, 0.000000000000000000, 0.000000000000000000 ) ) ;
#277 = CALENDAR_DATE ( 2022, 8, 7 ) ;
#278 = CARTESIAN_POINT ( 'NONE',  ( 0.000000000000000000, 0.000000000000000000, 0.000000000000000000 ) ) ;
#279 = APPLICATION_CONTEXT ( 'configuration controlled 3d designs of mechanical parts and assemblies' ) ;
#280 = CYLINDRICAL_SURFACE ( 'NONE', #184, 6.000000000000000888 ) ;
#281 = PERSON ( 'NEURÈENÝ', 'NEURÈENÝ', 'NEURÈENÝ', ('NEURÈENÝ'), ('NEURÈENÝ'), ('NEURÈENÝ') ) ;
#282 = ORIENTED_EDGE ( 'NONE', *, *, #369, .T. ) ;
#283 = LOCAL_TIME ( 16, 28, 51.00000000000000000, #203 ) ;
#284 = EDGE_CURVE ( 'NONE', #258, #11, #169, .T. ) ;
#285 = CARTESIAN_POINT ( 'NONE',  ( 10.00000000000000000, 1.224646799147353256E-15, 7.000000000000000000 ) ) ;
#286 = AXIS2_PLACEMENT_3D ( 'NONE', #328, #295, #161 ) ;
#287 = VERTEX_POINT ( 'NONE', #17 ) ;
#288 = EDGE_LOOP ( 'NONE', ( #190, #373, #137, #180 ) ) ;
#289 = EDGE_CURVE ( 'NONE', #99, #317, #350, .T. ) ;
#290 = DIRECTION ( 'NONE',  ( -1.000000000000000000, 0.000000000000000000, 0.000000000000000000 ) ) ;
#291 = ORIENTED_EDGE ( 'NONE', *, *, #56, .F. ) ;
#292 = AXIS2_PLACEMENT_3D ( 'NONE', #78, #177, #84 ) ;
#293 = DIRECTION ( 'NONE',  ( -0.000000000000000000, -0.000000000000000000, -1.000000000000000000 ) ) ;
#294 = PRODUCT_DEFINITION_SHAPE ( 'NONE', 'NONE',  #206 ) ;
#295 = DIRECTION ( 'NONE',  ( 0.000000000000000000, 0.000000000000000000, 1.000000000000000000 ) ) ;
#296 = CARTESIAN_POINT ( 'NONE',  ( 6.700000000000001066, 0.000000000000000000, 7.000000000000020428 ) ) ;
#297 = DIRECTION ( 'NONE',  ( 1.000000000000000000, 0.000000000000000000, 0.000000000000000000 ) ) ;
#298 = DIRECTION ( 'NONE',  ( -1.000000000000000000, 0.000000000000000000, 0.000000000000000000 ) ) ;
#299 = ADVANCED_FACE ( 'NONE', ( #204 ), #233, .F. ) ;
#300 = CARTESIAN_POINT ( 'NONE',  ( 10.00000000000000000, 1.224646799147353256E-15, 0.000000000000000000 ) ) ;
#301 = AXIS2_PLACEMENT_3D ( 'NONE', #33, #219, #275 ) ;
#302 = APPLICATION_PROTOCOL_DEFINITION ( 'international standard', 'config_control_design', 1994, #239 ) ;
#303 = DIRECTION ( 'NONE',  ( 0.000000000000000000, 0.000000000000000000, -1.000000000000000000 ) ) ;
#304 = DATE_AND_TIME ( #145, #253 ) ;
#305 = CARTESIAN_POINT ( 'NONE',  ( 6.000000000000000888, 7.347880794884120722E-16, 807.0000000000000000 ) ) ;
#306 = ORIENTED_EDGE ( 'NONE', *, *, #197, .F. ) ;
#307 = EDGE_CURVE ( 'NONE', #265, #11, #359, .T. ) ;
#308 = AXIS2_PLACEMENT_3D ( 'NONE', #160, #272, #1 ) ;
#309 = CARTESIAN_POINT ( 'NONE',  ( -6.000000000000000888, 0.000000000000000000, 807.0000000000000000 ) ) ;
#310 = ORIENTED_EDGE ( 'NONE', *, *, #284, .F. ) ;
#311 = PRODUCT_DEFINITION_FORMATION_WITH_SPECIFIED_SOURCE ( 'LIBOVOLNÝ', '', #152, .NOT_KNOWN. ) ;
#312 = APPROVAL_STATUS ( 'not_yet_approved' ) ;
#313 = CARTESIAN_POINT ( 'NONE',  ( -4.250000000000000000, 0.000000000000000000, 807.0000000000000000 ) ) ;
#314 = ORIENTED_EDGE ( 'NONE', *, *, #56, .T. ) ;
#315 = PERSON_AND_ORGANIZATION ( #281, #94 ) ;
#316 = DIRECTION ( 'NONE',  ( 0.000000000000000000, 0.000000000000000000, -1.000000000000000000 ) ) ;
#317 = VERTEX_POINT ( 'NONE', #264 ) ;
#318 = CARTESIAN_POINT ( 'NONE',  ( -10.00000000000000000, 0.000000000000000000, 0.000000000000000000 ) ) ;
#319 = CIRCLE ( 'NONE', #292, 0.7000000000000000666 ) ;
#320 = DIRECTION ( 'NONE',  ( 1.000000000000000000, 0.000000000000000000, 0.000000000000000000 ) ) ;
#321 = CYLINDRICAL_SURFACE ( 'NONE', #244, 6.000000000000000888 ) ;
#322 = MANIFOLD_SOLID_BREP ( 'Odebrat vysunutím3', #38 ) ;
#323 = DIRECTION ( 'NONE',  ( -1.000000000000000000, 0.000000000000000000, 0.000000000000000000 ) ) ;
#324 = EDGE_CURVE ( 'NONE', #11, #120, #319, .T. ) ;
#325 = VECTOR ( 'NONE', #214, 1000.000000000000000 ) ;
#326 = VERTEX_POINT ( 'NONE', #313 ) ;
#327 = EDGE_CURVE ( 'NONE', #265, #46, #266, .T. ) ;
#328 = CARTESIAN_POINT ( 'NONE',  ( 0.000000000000000000, 0.000000000000000000, 7.000000000000000000 ) ) ;
#329 = CIRCLE ( 'NONE', #377, 4.250000000000000000 ) ;
#330 = LINE ( 'NONE', #336, #100 ) ;
#331 = CC_DESIGN_SECURITY_CLASSIFICATION ( #242, ( #311 ) ) ;
#332 = FACE_BOUND ( 'NONE', #90, .T. ) ;
#333 = CYLINDRICAL_SURFACE ( 'NONE', #360, 10.00000000000000000 ) ;
#334 = APPROVAL ( #44, 'NEURÈENÝ' ) ;
#335 = AXIS2_PLACEMENT_3D ( 'NONE', #95, #293, #355 ) ;
#336 = CARTESIAN_POINT ( 'NONE',  ( -10.00000000000000000, 0.000000000000000000, 7.000000000000000000 ) ) ;
#337 = APPROVAL_ROLE ( '' ) ;
#338 = FACE_BOUND ( 'NONE', #178, .T. ) ;
#339 = SECURITY_CLASSIFICATION_LEVEL ( 'unclassified' ) ;
#340 = EDGE_CURVE ( 'NONE', #351, #82, #247, .T. ) ;
#341 = ORIENTED_EDGE ( 'NONE', *, *, #3, .T. ) ;
#342 = PERSON_AND_ORGANIZATION ( #281, #94 ) ;
#343 = CARTESIAN_POINT ( 'NONE',  ( 0.000000000000000000, 0.000000000000000000, 7.700000000000040146 ) ) ;
#344 = CIRCLE ( 'NONE', #335, 4.250000000000000000 ) ;
#345 = SHAPE_DEFINITION_REPRESENTATION ( #294, #202 ) ;
#346 = DIRECTION ( 'NONE',  ( 0.000000000000000000, 0.000000000000000000, 1.000000000000000000 ) ) ;
#347 = ORIENTED_EDGE ( 'NONE', *, *, #354, .F. ) ;
#348 = APPROVAL_PERSON_ORGANIZATION ( #236, #227, #106 ) ;
#349 = ORIENTED_EDGE ( 'NONE', *, *, #289, .F. ) ;
#350 = LINE ( 'NONE', #81, #163 ) ;
#351 = VERTEX_POINT ( 'NONE', #318 ) ;
#352 = EDGE_LOOP ( 'NONE', ( #381, #115 ) ) ;
#353 = APPROVAL_PERSON_ORGANIZATION ( #196, #83, #371 ) ;
#354 = EDGE_CURVE ( 'NONE', #251, #108, #158, .T. ) ;
#355 = DIRECTION ( 'NONE',  ( 1.000000000000000000, 0.000000000000000000, 0.000000000000000000 ) ) ;
#356 = ORIENTED_EDGE ( 'NONE', *, *, #197, .T. ) ;
#357 = AXIS2_PLACEMENT_3D ( 'NONE', #217, #2, #323 ) ;
#358 = CIRCLE ( 'NONE', #149, 6.000000000000000888 ) ;
#359 = CIRCLE ( 'NONE', #216, 6.000000000000000888 ) ;
#360 = AXIS2_PLACEMENT_3D ( 'NONE', #5, #66, #225 ) ;
#361 = FACE_OUTER_BOUND ( 'NONE', #238, .T. ) ;
#362 = FACE_OUTER_BOUND ( 'NONE', #352, .T. ) ;
#363 = CIRCLE ( 'NONE', #88, 6.700000000000001066 ) ;
#364 = ORIENTED_EDGE ( 'NONE', *, *, #212, .T. ) ;
#365 = CARTESIAN_POINT ( 'NONE',  ( 0.000000000000000000, 0.000000000000000000, 807.0000000000000000 ) ) ;
#366 = CARTESIAN_POINT ( 'NONE',  ( 0.000000000000000000, 0.000000000000000000, 0.000000000000000000 ) ) ;
#367 = CARTESIAN_POINT ( 'NONE',  ( 0.000000000000000000, 0.000000000000000000, 0.000000000000000000 ) ) ;
#368 = CARTESIAN_POINT ( 'NONE',  ( 0.000000000000000000, 0.000000000000000000, 7.700000000000040146 ) ) ;
#369 = EDGE_CURVE ( 'NONE', #258, #287, #7, .T. ) ;
#370 = DATE_AND_TIME ( #232, #283 ) ;
#371 = APPROVAL_ROLE ( '' ) ;
#372 = CIRCLE ( 'NONE', #148, 6.700000000000001066 ) ;
#373 = ORIENTED_EDGE ( 'NONE', *, *, #324, .T. ) ;
#374 = CALENDAR_DATE ( 2022, 8, 7 ) ;
#375 = CARTESIAN_POINT ( 'NONE',  ( 6.700000000000001066, 0.000000000000000000, 7.700000000000040146 ) ) ;
#376 = CARTESIAN_POINT ( 'NONE',  ( 0.000000000000000000, 0.000000000000000000, 7.700000000000040146 ) ) ;
#377 = AXIS2_PLACEMENT_3D ( 'NONE', #213, #93, #65 ) ;
#378 = CC_DESIGN_PERSON_AND_ORGANIZATION_ASSIGNMENT ( #342, #207, ( #311 ) ) ;
#379 = FACE_BOUND ( 'NONE', #25, .T. ) ;
#380 = CC_DESIGN_APPROVAL ( #334, ( #242 ) ) ;
#381 = ORIENTED_EDGE ( 'NONE', *, *, #6, .T. ) ;
ENDSEC;
END-ISO-10303-21;
